  0
SECTION
  2
HEADER
  9
$ACADVER
  1
AC1018
  9
$ACADMAINTVER
 70
     0
  9
$DWGCODEPAGE
  3
ANSI_1252
  9
$AUTHOR
  1
g6edxjah
  9
$LASTSAVEDBY
  1
g6edxjah
  9
$INSBASE
 10
0.0
 20
0.0
 30
0.0
  9
$EXTMIN
 10
25.918458
 20
0.043458
 30
0.0
  9
$EXTMAX
 10
37.081542
 20
8.456542
 30
0.0
  9
$LIMMIN
 10
3.543291
 20
-23.706709
  9
$LIMMAX
 10
59.456709
 20
32.206709
  9
$ORTHOMODE
 70
     0
  9
$REGENMODE
 70
     1
  9
$FILLMODE
 70
     1
  9
$QTEXTMODE
 70
     0
  9
$MIRRTEXT
 70
     0
  9
$LTSCALE
 40
1.0
  9
$ATTMODE
 70
     1
  9
$TEXTSIZE
 40
0.12
  9
$TRACEWID
 40
0.05
  9
$TEXTSTYLE
  7
Standard
  9
$CLAYER
  8
TEXT
  9
$CELTYPE
  6
Continuous
  9
$CECOLOR
 62
     7
  9
$CELTSCALE
 40
1.0
  9
$DISPSILH
 70
     0
  9
$DIMSCALE
 40
1.0
  9
$DIMASZ
 40
0.12
  9
$DIMEXO
 40
0.06
  9
$DIMDLI
 40
0.0
  9
$DIMRND
 40
0.0
  9
$DIMDLE
 40
0.0
  9
$DIMEXE
 40
0.06
  9
$DIMTP
 40
0.0
  9
$DIMTM
 40
0.0
  9
$DIMTXT
 40
0.12
  9
$DIMCEN
 40
0.09
  9
$DIMTSZ
 40
0.0
  9
$DIMTOL
 70
     0
  9
$DIMLIM
 70
     0
  9
$DIMTIH
 70
     0
  9
$DIMTOH
 70
     0
  9
$DIMSE1
 70
     0
  9
$DIMSE2
 70
     0
  9
$DIMTAD
 70
     1
  9
$DIMZIN
 70
    11
  9
$DIMBLK
  1
TerminatorOpen_0.5
  9
$DIMASO
 70
     1
  9
$DIMSHO
 70
     1
  9
$DIMPOST
  1

  9
$DIMAPOST
  1

  9
$DIMALT
 70
     0
  9
$DIMALTD
 70
     4
  9
$DIMALTF
 40
25.4
  9
$DIMLFAC
 40
1.0
  9
$DIMTOFL
 70
     0
  9
$DIMTVP
 40
0.0
  9
$DIMTIX
 70
     0
  9
$DIMSOXD
 70
     0
  9
$DIMSAH
 70
     0
  9
$DIMBLK1
  1

  9
$DIMBLK2
  1

  9
$DIMSTYLE
  2
Standard
  9
$DIMCLRD
 70
     0
  9
$DIMCLRE
 70
     0
  9
$DIMCLRT
 70
     0
  9
$DIMTFAC
 40
1.0
  9
$DIMGAP
 40
0.06
  9
$DIMJUST
 70
     0
  9
$DIMSD1
 70
     0
  9
$DIMSD2
 70
     0
  9
$DIMTOLJ
 70
     0
  9
$DIMTZIN
 70
    11
  9
$DIMALTZ
 70
    15
  9
$DIMALTTZ
 70
    15
  9
$DIMUPT
 70
     0
  9
$DIMDEC
 70
     4
  9
$DIMTDEC
 70
     4
  9
$DIMALTU
 70
     2
  9
$DIMALTTD
 70
     4
  9
$DIMTXSTY
  7
Style-Arial
  9
$DIMAUNIT
 70
     0
  9
$DIMADEC
 70
     4
  9
$DIMALTRND
 40
0.0
  9
$DIMAZIN
 70
     3
  9
$DIMDSEP
 70
    46
  9
$DIMATFIT
 70
     1
  9
$DIMFRAC
 70
     0
  9
$DIMLDRBLK
  1
TerminatorOpen_0.5
  9
$DIMLUNIT
 70
     2
  9
$DIMLWD
 70
    -2
  9
$DIMLWE
 70
    -2
  9
$DIMTMOVE
 70
     0
  9
$LUNITS
 70
     2
  9
$LUPREC
 70
     4
  9
$SKETCHINC
 40
0.1
  9
$FILLETRAD
 40
0.0
  9
$AUNITS
 70
     0
  9
$AUPREC
 70
     4
  9
$MENU
  1
.
  9
$ELEVATION
 40
0.0
  9
$PELEVATION
 40
0.0
  9
$THICKNESS
 40
0.0
  9
$LIMCHECK
 70
     0
  9
$CHAMFERA
 40
0.0
  9
$CHAMFERB
 40
0.0
  9
$CHAMFERC
 40
0.0
  9
$CHAMFERD
 40
0.0
  9
$SKPOLY
 70
     0
  9
$TDCREATE
 40
2455392.526319375
  9
$TDUCREATE
 40
2455392.734652708
  9
$TDUPDATE
 40
2455392.526319548
  9
$TDUUPDATE
 40
2455392.734652882
  9
$TDINDWG
 40
0.0
  9
$TDUSRTIMER
 40
0.0006630093
  9
$USRTIMER
 70
     1
  9
$ANGBASE
 50
0.0
  9
$ANGDIR
 70
     0
  9
$PDMODE
 70
     0
  9
$PDSIZE
 40
0.0
  9
$PLINEWID
 40
0.0
  9
$SPLFRAME
 70
     0
  9
$SPLINETYPE
 70
     6
  9
$SPLINESEGS
 70
     8
  9
$HANDSEED
  5
5DC
  9
$SURFTAB1
 70
     6
  9
$SURFTAB2
 70
     6
  9
$SURFTYPE
 70
     6
  9
$SURFU
 70
     6
  9
$SURFV
 70
     6
  9
$UCSBASE
  2

  9
$UCSNAME
  2

  9
$UCSORG
 10
0.0
 20
0.0
 30
0.0
  9
$UCSXDIR
 10
1.0
 20
0.0
 30
0.0
  9
$UCSYDIR
 10
0.0
 20
1.0
 30
0.0
  9
$UCSORTHOREF
  2

  9
$UCSORTHOVIEW
 70
     0
  9
$UCSORGTOP
 10
0.0
 20
0.0
 30
0.0
  9
$UCSORGBOTTOM
 10
0.0
 20
0.0
 30
0.0
  9
$UCSORGLEFT
 10
0.0
 20
0.0
 30
0.0
  9
$UCSORGRIGHT
 10
0.0
 20
0.0
 30
0.0
  9
$UCSORGFRONT
 10
0.0
 20
0.0
 30
0.0
  9
$UCSORGBACK
 10
0.0
 20
0.0
 30
0.0
  9
$PUCSBASE
  2

  9
$PUCSNAME
  2

  9
$PUCSORG
 10
0.0
 20
0.0
 30
0.0
  9
$PUCSXDIR
 10
1.0
 20
0.0
 30
0.0
  9
$PUCSYDIR
 10
0.0
 20
1.0
 30
0.0
  9
$PUCSORTHOREF
  2

  9
$PUCSORTHOVIEW
 70
     0
  9
$PUCSORGTOP
 10
0.0
 20
0.0
 30
0.0
  9
$PUCSORGBOTTOM
 10
0.0
 20
0.0
 30
0.0
  9
$PUCSORGLEFT
 10
0.0
 20
0.0
 30
0.0
  9
$PUCSORGRIGHT
 10
0.0
 20
0.0
 30
0.0
  9
$PUCSORGFRONT
 10
0.0
 20
0.0
 30
0.0
  9
$PUCSORGBACK
 10
0.0
 20
0.0
 30
0.0
  9
$USERI1
 70
     0
  9
$USERI2
 70
     0
  9
$USERI3
 70
     0
  9
$USERI4
 70
     0
  9
$USERI5
 70
     0
  9
$USERR1
 40
0.0
  9
$USERR2
 40
0.0
  9
$USERR3
 40
0.0
  9
$USERR4
 40
0.0
  9
$USERR5
 40
0.0
  9
$WORLDVIEW
 70
     1
  9
$SHADEDGE
 70
     3
  9
$SHADEDIF
 70
    70
  9
$TILEMODE
 70
     1
  9
$MAXACTVP
 70
    64
  9
$PINSBASE
 10
0.0
 20
0.0
 30
0.0
  9
$PLIMCHECK
 70
     0
  9
$PEXTMIN
 10
1.049744
 20
0.799667
 30
-0.001526
  9
$PEXTMAX
 10
9.450623
 20
7.200577
 30
0.0
  9
$PLIMMIN
 10
-0.25
 20
-0.25
  9
$PLIMMAX
 10
10.75
 20
8.25
  9
$UNITMODE
 70
     0
  9
$VISRETAIN
 70
     1
  9
$PLINEGEN
 70
     0
  9
$PSLTSCALE
 70
     0
  9
$TREEDEPTH
 70
  3020
  9
$CMLSTYLE
  2
Standard
  9
$CMLJUST
 70
     0
  9
$CMLSCALE
 40
1.0
  9
$PROXYGRAPHICS
 70
     1
  9
$MEASUREMENT
 70
     0
  9
$CELWEIGHT
370
    53
  9
$ENDCAPS
280
     0
  9
$JOINSTYLE
280
     0
  9
$LWDISPLAY
290
     1
  9
$INSUNITS
 70
     2
  9
$HYPERLINKBASE
  1

  9
$STYLESHEET
  1

  9
$XEDIT
290
     1
  9
$CEPSNTYPE
380
     0
  9
$PSTYLEMODE
290
     1
  9
$FINGERPRINTGUID
  2
{02C0BBB5-38A7-4FBF-829E-00875EC88963}
  9
$VERSIONGUID
  2
{82C521FC-BF81-46B3-825E-420B6BD93A99}
  9
$EXTNAMES
290
     1
  9
$PSVPSCALE
 40
0.0
  9
$OLESTARTUP
290
     0
  9
$SORTENTS
280
   127
  9
$INDEXCTL
280
     0
  9
$HIDETEXT
280
     1
  9
$XCLIPFRAME
290
     0
  9
$HALOGAP
280
     0
  9
$OBSCOLOR
 70
   257
  9
$OBSLTYPE
280
     0
  9
$INTERSECTIONDISPLAY
280
     0
  9
$INTERSECTIONCOLOR
 70
   257
  9
$DIMASSOC
280
     1
  9
$PROJECTNAME
  1

  0
ENDSEC
  0
SECTION
  2
CLASSES
  0
CLASS
  1
ACDBDICTIONARYWDFLT
  2
AcDbDictionaryWithDefault
  3
ObjectDBX Classes
 90
        0
 91
        3
280
     0
281
     0
  0
CLASS
  1
SORTENTSTABLE
  2
AcDbSortentsTable
  3
ObjectDBX Classes
 90
        0
 91
        3
280
     0
281
     0
  0
ENDSEC
  0
SECTION
  2
TABLES
  0
TABLE
  2
VPORT
  5
5BD
330
0
100
AcDbSymbolTable
 70
     4
  0
VPORT
  5
49
330
5BD
100
AcDbSymbolTableRecord
100
AcDbViewportTableRecord
  2
*ACTIVE
 70
     0
 10
0.0
 20
0.0
 11
1.0
 21
1.0
 12
31.5
 22
4.25
 13
0.0
 23
0.0
 14
0.083333
 24
0.083333
 15
0.083333
 25
0.083333
 16
0.0
 26
0.0
 36
1.0
 17
0.0
 27
0.0
 37
0.0
 40
8.749607
 41
1.884937
 42
50.0
 43
0.0
 44
0.0
 50
0.0
 51
0.0
 71
     0
 72
   100
 73
     1
 74
     2
 75
     0
 76
     0
 77
     0
 78
     1
281
     0
 65
     1
110
0.0
120
0.0
130
0.0
111
1.0
121
0.0
131
0.0
112
0.0
122
1.0
132
0.0
 79
     0
146
0.0
  0
ENDTAB
  0
TABLE
  2
LTYPE
  5
5A4
330
0
100
AcDbSymbolTable
 70
     1
  0
LTYPE
  5
5A5
330
5A4
100
AcDbSymbolTableRecord
100
AcDbLinetypeTableRecord
  2
ByBlock
 70
     0
  3

 72
    65
 73
     0
 40
0.0
  0
LTYPE
  5
5A6
330
5A4
100
AcDbSymbolTableRecord
100
AcDbLinetypeTableRecord
  2
ByLayer
 70
     0
  3

 72
    65
 73
     0
 40
0.0
  0
LTYPE
  5
5A3
330
5A4
100
AcDbSymbolTableRecord
100
AcDbLinetypeTableRecord
  2
Continuous
 70
     0
  3
Solid line
 72
    65
 73
     0
 40
0.0
  0
ENDTAB
  0
TABLE
  2
LAYER
  5
59D
102
{ACAD_XDICTIONARY
360
59E
102
}
330
0
100
AcDbSymbolTable
 70
    64
  0
LAYER
  5
59C
330
59D
100
AcDbSymbolTableRecord
100
AcDbLayerTableRecord
  2
0
 70
     0
 62
     7
  6
Continuous
370
    -3
390
5A0
  0
LAYER
  5
7
330
59D
100
AcDbSymbolTableRecord
100
AcDbLayerTableRecord
  2
Level 1
 70
     0
 62
     7
  6
Continuous
370
     0
390
5A0
  0
LAYER
  5
8
330
59D
100
AcDbSymbolTableRecord
100
AcDbLayerTableRecord
  2
2-36G
 70
     0
 62
     7
  6
Continuous
370
     0
390
5A0
1001
AcAecLayerStandard
1000

1000
2-36G
  0
LAYER
  5
9
330
59D
100
AcDbSymbolTableRecord
100
AcDbLayerTableRecord
  2
BORDER
 70
     0
 62
     7
  6
Continuous
370
     0
390
5A0
1001
AcAecLayerStandard
1000

1000
BORDER
  0
LAYER
  5
A
330
59D
100
AcDbSymbolTableRecord
100
AcDbLayerTableRecord
  2
DEFPOINTS
 70
     0
 62
     7
  6
Continuous
290
     0
370
     0
390
5A0
1001
AcAecLayerStandard
1000

1000
DEFPOINTS
  0
LAYER
  5
B
330
59D
100
AcDbSymbolTableRecord
100
AcDbLayerTableRecord
  2
DIM
 70
     0
 62
     7
  6
Continuous
370
     0
390
5A0
1001
AcAecLayerStandard
1000

1000
DIM
  0
LAYER
  5
C
330
59D
100
AcDbSymbolTableRecord
100
AcDbLayerTableRecord
  2
HATCH
 70
     0
 62
     7
  6
Continuous
370
     0
390
5A0
1001
AcAecLayerStandard
1000

1000
HATCH
  0
LAYER
  5
D
330
59D
100
AcDbSymbolTableRecord
100
AcDbLayerTableRecord
  2
NOTES
 70
     0
 62
     7
  6
Continuous
370
     0
390
5A0
1001
AcAecLayerStandard
1000

1000
NOTES
  0
LAYER
  5
E
330
59D
100
AcDbSymbolTableRecord
100
AcDbLayerTableRecord
  2
REF
 70
     0
 62
     7
  6
Continuous
370
     0
390
5A0
1001
AcAecLayerStandard
1000

1000
REF
  0
LAYER
  5
F
330
59D
100
AcDbSymbolTableRecord
100
AcDbLayerTableRecord
  2
TEXT
 70
     0
 62
     7
  6
Continuous
370
     0
390
5A0
1001
AcAecLayerStandard
1000

1000
TEXT
  0
LAYER
  5
10
330
59D
100
AcDbSymbolTableRecord
100
AcDbLayerTableRecord
  2
TITLE
 70
     0
 62
     7
  6
Continuous
370
     0
390
5A0
1001
AcAecLayerStandard
1000

1000
TITLE
  0
LAYER
  5
11
330
59D
100
AcDbSymbolTableRecord
100
AcDbLayerTableRecord
  2
Level 11
 70
     0
 62
     7
  6
Continuous
370
     0
390
5A0
  0
LAYER
  5
12
330
59D
100
AcDbSymbolTableRecord
100
AcDbLayerTableRecord
  2
Level 12
 70
     0
 62
     7
  6
Continuous
370
     0
390
5A0
  0
LAYER
  5
13
330
59D
100
AcDbSymbolTableRecord
100
AcDbLayerTableRecord
  2
Level 13
 70
     0
 62
     7
  6
Continuous
370
     0
390
5A0
  0
LAYER
  5
14
330
59D
100
AcDbSymbolTableRecord
100
AcDbLayerTableRecord
  2
Level 14
 70
     0
 62
     7
  6
Continuous
370
     0
390
5A0
  0
LAYER
  5
15
330
59D
100
AcDbSymbolTableRecord
100
AcDbLayerTableRecord
  2
Level 15
 70
     0
 62
     7
  6
Continuous
370
     0
390
5A0
  0
LAYER
  5
16
330
59D
100
AcDbSymbolTableRecord
100
AcDbLayerTableRecord
  2
Level 16
 70
     0
 62
     7
  6
Continuous
370
     0
390
5A0
  0
LAYER
  5
17
330
59D
100
AcDbSymbolTableRecord
100
AcDbLayerTableRecord
  2
Level 17
 70
     0
 62
     7
  6
Continuous
370
     0
390
5A0
  0
LAYER
  5
18
330
59D
100
AcDbSymbolTableRecord
100
AcDbLayerTableRecord
  2
Level 18
 70
     0
 62
     7
  6
Continuous
370
     0
390
5A0
  0
LAYER
  5
19
330
59D
100
AcDbSymbolTableRecord
100
AcDbLayerTableRecord
  2
Level 19
 70
     0
 62
     7
  6
Continuous
370
     0
390
5A0
  0
LAYER
  5
1A
330
59D
100
AcDbSymbolTableRecord
100
AcDbLayerTableRecord
  2
Level 20
 70
     0
 62
     7
  6
Continuous
370
     0
390
5A0
  0
LAYER
  5
1B
330
59D
100
AcDbSymbolTableRecord
100
AcDbLayerTableRecord
  2
Level 21
 70
     0
 62
     7
  6
Continuous
370
     0
390
5A0
  0
LAYER
  5
1C
330
59D
100
AcDbSymbolTableRecord
100
AcDbLayerTableRecord
  2
Level 22
 70
     0
 62
     7
  6
Continuous
370
     0
390
5A0
  0
LAYER
  5
1D
330
59D
100
AcDbSymbolTableRecord
100
AcDbLayerTableRecord
  2
Level 23
 70
     0
 62
     7
  6
Continuous
370
     0
390
5A0
  0
LAYER
  5
1E
330
59D
100
AcDbSymbolTableRecord
100
AcDbLayerTableRecord
  2
Level 24
 70
     0
 62
     7
  6
Continuous
370
     0
390
5A0
  0
LAYER
  5
1F
330
59D
100
AcDbSymbolTableRecord
100
AcDbLayerTableRecord
  2
Level 25
 70
     0
 62
     7
  6
Continuous
370
     0
390
5A0
  0
LAYER
  5
20
330
59D
100
AcDbSymbolTableRecord
100
AcDbLayerTableRecord
  2
Level 26
 70
     0
 62
     7
  6
Continuous
370
     0
390
5A0
  0
LAYER
  5
21
330
59D
100
AcDbSymbolTableRecord
100
AcDbLayerTableRecord
  2
Level 27
 70
     0
 62
     7
  6
Continuous
370
     0
390
5A0
  0
LAYER
  5
22
330
59D
100
AcDbSymbolTableRecord
100
AcDbLayerTableRecord
  2
Level 28
 70
     0
 62
     7
  6
Continuous
370
     0
390
5A0
  0
LAYER
  5
23
330
59D
100
AcDbSymbolTableRecord
100
AcDbLayerTableRecord
  2
Level 29
 70
     0
 62
     7
  6
Continuous
370
     0
390
5A0
  0
LAYER
  5
24
330
59D
100
AcDbSymbolTableRecord
100
AcDbLayerTableRecord
  2
Level 30
 70
     0
 62
     7
  6
Continuous
370
     0
390
5A0
  0
LAYER
  5
25
330
59D
100
AcDbSymbolTableRecord
100
AcDbLayerTableRecord
  2
Level 31
 70
     0
 62
     7
  6
Continuous
370
     0
390
5A0
  0
LAYER
  5
26
330
59D
100
AcDbSymbolTableRecord
100
AcDbLayerTableRecord
  2
Level 32
 70
     0
 62
     7
  6
Continuous
370
     0
390
5A0
  0
LAYER
  5
27
330
59D
100
AcDbSymbolTableRecord
100
AcDbLayerTableRecord
  2
Level 33
 70
     0
 62
     7
  6
Continuous
370
     0
390
5A0
  0
LAYER
  5
28
330
59D
100
AcDbSymbolTableRecord
100
AcDbLayerTableRecord
  2
Level 34
 70
     0
 62
     7
  6
Continuous
370
     0
390
5A0
  0
LAYER
  5
29
330
59D
100
AcDbSymbolTableRecord
100
AcDbLayerTableRecord
  2
Level 35
 70
     0
 62
     7
  6
Continuous
370
     0
390
5A0
  0
LAYER
  5
2A
330
59D
100
AcDbSymbolTableRecord
100
AcDbLayerTableRecord
  2
Level 36
 70
     0
 62
     7
  6
Continuous
370
     0
390
5A0
  0
LAYER
  5
2B
330
59D
100
AcDbSymbolTableRecord
100
AcDbLayerTableRecord
  2
Level 37
 70
     0
 62
     7
  6
Continuous
370
     0
390
5A0
  0
LAYER
  5
2C
330
59D
100
AcDbSymbolTableRecord
100
AcDbLayerTableRecord
  2
Level 38
 70
     0
 62
     7
  6
Continuous
370
     0
390
5A0
  0
LAYER
  5
2D
330
59D
100
AcDbSymbolTableRecord
100
AcDbLayerTableRecord
  2
Level 39
 70
     0
 62
     7
  6
Continuous
370
     0
390
5A0
  0
LAYER
  5
2E
330
59D
100
AcDbSymbolTableRecord
100
AcDbLayerTableRecord
  2
Level 40
 70
     0
 62
     7
  6
Continuous
370
     0
390
5A0
  0
LAYER
  5
2F
330
59D
100
AcDbSymbolTableRecord
100
AcDbLayerTableRecord
  2
Level 41
 70
     0
 62
     7
  6
Continuous
370
     0
390
5A0
  0
LAYER
  5
30
330
59D
100
AcDbSymbolTableRecord
100
AcDbLayerTableRecord
  2
Level 42
 70
     0
 62
     7
  6
Continuous
370
     0
390
5A0
  0
LAYER
  5
31
330
59D
100
AcDbSymbolTableRecord
100
AcDbLayerTableRecord
  2
Level 43
 70
     0
 62
     7
  6
Continuous
370
     0
390
5A0
  0
LAYER
  5
32
330
59D
100
AcDbSymbolTableRecord
100
AcDbLayerTableRecord
  2
Level 44
 70
     0
 62
     7
  6
Continuous
370
     0
390
5A0
  0
LAYER
  5
33
330
59D
100
AcDbSymbolTableRecord
100
AcDbLayerTableRecord
  2
Level 45
 70
     0
 62
     7
  6
Continuous
370
     0
390
5A0
  0
LAYER
  5
34
330
59D
100
AcDbSymbolTableRecord
100
AcDbLayerTableRecord
  2
Level 46
 70
     0
 62
     7
  6
Continuous
370
     0
390
5A0
  0
LAYER
  5
35
330
59D
100
AcDbSymbolTableRecord
100
AcDbLayerTableRecord
  2
Level 47
 70
     0
 62
     7
  6
Continuous
370
     0
390
5A0
  0
LAYER
  5
36
330
59D
100
AcDbSymbolTableRecord
100
AcDbLayerTableRecord
  2
Level 48
 70
     0
 62
     7
  6
Continuous
370
     0
390
5A0
  0
LAYER
  5
37
330
59D
100
AcDbSymbolTableRecord
100
AcDbLayerTableRecord
  2
Level 49
 70
     0
 62
     7
  6
Continuous
370
     0
390
5A0
  0
LAYER
  5
38
330
59D
100
AcDbSymbolTableRecord
100
AcDbLayerTableRecord
  2
Level 50
 70
     0
 62
     7
  6
Continuous
370
     0
390
5A0
  0
LAYER
  5
39
330
59D
100
AcDbSymbolTableRecord
100
AcDbLayerTableRecord
  2
Level 51
 70
     0
 62
     7
  6
Continuous
370
     0
390
5A0
  0
LAYER
  5
3A
330
59D
100
AcDbSymbolTableRecord
100
AcDbLayerTableRecord
  2
Level 52
 70
     0
 62
     7
  6
Continuous
370
     0
390
5A0
  0
LAYER
  5
3B
330
59D
100
AcDbSymbolTableRecord
100
AcDbLayerTableRecord
  2
Level 53
 70
     0
 62
     7
  6
Continuous
370
     0
390
5A0
  0
LAYER
  5
3C
330
59D
100
AcDbSymbolTableRecord
100
AcDbLayerTableRecord
  2
Level 54
 70
     0
 62
     7
  6
Continuous
370
     0
390
5A0
  0
LAYER
  5
3D
330
59D
100
AcDbSymbolTableRecord
100
AcDbLayerTableRecord
  2
Level 55
 70
     0
 62
     7
  6
Continuous
370
     0
390
5A0
  0
LAYER
  5
3E
330
59D
100
AcDbSymbolTableRecord
100
AcDbLayerTableRecord
  2
Level 56
 70
     0
 62
     7
  6
Continuous
370
     0
390
5A0
  0
LAYER
  5
3F
330
59D
100
AcDbSymbolTableRecord
100
AcDbLayerTableRecord
  2
Level 57
 70
     0
 62
     7
  6
Continuous
370
     0
390
5A0
  0
LAYER
  5
40
330
59D
100
AcDbSymbolTableRecord
100
AcDbLayerTableRecord
  2
Level 58
 70
     0
 62
     7
  6
Continuous
370
     0
390
5A0
  0
LAYER
  5
41
330
59D
100
AcDbSymbolTableRecord
100
AcDbLayerTableRecord
  2
Level 59
 70
     0
 62
     7
  6
Continuous
370
     0
390
5A0
  0
LAYER
  5
42
330
59D
100
AcDbSymbolTableRecord
100
AcDbLayerTableRecord
  2
Level 60
 70
     0
 62
     7
  6
Continuous
370
     0
390
5A0
  0
LAYER
  5
43
330
59D
100
AcDbSymbolTableRecord
100
AcDbLayerTableRecord
  2
Level 61
 70
     0
 62
     7
  6
Continuous
370
     0
390
5A0
  0
LAYER
  5
44
330
59D
100
AcDbSymbolTableRecord
100
AcDbLayerTableRecord
  2
Level 62
 70
     0
 62
     7
  6
Continuous
370
     0
390
5A0
  0
LAYER
  5
45
330
59D
100
AcDbSymbolTableRecord
100
AcDbLayerTableRecord
  2
_0
 70
     0
 62
     7
  6
Continuous
370
     0
390
5A0
1001
AcAecLayerStandard
1000

1000
0
  0
ENDTAB
  0
TABLE
  2
STYLE
  5
5A8
330
0
100
AcDbSymbolTable
 70
     2
  0
STYLE
  5
5A7
330
5A8
100
AcDbSymbolTableRecord
100
AcDbTextStyleTableRecord
  2
Standard
 70
     0
 40
0.0
 41
1.0
 50
0.0
 71
     0
 42
0.12
  3
txt
  4

  0
STYLE
  5
5C7
330
5A8
100
AcDbSymbolTableRecord
100
AcDbTextStyleTableRecord
  2
Style-Arial
 70
     0
 40
0.0
 41
1.0
 50
0.0
 71
     0
 42
0.2
  3

  4

1001
ACAD
1000
Arial
1071
       39
  0
ENDTAB
  0
TABLE
  2
VIEW
  5
5BB
330
0
100
AcDbSymbolTable
 70
     0
  0
ENDTAB
  0
TABLE
  2
UCS
  5
5BC
330
0
100
AcDbSymbolTable
 70
     0
  0
ENDTAB
  0
TABLE
  2
APPID
  5
5BA
330
0
100
AcDbSymbolTable
 70
     3
  0
APPID
  5
5C2
330
5BA
100
AcDbSymbolTableRecord
100
AcDbRegAppTableRecord
  2
ACAD
 70
     0
  0
APPID
  5
5B9
330
5BA
100
AcDbSymbolTableRecord
100
AcDbRegAppTableRecord
  2
ACAD_PSEXT
 70
     0
  0
APPID
  5
5C4
330
5BA
100
AcDbSymbolTableRecord
100
AcDbRegAppTableRecord
  2
AcAecLayerStandard
 70
     0
  0
ENDTAB
  0
TABLE
  2
DIMSTYLE
  5
5AA
330
0
100
AcDbSymbolTable
 70
     1
100
AcDbDimStyleTable
  0
DIMSTYLE
105
5A9
330
5AA
100
AcDbSymbolTableRecord
100
AcDbDimStyleTableRecord
  2
Standard
 70
     0
340
5A7
  0
ENDTAB
  0
TABLE
  2
BLOCK_RECORD
  5
5AD
330
0
100
AcDbSymbolTable
 70
     3
  0
BLOCK_RECORD
  5
5AE
102
{ACAD_XDICTIONARY
360
5D7
102
}
330
5AD
100
AcDbSymbolTableRecord
100
AcDbBlockTableRecord
  2
*Model_Space
340
5B1
  0
BLOCK_RECORD
  5
5B3
330
5AD
100
AcDbSymbolTableRecord
100
AcDbBlockTableRecord
  2
*Paper_Space
340
5B6
  0
BLOCK_RECORD
  5
5C8
330
5AD
100
AcDbSymbolTableRecord
100
AcDbBlockTableRecord
  2
TerminatorOpen_0.5
340
0
  0
BLOCK_RECORD
  5
5D1
330
5AD
100
AcDbSymbolTableRecord
100
AcDbBlockTableRecord
  2
LARROW
340
0
102
{BLKREFS
331
4D0
331
4D2
331
4D4
331
4D6
331
4D8
331
4DA
331
4DC
331
4DE
331
4E0
331
4E2
331
4E4
331
4E6
331
4E8
331
4EA
331
4EC
102
}
  0
BLOCK_RECORD
  5
5D4
330
5AD
100
AcDbSymbolTableRecord
100
AcDbBlockTableRecord
  2
LARROW_1
340
0
102
{BLKREFS
331
4FA
331
505
331
51C
331
527
331
532
331
53D
102
}
  0
ENDTAB
  0
ENDSEC
  0
SECTION
  2
BLOCKS
  0
BLOCK
  5
5AF
330
5AE
100
AcDbEntity
  8
0
100
AcDbBlockBegin
  2
*Model_Space
 70
     0
 71
     0
 10
0.0
 20
0.0
 30
0.0
  3
*Model_Space
  1

  0
ENDBLK
  5
5B0
330
5AE
100
AcDbEntity
  8
0
100
AcDbBlockEnd
  0
BLOCK
  5
5B4
330
5B3
100
AcDbEntity
 67
     1
  8
0
100
AcDbBlockBegin
  2
*Paper_Space
 70
     0
 71
     0
 10
0.0
 20
0.0
 30
0.0
  3
*Paper_Space
  1

  0
ENDBLK
  5
5B5
330
5B3
100
AcDbEntity
 67
     1
  8
0
100
AcDbBlockEnd
  0
BLOCK
  5
5CC
330
5C8
100
AcDbEntity
  8
0
100
AcDbBlockBegin
  2
TerminatorOpen_0.5
 70
     0
 71
     0
 10
0.0
 20
0.0
 30
0.0
  3
TerminatorOpen_0.5
  1

  0
LINE
  5
5C9
330
5C8
100
AcDbEntity
  8
0
  6
ByBlock
 62
     0
370
    -2
100
AcDbLine
 10
0.0
 20
0.0
 30
0.0
 11
-1.0
 21
0.0
 31
0.0
  0
LINE
  5
5CA
330
5C8
100
AcDbEntity
  8
0
  6
ByBlock
 62
     0
370
    -2
100
AcDbLine
 10
0.0
 20
0.0
 30
0.0
 11
-1.0
 21
0.25
 31
0.0
  0
LINE
  5
5CB
330
5C8
100
AcDbEntity
  8
0
  6
ByBlock
 62
     0
370
    -2
100
AcDbLine
 10
0.0
 20
0.0
 30
0.0
 11
-1.0
 21
-0.25
 31
0.0
  0
ENDBLK
  5
5CD
330
5C8
100
AcDbEntity
  8
0
100
AcDbBlockEnd
  0
BLOCK
  5
5D2
330
5D1
100
AcDbEntity
  8
0
100
AcDbBlockBegin
  2
LARROW
 70
     0
 71
     0
 10
0.0
 20
0.0
 30
0.0
  3
LARROW
  1

  0
LWPOLYLINE
  5
4D1
330
5D1
100
AcDbEntity
  8
DIM
  6
Continuous
 62
     7
370
    13
100
AcDbPolyline
 90
       63
 70
   128
 43
0.0
 10
-0.013031
 20
0.001885
 10
0.0
 20
0.0
 10
-0.013021
 20
-0.001885
 10
-0.012615
 20
-0.001573
 10
-0.012042
 20
-0.00101
 10
-0.01176
 20
-0.00049
 10
-0.011687
 20
0.0
 10
-0.011792
 20
0.000552
 10
-0.012094
 20
0.001094
 10
-0.012677
 20
0.001625
 10
-0.013031
 20
0.001885
 10
-0.000385
 20
0.000021
 10
-0.012604
 20
-0.00176
 10
-0.012229
 20
-0.001479
 10
-0.011625
 20
-0.000906
 10
-0.011427
 20
-0.000167
 10
-0.011562
 20
0.000573
 10
-0.011917
 20
0.001083
 10
-0.012344
 20
0.0015
 10
-0.012635
 20
0.001729
 10
-0.001073
 20
0.000021
 10
-0.012052
 20
-0.001552
 10
-0.011667
 20
-0.001302
 10
-0.011469
 20
-0.000979
 10
-0.01125
 20
-0.000562
 10
-0.011135
 20
0.000021
 10
-0.011198
 20
0.0005
 10
-0.011427
 20
0.000875
 10
-0.011896
 20
0.001177
 10
-0.012208
 20
0.001542
 10
-0.001875
 20
0.000021
 10
-0.011448
 20
-0.001323
 10
-0.011021
 20
-0.000792
 10
-0.010896
 20
-0.000146
 10
-0.010958
 20
0.000573
 10
-0.011781
 20
0.001354
 10
-0.002771
 20
0.000063
 10
-0.010896
 20
-0.001073
 10
-0.010781
 20
-0.000698
 10
-0.010531
 20
-0.000094
 10
-0.010687
 20
0.000552
 10
-0.011333
 20
0.001125
 10
-0.003594
 20
0.000063
 10
-0.010604
 20
-0.000833
 10
-0.010375
 20
-0.000375
 10
-0.010271
 20
0.000115
 10
-0.01076
 20
0.000875
 10
-0.004573
 20
0.000063
 10
-0.010177
 20
-0.000625
 10
-0.010021
 20
-0.000281
 10
-0.009979
 20
0.000115
 10
-0.010375
 20
0.000667
 10
-0.00574
 20
0.000063
 10
-0.009823
 20
-0.000396
 10
-0.009708
 20
0.000135
 10
-0.010083
 20
0.000458
 10
-0.006698
 20
0.000063
 10
-0.009552
 20
-0.00024
 10
-0.009615
 20
0.000271
 10
-0.007677
 20
0.000063
 10
-0.009437
 20
-0.000073
 10
-0.00949
 20
0.000083
 10
-0.008885
 20
0.000083
  0
ENDBLK
  5
5D3
330
5D1
100
AcDbEntity
  8
0
100
AcDbBlockEnd
  0
BLOCK
  5
5D5
330
5D4
100
AcDbEntity
  8
0
100
AcDbBlockBegin
  2
LARROW_1
 70
     0
 71
     0
 10
0.0
 20
0.0
 30
0.0
  3
LARROW_1
  1

  0
LINE
  5
4FB
330
5D4
100
AcDbEntity
  8
TEXT
  6
Continuous
 62
     7
370
    13
100
AcDbLine
 10
0.0
 20
0.0
 30
0.0
 11
-0.013031
 21
0.001885
 31
0.0
  0
LINE
  5
4FC
330
5D4
100
AcDbEntity
  8
TEXT
  6
Continuous
 62
     7
370
    13
100
AcDbLine
 10
0.0
 20
0.0
 30
0.0
 11
-0.013021
 21
-0.001885
 31
0.0
  0
LWPOLYLINE
  5
4FD
330
5D4
100
AcDbEntity
  8
TEXT
  6
Continuous
 62
     7
370
    13
100
AcDbPolyline
 90
        9
 70
   128
 43
0.0
 10
-0.013031
 20
0.001885
 10
-0.01225
 20
0.001292
 10
-0.011896
 20
0.000813
 10
-0.011719
 20
0.000365
 10
-0.011688
 20
-0.000052
 10
-0.01175
 20
-0.000458
 10
-0.011958
 20
-0.000896
 10
-0.012323
 20
-0.001354
 10
-0.013021
 20
-0.001885
  0
LINE
  5
4FE
330
5D4
100
AcDbEntity
  8
TEXT
  6
Continuous
 62
     7
370
    13
100
AcDbLine
 10
0.0
 20
0.0
 30
0.0
 11
-0.01225
 21
0.001292
 31
0.0
  0
LINE
  5
4FF
330
5D4
100
AcDbEntity
  8
TEXT
  6
Continuous
 62
     7
370
    13
100
AcDbLine
 10
0.0
 20
0.0
 30
0.0
 11
-0.011896
 21
0.000813
 31
0.0
  0
LINE
  5
500
330
5D4
100
AcDbEntity
  8
TEXT
  6
Continuous
 62
     7
370
    13
100
AcDbLine
 10
0.0
 20
0.0
 30
0.0
 11
-0.011719
 21
0.000365
 31
0.0
  0
LINE
  5
501
330
5D4
100
AcDbEntity
  8
TEXT
  6
Continuous
 62
     7
370
    13
100
AcDbLine
 10
0.0
 20
0.0
 30
0.0
 11
-0.01175
 21
-0.000458
 31
0.0
  0
LINE
  5
502
330
5D4
100
AcDbEntity
  8
TEXT
  6
Continuous
 62
     7
370
    13
100
AcDbLine
 10
0.0
 20
0.0
 30
0.0
 11
-0.011958
 21
-0.000896
 31
0.0
  0
LINE
  5
503
330
5D4
100
AcDbEntity
  8
TEXT
  6
Continuous
 62
     7
370
    13
100
AcDbLine
 10
0.0
 20
0.0
 30
0.0
 11
-0.012323
 21
-0.001354
 31
0.0
  0
LINE
  5
504
330
5D4
100
AcDbEntity
  8
TEXT
  6
Continuous
 62
     7
370
    13
100
AcDbLine
 10
0.0
 20
0.0
 30
0.0
 11
-0.011677
 21
0.0
 31
0.0
  0
ENDBLK
  5
5D6
330
5D4
100
AcDbEntity
  8
0
100
AcDbBlockEnd
  0
ENDSEC
  0
SECTION
  2
ENTITIES
  0
POINT
  5
5B
330
5AE
100
AcDbEntity
  8
_0
  6
Continuous
 62
     7
370
    30
100
AcDbPoint
 10
26.986906
 20
7.875
 30
0.0
  0
LINE
  5
5C
330
5AE
100
AcDbEntity
  8
BORDER
  6
Continuous
 62
     7
370
    30
100
AcDbLine
 10
26.986906
 20
0.625
 30
0.0
 11
26.986906
 21
7.875
 31
0.0
  0
LINE
  5
5D
330
5AE
100
AcDbEntity
  8
_0
  6
Continuous
 62
     7
370
    30
100
AcDbLine
 10
30.343073
 20
6.077344
 30
0.0
 11
30.33124
 21
6.065521
 31
0.0
  0
LINE
  5
5E
330
5AE
100
AcDbEntity
  8
_0
  6
Continuous
 62
     7
370
    30
100
AcDbLine
 10
30.244167
 20
5.978438
 30
0.0
 11
30.193396
 21
5.927667
 31
0.0
  0
LINE
  5
5F
330
5AE
100
AcDbEntity
  8
_0
  6
Continuous
 62
     7
370
    30
100
AcDbLine
 10
30.308927
 20
6.043198
 30
0.0
 11
30.279656
 21
6.013937
 31
0.0
  0
LINE
  5
60
330
5AE
100
AcDbEntity
  8
_0
  6
Continuous
 62
     7
370
    30
100
AcDbLine
 10
30.343073
 20
6.073812
 30
0.0
 11
30.334781
 21
6.065521
 31
0.0
  0
LINE
  5
61
330
5AE
100
AcDbEntity
  8
_0
  6
Continuous
 62
     7
370
    30
100
AcDbLine
 10
30.247698
 20
5.978438
 30
0.0
 11
30.196938
 21
5.927667
 31
0.0
  0
LINE
  5
62
330
5AE
100
AcDbEntity
  8
_0
  6
Continuous
 62
     7
370
    30
100
AcDbLine
 10
30.308927
 20
6.039667
 30
0.0
 11
30.279656
 21
6.010396
 31
0.0
  0
LINE
  5
63
330
5AE
100
AcDbEntity
  8
_0
  6
Continuous
 62
     7
370
    30
100
AcDbLine
 10
30.343073
 20
6.070271
 30
0.0
 11
30.338313
 21
6.065521
 31
0.0
  0
LINE
  5
64
330
5AE
100
AcDbEntity
  8
_0
  6
Continuous
 62
     7
370
    30
100
AcDbLine
 10
30.25124
 20
5.978438
 30
0.0
 11
30.200469
 21
5.927667
 31
0.0
  0
LINE
  5
65
330
5AE
100
AcDbEntity
  8
_0
  6
Continuous
 62
     7
370
    30
100
AcDbLine
 10
30.308927
 20
6.036125
 30
0.0
 11
30.279656
 21
6.006865
 31
0.0
  0
LINE
  5
66
330
5AE
100
AcDbEntity
  8
_0
  6
Continuous
 62
     7
370
    30
100
AcDbLine
 10
30.343073
 20
6.06674
 30
0.0
 11
30.341854
 21
6.065521
 31
0.0
  0
LINE
  5
67
330
5AE
100
AcDbEntity
  8
_0
  6
Continuous
 62
     7
370
    30
100
AcDbLine
 10
30.254771
 20
5.978438
 30
0.0
 11
30.20401
 21
5.927667
 31
0.0
  0
LINE
  5
68
330
5AE
100
AcDbEntity
  8
_0
  6
Continuous
 62
     7
370
    30
100
AcDbLine
 10
30.308927
 20
6.032594
 30
0.0
 11
30.279656
 21
6.003323
 31
0.0
  0
LINE
  5
69
330
5AE
100
AcDbEntity
  8
_0
  6
Continuous
 62
     7
370
    30
100
AcDbLine
 10
30.308927
 20
6.029063
 30
0.0
 11
30.279656
 21
5.999792
 31
0.0
  0
LINE
  5
6A
330
5AE
100
AcDbEntity
  8
_0
  6
Continuous
 62
     7
370
    30
100
AcDbLine
 10
30.258312
 20
5.978438
 30
0.0
 11
30.207542
 21
5.927667
 31
0.0
  0
LINE
  5
6B
330
5AE
100
AcDbEntity
  8
_0
  6
Continuous
 62
     7
370
    30
100
AcDbLine
 10
30.308927
 20
6.025521
 30
0.0
 11
30.279656
 21
5.99625
 31
0.0
  0
LINE
  5
6C
330
5AE
100
AcDbEntity
  8
_0
  6
Continuous
 62
     7
370
    30
100
AcDbLine
 10
30.261844
 20
5.978438
 30
0.0
 11
30.211073
 21
5.927667
 31
0.0
  0
LINE
  5
6D
330
5AE
100
AcDbEntity
  8
_0
  6
Continuous
 62
     7
370
    30
100
AcDbLine
 10
30.308927
 20
6.02199
 30
0.0
 11
30.279656
 21
5.992719
 31
0.0
  0
LINE
  5
6E
330
5AE
100
AcDbEntity
  8
_0
  6
Continuous
 62
     7
370
    30
100
AcDbLine
 10
30.265375
 20
5.978438
 30
0.0
 11
30.214615
 21
5.927667
 31
0.0
  0
LINE
  5
6F
330
5AE
100
AcDbEntity
  8
_0
  6
Continuous
 62
     7
370
    30
100
AcDbLine
 10
30.308927
 20
6.018448
 30
0.0
 11
30.279656
 21
5.989187
 31
0.0
  0
LINE
  5
70
330
5AE
100
AcDbEntity
  8
_0
  6
Continuous
 62
     7
370
    30
100
AcDbLine
 10
30.268917
 20
5.978438
 30
0.0
 11
30.218146
 21
5.927667
 31
0.0
  0
LINE
  5
71
330
5AE
100
AcDbEntity
  8
_0
  6
Continuous
 62
     7
370
    30
100
AcDbLine
 10
30.308927
 20
6.014917
 30
0.0
 11
30.279656
 21
5.985646
 31
0.0
  0
LINE
  5
72
330
5AE
100
AcDbEntity
  8
_0
  6
Continuous
 62
     7
370
    30
100
AcDbLine
 10
30.272448
 20
5.978438
 30
0.0
 11
30.221687
 21
5.927667
 31
0.0
  0
LINE
  5
73
330
5AE
100
AcDbEntity
  8
_0
  6
Continuous
 62
     7
370
    30
100
AcDbLine
 10
30.308927
 20
6.011375
 30
0.0
 11
30.279656
 21
5.982115
 31
0.0
  0
LINE
  5
74
330
5AE
100
AcDbEntity
  8
_0
  6
Continuous
 62
     7
370
    30
100
AcDbLine
 10
30.27599
 20
5.978438
 30
0.0
 11
30.225219
 21
5.927667
 31
0.0
  0
LINE
  5
75
330
5AE
100
AcDbEntity
  8
_0
  6
Continuous
 62
     7
370
    30
100
AcDbLine
 10
30.308927
 20
6.007844
 30
0.0
 11
30.279656
 21
5.978573
 31
0.0
  0
LINE
  5
76
330
5AE
100
AcDbEntity
  8
_0
  6
Continuous
 62
     7
370
    30
100
AcDbLine
 10
30.279521
 20
5.978438
 30
0.0
 11
30.22875
 21
5.927667
 31
0.0
  0
LINE
  5
77
330
5AE
100
AcDbEntity
  8
_0
  6
Continuous
 62
     7
370
    30
100
AcDbLine
 10
30.308927
 20
6.004313
 30
0.0
 11
30.232292
 21
5.927667
 31
0.0
  0
LINE
  5
78
330
5AE
100
AcDbEntity
  8
_0
  6
Continuous
 62
     7
370
    30
100
AcDbLine
 10
30.308927
 20
6.000771
 30
0.0
 11
30.235823
 21
5.927667
 31
0.0
  0
LINE
  5
79
330
5AE
100
AcDbEntity
  8
_0
  6
Continuous
 62
     7
370
    30
100
AcDbLine
 10
30.308927
 20
5.99724
 30
0.0
 11
30.239365
 21
5.927667
 31
0.0
  0
LINE
  5
7A
330
5AE
100
AcDbEntity
  8
_0
  6
Continuous
 62
     7
370
    30
100
AcDbLine
 10
30.308927
 20
5.993698
 30
0.0
 11
30.242896
 21
5.927667
 31
0.0
  0
LINE
  5
7B
330
5AE
100
AcDbEntity
  8
_0
  6
Continuous
 62
     7
370
    30
100
AcDbLine
 10
30.308927
 20
5.990167
 30
0.0
 11
30.246437
 21
5.927667
 31
0.0
  0
LINE
  5
7C
330
5AE
100
AcDbEntity
  8
_0
  6
Continuous
 62
     7
370
    30
100
AcDbLine
 10
30.308927
 20
5.986635
 30
0.0
 11
30.249969
 21
5.927667
 31
0.0
  0
LINE
  5
7D
330
5AE
100
AcDbEntity
  8
_0
  6
Continuous
 62
     7
370
    30
100
AcDbLine
 10
30.308927
 20
5.983094
 30
0.0
 11
30.2535
 21
5.927667
 31
0.0
  0
LINE
  5
7E
330
5AE
100
AcDbEntity
  8
_0
  6
Continuous
 62
     7
370
    30
100
AcDbLine
 10
30.308927
 20
5.979563
 30
0.0
 11
30.257042
 21
5.927667
 31
0.0
  0
LINE
  5
7F
330
5AE
100
AcDbEntity
  8
_0
  6
Continuous
 62
     7
370
    30
100
AcDbLine
 10
30.311344
 20
5.978438
 30
0.0
 11
30.260573
 21
5.927667
 31
0.0
  0
LINE
  5
80
330
5AE
100
AcDbEntity
  8
_0
  6
Continuous
 62
     7
370
    30
100
AcDbLine
 10
30.314875
 20
5.978438
 30
0.0
 11
30.264115
 21
5.927667
 31
0.0
  0
LINE
  5
81
330
5AE
100
AcDbEntity
  8
_0
  6
Continuous
 62
     7
370
    30
100
AcDbLine
 10
30.318417
 20
5.978438
 30
0.0
 11
30.267646
 21
5.927667
 31
0.0
  0
LINE
  5
82
330
5AE
100
AcDbEntity
  8
_0
  6
Continuous
 62
     7
370
    30
100
AcDbLine
 10
30.321948
 20
5.978438
 30
0.0
 11
30.271177
 21
5.927667
 31
0.0
  0
LINE
  5
83
330
5AE
100
AcDbEntity
  8
_0
  6
Continuous
 62
     7
370
    30
100
AcDbLine
 10
30.325479
 20
5.978438
 30
0.0
 11
30.274719
 21
5.927667
 31
0.0
  0
LINE
  5
84
330
5AE
100
AcDbEntity
  8
_0
  6
Continuous
 62
     7
370
    30
100
AcDbLine
 10
30.329021
 20
5.978438
 30
0.0
 11
30.27825
 21
5.927667
 31
0.0
  0
LINE
  5
85
330
5AE
100
AcDbEntity
  8
_0
  6
Continuous
 62
     7
370
    30
100
AcDbLine
 10
30.332552
 20
5.978438
 30
0.0
 11
30.281792
 21
5.927667
 31
0.0
  0
LINE
  5
86
330
5AE
100
AcDbEntity
  8
_0
  6
Continuous
 62
     7
370
    30
100
AcDbLine
 10
30.336094
 20
5.978438
 30
0.0
 11
30.285323
 21
5.927667
 31
0.0
  0
LINE
  5
87
330
5AE
100
AcDbEntity
  8
_0
  6
Continuous
 62
     7
370
    30
100
AcDbLine
 10
30.339625
 20
5.978438
 30
0.0
 11
30.288854
 21
5.927667
 31
0.0
  0
LINE
  5
88
330
5AE
100
AcDbEntity
  8
_0
  6
Continuous
 62
     7
370
    30
100
AcDbLine
 10
30.343156
 20
5.978438
 30
0.0
 11
30.292396
 21
5.927667
 31
0.0
  0
LINE
  5
89
330
5AE
100
AcDbEntity
  8
_0
  6
Continuous
 62
     7
370
    30
100
AcDbLine
 10
30.346698
 20
5.978438
 30
0.0
 11
30.295927
 21
5.927667
 31
0.0
  0
LINE
  5
8A
330
5AE
100
AcDbEntity
  8
_0
  6
Continuous
 62
     7
370
    30
100
AcDbLine
 10
30.350229
 20
5.978438
 30
0.0
 11
30.299469
 21
5.927667
 31
0.0
  0
LINE
  5
8B
330
5AE
100
AcDbEntity
  8
_0
  6
Continuous
 62
     7
370
    30
100
AcDbLine
 10
30.353333
 20
5.978
 30
0.0
 11
30.303
 21
5.927667
 31
0.0
  0
LINE
  5
8C
330
5AE
100
AcDbEntity
  8
_0
  6
Continuous
 62
     7
370
    30
100
AcDbLine
 10
30.355927
 20
5.977062
 30
0.0
 11
30.306542
 21
5.927667
 31
0.0
  0
LINE
  5
8D
330
5AE
100
AcDbEntity
  8
_0
  6
Continuous
 62
     7
370
    30
100
AcDbLine
 10
30.358531
 20
5.976125
 30
0.0
 11
30.310073
 21
5.927667
 31
0.0
  0
LINE
  5
8E
330
5AE
100
AcDbEntity
  8
_0
  6
Continuous
 62
     7
370
    30
100
AcDbLine
 10
30.361125
 20
5.975187
 30
0.0
 11
30.313604
 21
5.927667
 31
0.0
  0
LINE
  5
8F
330
5AE
100
AcDbEntity
  8
_0
  6
Continuous
 62
     7
370
    30
100
AcDbLine
 10
30.363719
 20
5.97425
 30
0.0
 11
30.317146
 21
5.927667
 31
0.0
  0
LINE
  5
90
330
5AE
100
AcDbEntity
  8
_0
  6
Continuous
 62
     7
370
    30
100
AcDbLine
 10
30.366323
 20
5.973312
 30
0.0
 11
30.320677
 21
5.927667
 31
0.0
  0
LINE
  5
91
330
5AE
100
AcDbEntity
  8
_0
  6
Continuous
 62
     7
370
    30
100
AcDbLine
 10
30.368917
 20
5.972375
 30
0.0
 11
30.324219
 21
5.927667
 31
0.0
  0
LINE
  5
92
330
5AE
100
AcDbEntity
  8
_0
  6
Continuous
 62
     7
370
    30
100
AcDbLine
 10
30.37151
 20
5.971437
 30
0.0
 11
30.32775
 21
5.927667
 31
0.0
  0
LINE
  5
93
330
5AE
100
AcDbEntity
  8
_0
  6
Continuous
 62
     7
370
    30
100
AcDbLine
 10
30.374115
 20
5.9705
 30
0.0
 11
30.331281
 21
5.927667
 31
0.0
  0
LINE
  5
94
330
5AE
100
AcDbEntity
  8
_0
  6
Continuous
 62
     7
370
    30
100
AcDbLine
 10
30.376708
 20
5.969562
 30
0.0
 11
30.334823
 21
5.927667
 31
0.0
  0
LINE
  5
95
330
5AE
100
AcDbEntity
  8
_0
  6
Continuous
 62
     7
370
    30
100
AcDbLine
 10
30.379302
 20
5.968625
 30
0.0
 11
30.338354
 21
5.927667
 31
0.0
  0
LINE
  5
96
330
5AE
100
AcDbEntity
  8
_0
  6
Continuous
 62
     7
370
    30
100
AcDbLine
 10
30.381906
 20
5.967677
 30
0.0
 11
30.341896
 21
5.927667
 31
0.0
  0
LINE
  5
97
330
5AE
100
AcDbEntity
  8
_0
  6
Continuous
 62
     7
370
    30
100
AcDbLine
 10
30.3845
 20
5.96674
 30
0.0
 11
30.345427
 21
5.927667
 31
0.0
  0
LINE
  5
98
330
5AE
100
AcDbEntity
  8
_0
  6
Continuous
 62
     7
370
    30
100
AcDbLine
 10
30.387094
 20
5.965802
 30
0.0
 11
30.348958
 21
5.927667
 31
0.0
  0
LINE
  5
99
330
5AE
100
AcDbEntity
  8
_0
  6
Continuous
 62
     7
370
    30
100
AcDbLine
 10
30.389698
 20
5.964865
 30
0.0
 11
30.3525
 21
5.927667
 31
0.0
  0
LINE
  5
9A
330
5AE
100
AcDbEntity
  8
_0
  6
Continuous
 62
     7
370
    30
100
AcDbLine
 10
30.392292
 20
5.963927
 30
0.0
 11
30.356031
 21
5.927667
 31
0.0
  0
LINE
  5
9B
330
5AE
100
AcDbEntity
  8
_0
  6
Continuous
 62
     7
370
    30
100
AcDbLine
 10
30.394885
 20
5.96299
 30
0.0
 11
30.359573
 21
5.927667
 31
0.0
  0
LINE
  5
9C
330
5AE
100
AcDbEntity
  8
_0
  6
Continuous
 62
     7
370
    30
100
AcDbLine
 10
30.39749
 20
5.962052
 30
0.0
 11
30.363104
 21
5.927667
 31
0.0
  0
LINE
  5
9D
330
5AE
100
AcDbEntity
  8
_0
  6
Continuous
 62
     7
370
    30
100
AcDbLine
 10
30.400083
 20
5.961115
 30
0.0
 11
30.366646
 21
5.927667
 31
0.0
  0
LINE
  5
9E
330
5AE
100
AcDbEntity
  8
_0
  6
Continuous
 62
     7
370
    30
100
AcDbLine
 10
30.402677
 20
5.960177
 30
0.0
 11
30.370177
 21
5.927667
 31
0.0
  0
LINE
  5
9F
330
5AE
100
AcDbEntity
  8
_0
  6
Continuous
 62
     7
370
    30
100
AcDbLine
 10
30.405281
 20
5.95924
 30
0.0
 11
30.373708
 21
5.927667
 31
0.0
  0
LINE
  5
A0
330
5AE
100
AcDbEntity
  8
_0
  6
Continuous
 62
     7
370
    30
100
AcDbLine
 10
30.407875
 20
5.958302
 30
0.0
 11
30.37725
 21
5.927667
 31
0.0
  0
LINE
  5
A1
330
5AE
100
AcDbEntity
  8
_0
  6
Continuous
 62
     7
370
    30
100
AcDbLine
 10
30.410469
 20
5.957365
 30
0.0
 11
30.380781
 21
5.927667
 31
0.0
  0
LINE
  5
A2
330
5AE
100
AcDbEntity
  8
_0
  6
Continuous
 62
     7
370
    30
100
AcDbLine
 10
30.413073
 20
5.956417
 30
0.0
 11
30.384323
 21
5.927667
 31
0.0
  0
LINE
  5
A3
330
5AE
100
AcDbEntity
  8
_0
  6
Continuous
 62
     7
370
    30
100
AcDbLine
 10
30.415667
 20
5.955479
 30
0.0
 11
30.387854
 21
5.927667
 31
0.0
  0
LINE
  5
A4
330
5AE
100
AcDbEntity
  8
_0
  6
Continuous
 62
     7
370
    30
100
AcDbLine
 10
30.41826
 20
5.954542
 30
0.0
 11
30.391385
 21
5.927667
 31
0.0
  0
LINE
  5
A5
330
5AE
100
AcDbEntity
  8
_0
  6
Continuous
 62
     7
370
    30
100
AcDbLine
 10
30.420865
 20
5.953604
 30
0.0
 11
30.394927
 21
5.927667
 31
0.0
  0
LINE
  5
A6
330
5AE
100
AcDbEntity
  8
_0
  6
Continuous
 62
     7
370
    30
100
AcDbLine
 10
30.423458
 20
5.952667
 30
0.0
 11
30.398458
 21
5.927667
 31
0.0
  0
LINE
  5
A7
330
5AE
100
AcDbEntity
  8
_0
  6
Continuous
 62
     7
370
    30
100
AcDbLine
 10
30.426052
 20
5.951729
 30
0.0
 11
30.402
 21
5.927667
 31
0.0
  0
LINE
  5
A8
330
5AE
100
AcDbEntity
  8
_0
  6
Continuous
 62
     7
370
    30
100
AcDbLine
 10
30.428656
 20
5.950792
 30
0.0
 11
30.405531
 21
5.927667
 31
0.0
  0
LINE
  5
A9
330
5AE
100
AcDbEntity
  8
_0
  6
Continuous
 62
     7
370
    30
100
AcDbLine
 10
30.43125
 20
5.949854
 30
0.0
 11
30.409062
 21
5.927667
 31
0.0
  0
LINE
  5
AA
330
5AE
100
AcDbEntity
  8
_0
  6
Continuous
 62
     7
370
    30
100
AcDbLine
 10
30.433844
 20
5.948917
 30
0.0
 11
30.412604
 21
5.927667
 31
0.0
  0
LINE
  5
AB
330
5AE
100
AcDbEntity
  8
_0
  6
Continuous
 62
     7
370
    30
100
AcDbLine
 10
30.436448
 20
5.947979
 30
0.0
 11
30.416135
 21
5.927667
 31
0.0
  0
LINE
  5
AC
330
5AE
100
AcDbEntity
  8
_0
  6
Continuous
 62
     7
370
    30
100
AcDbLine
 10
30.439042
 20
5.947042
 30
0.0
 11
30.419677
 21
5.927667
 31
0.0
  0
LINE
  5
AD
330
5AE
100
AcDbEntity
  8
_0
  6
Continuous
 62
     7
370
    30
100
AcDbLine
 10
30.441635
 20
5.946104
 30
0.0
 11
30.423208
 21
5.927667
 31
0.0
  0
LINE
  5
AE
330
5AE
100
AcDbEntity
  8
_0
  6
Continuous
 62
     7
370
    30
100
AcDbLine
 10
30.44424
 20
5.945167
 30
0.0
 11
30.42674
 21
5.927667
 31
0.0
  0
LINE
  5
AF
330
5AE
100
AcDbEntity
  8
_0
  6
Continuous
 62
     7
370
    30
100
AcDbLine
 10
30.446833
 20
5.944219
 30
0.0
 11
30.430281
 21
5.927667
 31
0.0
  0
LINE
  5
B0
330
5AE
100
AcDbEntity
  8
_0
  6
Continuous
 62
     7
370
    30
100
AcDbLine
 10
30.449427
 20
5.943281
 30
0.0
 11
30.433812
 21
5.927667
 31
0.0
  0
LINE
  5
B1
330
5AE
100
AcDbEntity
  8
_0
  6
Continuous
 62
     7
370
    30
100
AcDbLine
 10
30.452031
 20
5.942344
 30
0.0
 11
30.437354
 21
5.927667
 31
0.0
  0
LINE
  5
B2
330
5AE
100
AcDbEntity
  8
_0
  6
Continuous
 62
     7
370
    30
100
AcDbLine
 10
30.454625
 20
5.941406
 30
0.0
 11
30.440885
 21
5.927667
 31
0.0
  0
LINE
  5
B3
330
5AE
100
AcDbEntity
  8
_0
  6
Continuous
 62
     7
370
    30
100
AcDbLine
 10
30.457219
 20
5.940469
 30
0.0
 11
30.444427
 21
5.927667
 31
0.0
  0
LINE
  5
B4
330
5AE
100
AcDbEntity
  8
_0
  6
Continuous
 62
     7
370
    30
100
AcDbLine
 10
30.459823
 20
5.939531
 30
0.0
 11
30.447958
 21
5.927667
 31
0.0
  0
LINE
  5
B5
330
5AE
100
AcDbEntity
  8
_0
  6
Continuous
 62
     7
370
    30
100
AcDbLine
 10
30.462417
 20
5.938594
 30
0.0
 11
30.45149
 21
5.927667
 31
0.0
  0
LINE
  5
B6
330
5AE
100
AcDbEntity
  8
_0
  6
Continuous
 62
     7
370
    30
100
AcDbLine
 10
30.46501
 20
5.937656
 30
0.0
 11
30.455031
 21
5.927667
 31
0.0
  0
LINE
  5
B7
330
5AE
100
AcDbEntity
  8
_0
  6
Continuous
 62
     7
370
    30
100
AcDbLine
 10
30.467615
 20
5.936719
 30
0.0
 11
30.458562
 21
5.927667
 31
0.0
  0
LINE
  5
B8
330
5AE
100
AcDbEntity
  8
_0
  6
Continuous
 62
     7
370
    30
100
AcDbLine
 10
30.470208
 20
5.935781
 30
0.0
 11
30.462104
 21
5.927667
 31
0.0
  0
LINE
  5
B9
330
5AE
100
AcDbEntity
  8
_0
  6
Continuous
 62
     7
370
    30
100
AcDbLine
 10
30.472802
 20
5.934844
 30
0.0
 11
30.465635
 21
5.927667
 31
0.0
  0
LINE
  5
BA
330
5AE
100
AcDbEntity
  8
_0
  6
Continuous
 62
     7
370
    30
100
AcDbLine
 10
30.475406
 20
5.933906
 30
0.0
 11
30.469167
 21
5.927667
 31
0.0
  0
LINE
  5
BB
330
5AE
100
AcDbEntity
  8
_0
  6
Continuous
 62
     7
370
    30
100
AcDbLine
 10
30.478
 20
5.932958
 30
0.0
 11
30.472708
 21
5.927667
 31
0.0
  0
LINE
  5
BC
330
5AE
100
AcDbEntity
  8
_0
  6
Continuous
 62
     7
370
    30
100
AcDbLine
 10
30.480594
 20
5.932021
 30
0.0
 11
30.47624
 21
5.927667
 31
0.0
  0
LINE
  5
BD
330
5AE
100
AcDbEntity
  8
_0
  6
Continuous
 62
     7
370
    30
100
AcDbLine
 10
30.483187
 20
5.931083
 30
0.0
 11
30.479781
 21
5.927667
 31
0.0
  0
LINE
  5
BE
330
5AE
100
AcDbEntity
  8
_0
  6
Continuous
 62
     7
370
    30
100
AcDbLine
 10
30.485792
 20
5.930146
 30
0.0
 11
30.483313
 21
5.927667
 31
0.0
  0
LINE
  5
BF
330
5AE
100
AcDbEntity
  8
_0
  6
Continuous
 62
     7
370
    30
100
AcDbLine
 10
30.488385
 20
5.929208
 30
0.0
 11
30.486844
 21
5.927667
 31
0.0
  0
LINE
  5
C0
330
5AE
100
AcDbEntity
  8
_0
  6
Continuous
 62
     7
370
    30
100
AcDbLine
 10
30.490979
 20
5.928271
 30
0.0
 11
30.490385
 21
5.927667
 31
0.0
  0
LINE
  5
C1
330
5AE
100
AcDbEntity
  8
_0
  6
Continuous
 62
     7
370
    30
100
AcDbLine
 10
30.343073
 20
6.080885
 30
0.0
 11
30.327708
 21
6.065521
 31
0.0
  0
LINE
  5
C2
330
5AE
100
AcDbEntity
  8
_0
  6
Continuous
 62
     7
370
    30
100
AcDbLine
 10
30.240635
 20
5.978438
 30
0.0
 11
30.189865
 21
5.927667
 31
0.0
  0
LINE
  5
C3
330
5AE
100
AcDbEntity
  8
_0
  6
Continuous
 62
     7
370
    30
100
AcDbLine
 10
30.308927
 20
6.04674
 30
0.0
 11
30.279656
 21
6.017469
 31
0.0
  0
LINE
  5
C4
330
5AE
100
AcDbEntity
  8
_0
  6
Continuous
 62
     7
370
    30
100
AcDbLine
 10
30.343073
 20
6.084417
 30
0.0
 11
30.324177
 21
6.065521
 31
0.0
  0
LINE
  5
C5
330
5AE
100
AcDbEntity
  8
_0
  6
Continuous
 62
     7
370
    30
100
AcDbLine
 10
30.237094
 20
5.978438
 30
0.0
 11
30.186333
 21
5.927667
 31
0.0
  0
LINE
  5
C6
330
5AE
100
AcDbEntity
  8
_0
  6
Continuous
 62
     7
370
    30
100
AcDbLine
 10
30.308927
 20
6.050271
 30
0.0
 11
30.279656
 21
6.021
 31
0.0
  0
LINE
  5
C7
330
5AE
100
AcDbEntity
  8
_0
  6
Continuous
 62
     7
370
    30
100
AcDbLine
 10
30.343073
 20
6.087948
 30
0.0
 11
30.320635
 21
6.065521
 31
0.0
  0
LINE
  5
C8
330
5AE
100
AcDbEntity
  8
_0
  6
Continuous
 62
     7
370
    30
100
AcDbLine
 10
30.231917
 20
5.976802
 30
0.0
 11
30.182792
 21
5.927667
 31
0.0
  0
LINE
  5
C9
330
5AE
100
AcDbEntity
  8
_0
  6
Continuous
 62
     7
370
    30
100
AcDbLine
 10
30.308927
 20
6.053802
 30
0.0
 11
30.279656
 21
6.024542
 31
0.0
  0
LINE
  5
CA
330
5AE
100
AcDbEntity
  8
_0
  6
Continuous
 62
     7
370
    30
100
AcDbLine
 10
30.343073
 20
6.09149
 30
0.0
 11
30.317104
 21
6.065521
 31
0.0
  0
LINE
  5
CB
330
5AE
100
AcDbEntity
  8
_0
  6
Continuous
 62
     7
370
    30
100
AcDbLine
 10
30.226385
 20
5.974802
 30
0.0
 11
30.17926
 21
5.927667
 31
0.0
  0
LINE
  5
CC
330
5AE
100
AcDbEntity
  8
_0
  6
Continuous
 62
     7
370
    30
100
AcDbLine
 10
30.308927
 20
6.057344
 30
0.0
 11
30.279656
 21
6.028073
 31
0.0
  0
LINE
  5
CD
330
5AE
100
AcDbEntity
  8
_0
  6
Continuous
 62
     7
370
    30
100
AcDbLine
 10
30.343073
 20
6.095021
 30
0.0
 11
30.313562
 21
6.065521
 31
0.0
  0
LINE
  5
CE
330
5AE
100
AcDbEntity
  8
_0
  6
Continuous
 62
     7
370
    30
100
AcDbLine
 10
30.220854
 20
5.972802
 30
0.0
 11
30.175719
 21
5.927667
 31
0.0
  0
LINE
  5
CF
330
5AE
100
AcDbEntity
  8
_0
  6
Continuous
 62
     7
370
    30
100
AcDbLine
 10
30.308927
 20
6.060875
 30
0.0
 11
30.279656
 21
6.031615
 31
0.0
  0
LINE
  5
D0
330
5AE
100
AcDbEntity
  8
_0
  6
Continuous
 62
     7
370
    30
100
AcDbLine
 10
30.343073
 20
6.098562
 30
0.0
 11
30.310031
 21
6.065521
 31
0.0
  0
LINE
  5
D1
330
5AE
100
AcDbEntity
  8
_0
  6
Continuous
 62
     7
370
    30
100
AcDbLine
 10
30.215312
 20
5.970802
 30
0.0
 11
30.172187
 21
5.927667
 31
0.0
  0
LINE
  5
D2
330
5AE
100
AcDbEntity
  8
_0
  6
Continuous
 62
     7
370
    30
100
AcDbLine
 10
30.308927
 20
6.064417
 30
0.0
 11
30.279656
 21
6.035146
 31
0.0
  0
LINE
  5
D3
330
5AE
100
AcDbEntity
  8
_0
  6
Continuous
 62
     7
370
    30
100
AcDbLine
 10
30.343073
 20
6.102094
 30
0.0
 11
30.279656
 21
6.038677
 31
0.0
  0
LINE
  5
D4
330
5AE
100
AcDbEntity
  8
_0
  6
Continuous
 62
     7
370
    30
100
AcDbLine
 10
30.209781
 20
5.968802
 30
0.0
 11
30.168646
 21
5.927667
 31
0.0
  0
LINE
  5
D5
330
5AE
100
AcDbEntity
  8
_0
  6
Continuous
 62
     7
370
    30
100
AcDbLine
 10
30.343073
 20
6.105625
 30
0.0
 11
30.279656
 21
6.042219
 31
0.0
  0
LINE
  5
D6
330
5AE
100
AcDbEntity
  8
_0
  6
Continuous
 62
     7
370
    30
100
AcDbLine
 10
30.20424
 20
5.966802
 30
0.0
 11
30.165115
 21
5.927667
 31
0.0
  0
LINE
  5
D7
330
5AE
100
AcDbEntity
  8
_0
  6
Continuous
 62
     7
370
    30
100
AcDbLine
 10
30.343073
 20
6.109167
 30
0.0
 11
30.279656
 21
6.04575
 31
0.0
  0
LINE
  5
D8
330
5AE
100
AcDbEntity
  8
_0
  6
Continuous
 62
     7
370
    30
100
AcDbLine
 10
30.198708
 20
5.964802
 30
0.0
 11
30.161583
 21
5.927667
 31
0.0
  0
LINE
  5
D9
330
5AE
100
AcDbEntity
  8
_0
  6
Continuous
 62
     7
370
    30
100
AcDbLine
 10
30.343073
 20
6.112698
 30
0.0
 11
30.279656
 21
6.049292
 31
0.0
  0
LINE
  5
DA
330
5AE
100
AcDbEntity
  8
_0
  6
Continuous
 62
     7
370
    30
100
AcDbLine
 10
30.193177
 20
5.962802
 30
0.0
 11
30.158042
 21
5.927667
 31
0.0
  0
LINE
  5
DB
330
5AE
100
AcDbEntity
  8
_0
  6
Continuous
 62
     7
370
    30
100
AcDbLine
 10
30.343073
 20
6.11624
 30
0.0
 11
30.279656
 21
6.052823
 31
0.0
  0
LINE
  5
DC
330
5AE
100
AcDbEntity
  8
_0
  6
Continuous
 62
     7
370
    30
100
AcDbLine
 10
30.187635
 20
5.960802
 30
0.0
 11
30.15451
 21
5.927667
 31
0.0
  0
LINE
  5
DD
330
5AE
100
AcDbEntity
  8
_0
  6
Continuous
 62
     7
370
    30
100
AcDbLine
 10
30.343073
 20
6.119771
 30
0.0
 11
30.279656
 21
6.056354
 31
0.0
  0
LINE
  5
DE
330
5AE
100
AcDbEntity
  8
_0
  6
Continuous
 62
     7
370
    30
100
AcDbLine
 10
30.182104
 20
5.958802
 30
0.0
 11
30.150969
 21
5.927667
 31
0.0
  0
LINE
  5
DF
330
5AE
100
AcDbEntity
  8
_0
  6
Continuous
 62
     7
370
    30
100
AcDbLine
 10
30.343073
 20
6.123302
 30
0.0
 11
30.279656
 21
6.059896
 31
0.0
  0
LINE
  5
E0
330
5AE
100
AcDbEntity
  8
_0
  6
Continuous
 62
     7
370
    30
100
AcDbLine
 10
30.176562
 20
5.956802
 30
0.0
 11
30.147437
 21
5.927667
 31
0.0
  0
LINE
  5
E1
330
5AE
100
AcDbEntity
  8
_0
  6
Continuous
 62
     7
370
    30
100
AcDbLine
 10
30.343073
 20
6.126844
 30
0.0
 11
30.279656
 21
6.063427
 31
0.0
  0
LINE
  5
E2
330
5AE
100
AcDbEntity
  8
_0
  6
Continuous
 62
     7
370
    30
100
AcDbLine
 10
30.171031
 20
5.954802
 30
0.0
 11
30.143906
 21
5.927667
 31
0.0
  0
LINE
  5
E3
330
5AE
100
AcDbEntity
  8
_0
  6
Continuous
 62
     7
370
    30
100
AcDbLine
 10
30.342302
 20
6.129604
 30
0.0
 11
30.278208
 21
6.065521
 31
0.0
  0
LINE
  5
E4
330
5AE
100
AcDbEntity
  8
_0
  6
Continuous
 62
     7
370
    30
100
AcDbLine
 10
30.1655
 20
5.952802
 30
0.0
 11
30.140365
 21
5.927667
 31
0.0
  0
LINE
  5
E5
330
5AE
100
AcDbEntity
  8
_0
  6
Continuous
 62
     7
370
    30
100
AcDbLine
 10
30.33876
 20
6.129604
 30
0.0
 11
30.274677
 21
6.065521
 31
0.0
  0
LINE
  5
E6
330
5AE
100
AcDbEntity
  8
_0
  6
Continuous
 62
     7
370
    30
100
AcDbLine
 10
30.159958
 20
5.950802
 30
0.0
 11
30.136833
 21
5.927667
 31
0.0
  0
LINE
  5
E7
330
5AE
100
AcDbEntity
  8
_0
  6
Continuous
 62
     7
370
    30
100
AcDbLine
 10
30.335229
 20
6.129604
 30
0.0
 11
30.271135
 21
6.065521
 31
0.0
  0
LINE
  5
E8
330
5AE
100
AcDbEntity
  8
_0
  6
Continuous
 62
     7
370
    30
100
AcDbLine
 10
30.154427
 20
5.948802
 30
0.0
 11
30.133292
 21
5.927667
 31
0.0
  0
LINE
  5
E9
330
5AE
100
AcDbEntity
  8
_0
  6
Continuous
 62
     7
370
    30
100
AcDbLine
 10
30.331698
 20
6.129604
 30
0.0
 11
30.267604
 21
6.065521
 31
0.0
  0
LINE
  5
EA
330
5AE
100
AcDbEntity
  8
_0
  6
Continuous
 62
     7
370
    30
100
AcDbLine
 10
30.148885
 20
5.946802
 30
0.0
 11
30.12976
 21
5.927667
 31
0.0
  0
LINE
  5
EB
330
5AE
100
AcDbEntity
  8
_0
  6
Continuous
 62
     7
370
    30
100
AcDbLine
 10
30.328156
 20
6.129604
 30
0.0
 11
30.264073
 21
6.065521
 31
0.0
  0
LINE
  5
EC
330
5AE
100
AcDbEntity
  8
_0
  6
Continuous
 62
     7
370
    30
100
AcDbLine
 10
30.143354
 20
5.944802
 30
0.0
 11
30.126229
 21
5.927667
 31
0.0
  0
LINE
  5
ED
330
5AE
100
AcDbEntity
  8
_0
  6
Continuous
 62
     7
370
    30
100
AcDbLine
 10
30.324625
 20
6.129604
 30
0.0
 11
30.260531
 21
6.065521
 31
0.0
  0
LINE
  5
EE
330
5AE
100
AcDbEntity
  8
_0
  6
Continuous
 62
     7
370
    30
100
AcDbLine
 10
30.137812
 20
5.942802
 30
0.0
 11
30.122687
 21
5.927667
 31
0.0
  0
LINE
  5
EF
330
5AE
100
AcDbEntity
  8
_0
  6
Continuous
 62
     7
370
    30
100
AcDbLine
 10
30.321083
 20
6.129604
 30
0.0
 11
30.257
 21
6.065521
 31
0.0
  0
LINE
  5
F0
330
5AE
100
AcDbEntity
  8
_0
  6
Continuous
 62
     7
370
    30
100
AcDbLine
 10
30.132281
 20
5.940802
 30
0.0
 11
30.119156
 21
5.927667
 31
0.0
  0
LINE
  5
F1
330
5AE
100
AcDbEntity
  8
_0
  6
Continuous
 62
     7
370
    30
100
AcDbLine
 10
30.317552
 20
6.129604
 30
0.0
 11
30.253458
 21
6.065521
 31
0.0
  0
LINE
  5
F2
330
5AE
100
AcDbEntity
  8
_0
  6
Continuous
 62
     7
370
    30
100
AcDbLine
 10
30.12675
 20
5.938802
 30
0.0
 11
30.115615
 21
5.927667
 31
0.0
  0
LINE
  5
F3
330
5AE
100
AcDbEntity
  8
_0
  6
Continuous
 62
     7
370
    30
100
AcDbLine
 10
30.314021
 20
6.129604
 30
0.0
 11
30.249927
 21
6.065521
 31
0.0
  0
LINE
  5
F4
330
5AE
100
AcDbEntity
  8
_0
  6
Continuous
 62
     7
370
    30
100
AcDbLine
 10
30.121208
 20
5.936802
 30
0.0
 11
30.112083
 21
5.927667
 31
0.0
  0
LINE
  5
F5
330
5AE
100
AcDbEntity
  8
_0
  6
Continuous
 62
     7
370
    30
100
AcDbLine
 10
30.310479
 20
6.129604
 30
0.0
 11
30.246396
 21
6.065521
 31
0.0
  0
LINE
  5
F6
330
5AE
100
AcDbEntity
  8
_0
  6
Continuous
 62
     7
370
    30
100
AcDbLine
 10
30.115677
 20
5.934802
 30
0.0
 11
30.108542
 21
5.927667
 31
0.0
  0
LINE
  5
F7
330
5AE
100
AcDbEntity
  8
_0
  6
Continuous
 62
     7
370
    30
100
AcDbLine
 10
30.306948
 20
6.129604
 30
0.0
 11
30.24551
 21
6.068177
 31
0.0
  0
LINE
  5
F8
330
5AE
100
AcDbEntity
  8
_0
  6
Continuous
 62
     7
370
    30
100
AcDbLine
 10
30.110135
 20
5.932802
 30
0.0
 11
30.10501
 21
5.927667
 31
0.0
  0
LINE
  5
F9
330
5AE
100
AcDbEntity
  8
_0
  6
Continuous
 62
     7
370
    30
100
AcDbLine
 10
30.303406
 20
6.129604
 30
0.0
 11
30.24551
 21
6.071708
 31
0.0
  0
LINE
  5
FA
330
5AE
100
AcDbEntity
  8
_0
  6
Continuous
 62
     7
370
    30
100
AcDbLine
 10
30.104604
 20
5.930802
 30
0.0
 11
30.101479
 21
5.927667
 31
0.0
  0
LINE
  5
FB
330
5AE
100
AcDbEntity
  8
_0
  6
Continuous
 62
     7
370
    30
100
AcDbLine
 10
30.299875
 20
6.129604
 30
0.0
 11
30.24551
 21
6.07525
 31
0.0
  0
LINE
  5
FC
330
5AE
100
AcDbEntity
  8
_0
  6
Continuous
 62
     7
370
    30
100
AcDbLine
 10
30.099073
 20
5.928802
 30
0.0
 11
30.097938
 21
5.927667
 31
0.0
  0
LINE
  5
FD
330
5AE
100
AcDbEntity
  8
_0
  6
Continuous
 62
     7
370
    30
100
AcDbLine
 10
30.296333
 20
6.129604
 30
0.0
 11
30.24551
 21
6.078781
 31
0.0
  0
LINE
  5
FE
330
5AE
100
AcDbEntity
  8
_0
  6
Continuous
 62
     7
370
    30
100
AcDbLine
 10
30.292802
 20
6.129604
 30
0.0
 11
30.24551
 21
6.082323
 31
0.0
  0
LINE
  5
FF
330
5AE
100
AcDbEntity
  8
_0
  6
Continuous
 62
     7
370
    30
100
AcDbLine
 10
30.289271
 20
6.129604
 30
0.0
 11
30.24551
 21
6.085854
 31
0.0
  0
LINE
  5
100
330
5AE
100
AcDbEntity
  8
_0
  6
Continuous
 62
     7
370
    30
100
AcDbLine
 10
30.285729
 20
6.129604
 30
0.0
 11
30.24551
 21
6.089385
 31
0.0
  0
LINE
  5
101
330
5AE
100
AcDbEntity
  8
_0
  6
Continuous
 62
     7
370
    30
100
AcDbLine
 10
30.282198
 20
6.129604
 30
0.0
 11
30.24551
 21
6.092927
 31
0.0
  0
LINE
  5
102
330
5AE
100
AcDbEntity
  8
_0
  6
Continuous
 62
     7
370
    30
100
AcDbLine
 10
30.278656
 20
6.129604
 30
0.0
 11
30.24551
 21
6.096458
 31
0.0
  0
LINE
  5
103
330
5AE
100
AcDbEntity
  8
_0
  6
Continuous
 62
     7
370
    30
100
AcDbLine
 10
30.275125
 20
6.129604
 30
0.0
 11
30.24551
 21
6.1
 31
0.0
  0
LINE
  5
104
330
5AE
100
AcDbEntity
  8
_0
  6
Continuous
 62
     7
370
    30
100
AcDbLine
 10
30.271594
 20
6.129604
 30
0.0
 11
30.24551
 21
6.103531
 31
0.0
  0
LINE
  5
105
330
5AE
100
AcDbEntity
  8
_0
  6
Continuous
 62
     7
370
    30
100
AcDbLine
 10
30.268052
 20
6.129604
 30
0.0
 11
30.24551
 21
6.107062
 31
0.0
  0
LINE
  5
106
330
5AE
100
AcDbEntity
  8
_0
  6
Continuous
 62
     7
370
    30
100
AcDbLine
 10
30.264521
 20
6.129604
 30
0.0
 11
30.24551
 21
6.110604
 31
0.0
  0
LINE
  5
107
330
5AE
100
AcDbEntity
  8
_0
  6
Continuous
 62
     7
370
    30
100
AcDbLine
 10
30.260979
 20
6.129604
 30
0.0
 11
30.24551
 21
6.114135
 31
0.0
  0
LINE
  5
108
330
5AE
100
AcDbEntity
  8
_0
  6
Continuous
 62
     7
370
    30
100
AcDbLine
 10
30.257448
 20
6.129604
 30
0.0
 11
30.24551
 21
6.117677
 31
0.0
  0
LINE
  5
109
330
5AE
100
AcDbEntity
  8
_0
  6
Continuous
 62
     7
370
    30
100
AcDbLine
 10
30.253917
 20
6.129604
 30
0.0
 11
30.24551
 21
6.121208
 31
0.0
  0
LINE
  5
10A
330
5AE
100
AcDbEntity
  8
_0
  6
Continuous
 62
     7
370
    30
100
AcDbLine
 10
30.250375
 20
6.129604
 30
0.0
 11
30.24551
 21
6.12474
 31
0.0
  0
LINE
  5
10B
330
5AE
100
AcDbEntity
  8
_0
  6
Continuous
 62
     7
370
    30
100
AcDbLine
 10
30.246844
 20
6.129604
 30
0.0
 11
30.24551
 21
6.128281
 31
0.0
  0
LINE
  5
10C
330
5AE
100
AcDbEntity
  8
_0
  6
Continuous
 62
     7
370
    30
100
AcDbLine
 10
31.969833
 20
6.077344
 30
0.0
 11
31.958
 21
6.065521
 31
0.0
  0
LINE
  5
10D
330
5AE
100
AcDbEntity
  8
_0
  6
Continuous
 62
     7
370
    30
100
AcDbLine
 10
31.870927
 20
5.978438
 30
0.0
 11
31.820156
 21
5.927667
 31
0.0
  0
LINE
  5
10E
330
5AE
100
AcDbEntity
  8
_0
  6
Continuous
 62
     7
370
    30
100
AcDbLine
 10
31.935688
 20
6.043198
 30
0.0
 11
31.906417
 21
6.013937
 31
0.0
  0
LINE
  5
10F
330
5AE
100
AcDbEntity
  8
_0
  6
Continuous
 62
     7
370
    30
100
AcDbLine
 10
31.969833
 20
6.073812
 30
0.0
 11
31.961542
 21
6.065521
 31
0.0
  0
LINE
  5
110
330
5AE
100
AcDbEntity
  8
_0
  6
Continuous
 62
     7
370
    30
100
AcDbLine
 10
31.874458
 20
5.978438
 30
0.0
 11
31.823698
 21
5.927667
 31
0.0
  0
LINE
  5
111
330
5AE
100
AcDbEntity
  8
_0
  6
Continuous
 62
     7
370
    30
100
AcDbLine
 10
31.935688
 20
6.039667
 30
0.0
 11
31.906417
 21
6.010396
 31
0.0
  0
LINE
  5
112
330
5AE
100
AcDbEntity
  8
_0
  6
Continuous
 62
     7
370
    30
100
AcDbLine
 10
31.969833
 20
6.070271
 30
0.0
 11
31.965073
 21
6.065521
 31
0.0
  0
LINE
  5
113
330
5AE
100
AcDbEntity
  8
_0
  6
Continuous
 62
     7
370
    30
100
AcDbLine
 10
31.878
 20
5.978438
 30
0.0
 11
31.827229
 21
5.927667
 31
0.0
  0
LINE
  5
114
330
5AE
100
AcDbEntity
  8
_0
  6
Continuous
 62
     7
370
    30
100
AcDbLine
 10
31.935688
 20
6.036125
 30
0.0
 11
31.906417
 21
6.006865
 31
0.0
  0
LINE
  5
115
330
5AE
100
AcDbEntity
  8
_0
  6
Continuous
 62
     7
370
    30
100
AcDbLine
 10
31.969833
 20
6.06674
 30
0.0
 11
31.968615
 21
6.065521
 31
0.0
  0
LINE
  5
116
330
5AE
100
AcDbEntity
  8
_0
  6
Continuous
 62
     7
370
    30
100
AcDbLine
 10
31.881531
 20
5.978438
 30
0.0
 11
31.830771
 21
5.927667
 31
0.0
  0
LINE
  5
117
330
5AE
100
AcDbEntity
  8
_0
  6
Continuous
 62
     7
370
    30
100
AcDbLine
 10
31.935688
 20
6.032594
 30
0.0
 11
31.906417
 21
6.003323
 31
0.0
  0
LINE
  5
118
330
5AE
100
AcDbEntity
  8
_0
  6
Continuous
 62
     7
370
    30
100
AcDbLine
 10
31.935688
 20
6.029063
 30
0.0
 11
31.906417
 21
5.999792
 31
0.0
  0
LINE
  5
119
330
5AE
100
AcDbEntity
  8
_0
  6
Continuous
 62
     7
370
    30
100
AcDbLine
 10
31.885073
 20
5.978438
 30
0.0
 11
31.834302
 21
5.927667
 31
0.0
  0
LINE
  5
11A
330
5AE
100
AcDbEntity
  8
_0
  6
Continuous
 62
     7
370
    30
100
AcDbLine
 10
31.935688
 20
6.025521
 30
0.0
 11
31.906417
 21
5.99625
 31
0.0
  0
LINE
  5
11B
330
5AE
100
AcDbEntity
  8
_0
  6
Continuous
 62
     7
370
    30
100
AcDbLine
 10
31.888604
 20
5.978438
 30
0.0
 11
31.837833
 21
5.927667
 31
0.0
  0
LINE
  5
11C
330
5AE
100
AcDbEntity
  8
_0
  6
Continuous
 62
     7
370
    30
100
AcDbLine
 10
31.935688
 20
6.02199
 30
0.0
 11
31.906417
 21
5.992719
 31
0.0
  0
LINE
  5
11D
330
5AE
100
AcDbEntity
  8
_0
  6
Continuous
 62
     7
370
    30
100
AcDbLine
 10
31.892135
 20
5.978438
 30
0.0
 11
31.841375
 21
5.927667
 31
0.0
  0
LINE
  5
11E
330
5AE
100
AcDbEntity
  8
_0
  6
Continuous
 62
     7
370
    30
100
AcDbLine
 10
31.935688
 20
6.018448
 30
0.0
 11
31.906417
 21
5.989187
 31
0.0
  0
LINE
  5
11F
330
5AE
100
AcDbEntity
  8
_0
  6
Continuous
 62
     7
370
    30
100
AcDbLine
 10
31.895677
 20
5.978438
 30
0.0
 11
31.844906
 21
5.927667
 31
0.0
  0
LINE
  5
120
330
5AE
100
AcDbEntity
  8
_0
  6
Continuous
 62
     7
370
    30
100
AcDbLine
 10
31.935688
 20
6.014917
 30
0.0
 11
31.906417
 21
5.985646
 31
0.0
  0
LINE
  5
121
330
5AE
100
AcDbEntity
  8
_0
  6
Continuous
 62
     7
370
    30
100
AcDbLine
 10
31.899208
 20
5.978438
 30
0.0
 11
31.848448
 21
5.927667
 31
0.0
  0
LINE
  5
122
330
5AE
100
AcDbEntity
  8
_0
  6
Continuous
 62
     7
370
    30
100
AcDbLine
 10
31.935688
 20
6.011375
 30
0.0
 11
31.906417
 21
5.982115
 31
0.0
  0
LINE
  5
123
330
5AE
100
AcDbEntity
  8
_0
  6
Continuous
 62
     7
370
    30
100
AcDbLine
 10
31.90275
 20
5.978438
 30
0.0
 11
31.851979
 21
5.927667
 31
0.0
  0
LINE
  5
124
330
5AE
100
AcDbEntity
  8
_0
  6
Continuous
 62
     7
370
    30
100
AcDbLine
 10
31.935688
 20
6.007844
 30
0.0
 11
31.906417
 21
5.978573
 31
0.0
  0
LINE
  5
125
330
5AE
100
AcDbEntity
  8
_0
  6
Continuous
 62
     7
370
    30
100
AcDbLine
 10
31.906281
 20
5.978438
 30
0.0
 11
31.85551
 21
5.927667
 31
0.0
  0
LINE
  5
126
330
5AE
100
AcDbEntity
  8
_0
  6
Continuous
 62
     7
370
    30
100
AcDbLine
 10
31.935688
 20
6.004313
 30
0.0
 11
31.859052
 21
5.927667
 31
0.0
  0
LINE
  5
127
330
5AE
100
AcDbEntity
  8
_0
  6
Continuous
 62
     7
370
    30
100
AcDbLine
 10
31.935688
 20
6.000771
 30
0.0
 11
31.862583
 21
5.927667
 31
0.0
  0
LINE
  5
128
330
5AE
100
AcDbEntity
  8
_0
  6
Continuous
 62
     7
370
    30
100
AcDbLine
 10
31.935688
 20
5.99724
 30
0.0
 11
31.866125
 21
5.927667
 31
0.0
  0
LINE
  5
129
330
5AE
100
AcDbEntity
  8
_0
  6
Continuous
 62
     7
370
    30
100
AcDbLine
 10
31.935688
 20
5.993698
 30
0.0
 11
31.869656
 21
5.927667
 31
0.0
  0
LINE
  5
12A
330
5AE
100
AcDbEntity
  8
_0
  6
Continuous
 62
     7
370
    30
100
AcDbLine
 10
31.935688
 20
5.990167
 30
0.0
 11
31.873198
 21
5.927667
 31
0.0
  0
LINE
  5
12B
330
5AE
100
AcDbEntity
  8
_0
  6
Continuous
 62
     7
370
    30
100
AcDbLine
 10
31.935688
 20
5.986635
 30
0.0
 11
31.876729
 21
5.927667
 31
0.0
  0
LINE
  5
12C
330
5AE
100
AcDbEntity
  8
_0
  6
Continuous
 62
     7
370
    30
100
AcDbLine
 10
31.935688
 20
5.983094
 30
0.0
 11
31.88026
 21
5.927667
 31
0.0
  0
LINE
  5
12D
330
5AE
100
AcDbEntity
  8
_0
  6
Continuous
 62
     7
370
    30
100
AcDbLine
 10
31.935688
 20
5.979563
 30
0.0
 11
31.883802
 21
5.927667
 31
0.0
  0
LINE
  5
12E
330
5AE
100
AcDbEntity
  8
_0
  6
Continuous
 62
     7
370
    30
100
AcDbLine
 10
31.938104
 20
5.978438
 30
0.0
 11
31.887333
 21
5.927667
 31
0.0
  0
LINE
  5
12F
330
5AE
100
AcDbEntity
  8
_0
  6
Continuous
 62
     7
370
    30
100
AcDbLine
 10
31.941635
 20
5.978438
 30
0.0
 11
31.890875
 21
5.927667
 31
0.0
  0
LINE
  5
130
330
5AE
100
AcDbEntity
  8
_0
  6
Continuous
 62
     7
370
    30
100
AcDbLine
 10
31.945177
 20
5.978438
 30
0.0
 11
31.894406
 21
5.927667
 31
0.0
  0
LINE
  5
131
330
5AE
100
AcDbEntity
  8
_0
  6
Continuous
 62
     7
370
    30
100
AcDbLine
 10
31.948708
 20
5.978438
 30
0.0
 11
31.897937
 21
5.927667
 31
0.0
  0
LINE
  5
132
330
5AE
100
AcDbEntity
  8
_0
  6
Continuous
 62
     7
370
    30
100
AcDbLine
 10
31.95224
 20
5.978438
 30
0.0
 11
31.901479
 21
5.927667
 31
0.0
  0
LINE
  5
133
330
5AE
100
AcDbEntity
  8
_0
  6
Continuous
 62
     7
370
    30
100
AcDbLine
 10
31.955781
 20
5.978438
 30
0.0
 11
31.90501
 21
5.927667
 31
0.0
  0
LINE
  5
134
330
5AE
100
AcDbEntity
  8
_0
  6
Continuous
 62
     7
370
    30
100
AcDbLine
 10
31.959312
 20
5.978438
 30
0.0
 11
31.908552
 21
5.927667
 31
0.0
  0
LINE
  5
135
330
5AE
100
AcDbEntity
  8
_0
  6
Continuous
 62
     7
370
    30
100
AcDbLine
 10
31.962854
 20
5.978438
 30
0.0
 11
31.912083
 21
5.927667
 31
0.0
  0
LINE
  5
136
330
5AE
100
AcDbEntity
  8
_0
  6
Continuous
 62
     7
370
    30
100
AcDbLine
 10
31.966385
 20
5.978438
 30
0.0
 11
31.915615
 21
5.927667
 31
0.0
  0
LINE
  5
137
330
5AE
100
AcDbEntity
  8
_0
  6
Continuous
 62
     7
370
    30
100
AcDbLine
 10
31.969917
 20
5.978438
 30
0.0
 11
31.919156
 21
5.927667
 31
0.0
  0
LINE
  5
138
330
5AE
100
AcDbEntity
  8
_0
  6
Continuous
 62
     7
370
    30
100
AcDbLine
 10
31.973458
 20
5.978438
 30
0.0
 11
31.922687
 21
5.927667
 31
0.0
  0
LINE
  5
139
330
5AE
100
AcDbEntity
  8
_0
  6
Continuous
 62
     7
370
    30
100
AcDbLine
 10
31.97699
 20
5.978438
 30
0.0
 11
31.926229
 21
5.927667
 31
0.0
  0
LINE
  5
13A
330
5AE
100
AcDbEntity
  8
_0
  6
Continuous
 62
     7
370
    30
100
AcDbLine
 10
31.980094
 20
5.978
 30
0.0
 11
31.92976
 21
5.927667
 31
0.0
  0
LINE
  5
13B
330
5AE
100
AcDbEntity
  8
_0
  6
Continuous
 62
     7
370
    30
100
AcDbLine
 10
31.982687
 20
5.977062
 30
0.0
 11
31.933302
 21
5.927667
 31
0.0
  0
LINE
  5
13C
330
5AE
100
AcDbEntity
  8
_0
  6
Continuous
 62
     7
370
    30
100
AcDbLine
 10
31.985292
 20
5.976125
 30
0.0
 11
31.936833
 21
5.927667
 31
0.0
  0
LINE
  5
13D
330
5AE
100
AcDbEntity
  8
_0
  6
Continuous
 62
     7
370
    30
100
AcDbLine
 10
31.987885
 20
5.975187
 30
0.0
 11
31.940365
 21
5.927667
 31
0.0
  0
LINE
  5
13E
330
5AE
100
AcDbEntity
  8
_0
  6
Continuous
 62
     7
370
    30
100
AcDbLine
 10
31.990479
 20
5.97425
 30
0.0
 11
31.943906
 21
5.927667
 31
0.0
  0
LINE
  5
13F
330
5AE
100
AcDbEntity
  8
_0
  6
Continuous
 62
     7
370
    30
100
AcDbLine
 10
31.993083
 20
5.973312
 30
0.0
 11
31.947437
 21
5.927667
 31
0.0
  0
LINE
  5
140
330
5AE
100
AcDbEntity
  8
_0
  6
Continuous
 62
     7
370
    30
100
AcDbLine
 10
31.995677
 20
5.972375
 30
0.0
 11
31.950979
 21
5.927667
 31
0.0
  0
LINE
  5
141
330
5AE
100
AcDbEntity
  8
_0
  6
Continuous
 62
     7
370
    30
100
AcDbLine
 10
31.998271
 20
5.971437
 30
0.0
 11
31.95451
 21
5.927667
 31
0.0
  0
LINE
  5
142
330
5AE
100
AcDbEntity
  8
_0
  6
Continuous
 62
     7
370
    30
100
AcDbLine
 10
32.000875
 20
5.9705
 30
0.0
 11
31.958042
 21
5.927667
 31
0.0
  0
LINE
  5
143
330
5AE
100
AcDbEntity
  8
_0
  6
Continuous
 62
     7
370
    30
100
AcDbLine
 10
32.003469
 20
5.969562
 30
0.0
 11
31.961583
 21
5.927667
 31
0.0
  0
LINE
  5
144
330
5AE
100
AcDbEntity
  8
_0
  6
Continuous
 62
     7
370
    30
100
AcDbLine
 10
32.006062
 20
5.968625
 30
0.0
 11
31.965115
 21
5.927667
 31
0.0
  0
LINE
  5
145
330
5AE
100
AcDbEntity
  8
_0
  6
Continuous
 62
     7
370
    30
100
AcDbLine
 10
32.008667
 20
5.967677
 30
0.0
 11
31.968656
 21
5.927667
 31
0.0
  0
LINE
  5
146
330
5AE
100
AcDbEntity
  8
_0
  6
Continuous
 62
     7
370
    30
100
AcDbLine
 10
32.01126
 20
5.96674
 30
0.0
 11
31.972188
 21
5.927667
 31
0.0
  0
LINE
  5
147
330
5AE
100
AcDbEntity
  8
_0
  6
Continuous
 62
     7
370
    30
100
AcDbLine
 10
32.013854
 20
5.965802
 30
0.0
 11
31.975719
 21
5.927667
 31
0.0
  0
LINE
  5
148
330
5AE
100
AcDbEntity
  8
_0
  6
Continuous
 62
     7
370
    30
100
AcDbLine
 10
32.016458
 20
5.964865
 30
0.0
 11
31.97926
 21
5.927667
 31
0.0
  0
LINE
  5
149
330
5AE
100
AcDbEntity
  8
_0
  6
Continuous
 62
     7
370
    30
100
AcDbLine
 10
32.019052
 20
5.963927
 30
0.0
 11
31.982792
 21
5.927667
 31
0.0
  0
LINE
  5
14A
330
5AE
100
AcDbEntity
  8
_0
  6
Continuous
 62
     7
370
    30
100
AcDbLine
 10
32.021646
 20
5.96299
 30
0.0
 11
31.986333
 21
5.927667
 31
0.0
  0
LINE
  5
14B
330
5AE
100
AcDbEntity
  8
_0
  6
Continuous
 62
     7
370
    30
100
AcDbLine
 10
32.02425
 20
5.962052
 30
0.0
 11
31.989865
 21
5.927667
 31
0.0
  0
LINE
  5
14C
330
5AE
100
AcDbEntity
  8
_0
  6
Continuous
 62
     7
370
    30
100
AcDbLine
 10
32.026844
 20
5.961115
 30
0.0
 11
31.993406
 21
5.927667
 31
0.0
  0
LINE
  5
14D
330
5AE
100
AcDbEntity
  8
_0
  6
Continuous
 62
     7
370
    30
100
AcDbLine
 10
32.029438
 20
5.960177
 30
0.0
 11
31.996937
 21
5.927667
 31
0.0
  0
LINE
  5
14E
330
5AE
100
AcDbEntity
  8
_0
  6
Continuous
 62
     7
370
    30
100
AcDbLine
 10
32.032042
 20
5.95924
 30
0.0
 11
32.000469
 21
5.927667
 31
0.0
  0
LINE
  5
14F
330
5AE
100
AcDbEntity
  8
_0
  6
Continuous
 62
     7
370
    30
100
AcDbLine
 10
32.034635
 20
5.958302
 30
0.0
 11
32.00401
 21
5.927667
 31
0.0
  0
LINE
  5
150
330
5AE
100
AcDbEntity
  8
_0
  6
Continuous
 62
     7
370
    30
100
AcDbLine
 10
32.037229
 20
5.957365
 30
0.0
 11
32.007542
 21
5.927667
 31
0.0
  0
LINE
  5
151
330
5AE
100
AcDbEntity
  8
_0
  6
Continuous
 62
     7
370
    30
100
AcDbLine
 10
32.039833
 20
5.956417
 30
0.0
 11
32.011083
 21
5.927667
 31
0.0
  0
LINE
  5
152
330
5AE
100
AcDbEntity
  8
_0
  6
Continuous
 62
     7
370
    30
100
AcDbLine
 10
32.042427
 20
5.955479
 30
0.0
 11
32.014615
 21
5.927667
 31
0.0
  0
LINE
  5
153
330
5AE
100
AcDbEntity
  8
_0
  6
Continuous
 62
     7
370
    30
100
AcDbLine
 10
32.045021
 20
5.954542
 30
0.0
 11
32.018146
 21
5.927667
 31
0.0
  0
LINE
  5
154
330
5AE
100
AcDbEntity
  8
_0
  6
Continuous
 62
     7
370
    30
100
AcDbLine
 10
32.047625
 20
5.953604
 30
0.0
 11
32.021687
 21
5.927667
 31
0.0
  0
LINE
  5
155
330
5AE
100
AcDbEntity
  8
_0
  6
Continuous
 62
     7
370
    30
100
AcDbLine
 10
32.050219
 20
5.952667
 30
0.0
 11
32.025219
 21
5.927667
 31
0.0
  0
LINE
  5
156
330
5AE
100
AcDbEntity
  8
_0
  6
Continuous
 62
     7
370
    30
100
AcDbLine
 10
32.052813
 20
5.951729
 30
0.0
 11
32.02876
 21
5.927667
 31
0.0
  0
LINE
  5
157
330
5AE
100
AcDbEntity
  8
_0
  6
Continuous
 62
     7
370
    30
100
AcDbLine
 10
32.055417
 20
5.950792
 30
0.0
 11
32.032292
 21
5.927667
 31
0.0
  0
LINE
  5
158
330
5AE
100
AcDbEntity
  8
_0
  6
Continuous
 62
     7
370
    30
100
AcDbLine
 10
32.05801
 20
5.949854
 30
0.0
 11
32.035823
 21
5.927667
 31
0.0
  0
LINE
  5
159
330
5AE
100
AcDbEntity
  8
_0
  6
Continuous
 62
     7
370
    30
100
AcDbLine
 10
32.060604
 20
5.948917
 30
0.0
 11
32.039365
 21
5.927667
 31
0.0
  0
LINE
  5
15A
330
5AE
100
AcDbEntity
  8
_0
  6
Continuous
 62
     7
370
    30
100
AcDbLine
 10
32.063208
 20
5.947979
 30
0.0
 11
32.042896
 21
5.927667
 31
0.0
  0
LINE
  5
15B
330
5AE
100
AcDbEntity
  8
_0
  6
Continuous
 62
     7
370
    30
100
AcDbLine
 10
32.065802
 20
5.947042
 30
0.0
 11
32.046437
 21
5.927667
 31
0.0
  0
LINE
  5
15C
330
5AE
100
AcDbEntity
  8
_0
  6
Continuous
 62
     7
370
    30
100
AcDbLine
 10
32.068396
 20
5.946104
 30
0.0
 11
32.049969
 21
5.927667
 31
0.0
  0
LINE
  5
15D
330
5AE
100
AcDbEntity
  8
_0
  6
Continuous
 62
     7
370
    30
100
AcDbLine
 10
32.071
 20
5.945167
 30
0.0
 11
32.0535
 21
5.927667
 31
0.0
  0
LINE
  5
15E
330
5AE
100
AcDbEntity
  8
_0
  6
Continuous
 62
     7
370
    30
100
AcDbLine
 10
32.073594
 20
5.944219
 30
0.0
 11
32.057042
 21
5.927667
 31
0.0
  0
LINE
  5
15F
330
5AE
100
AcDbEntity
  8
_0
  6
Continuous
 62
     7
370
    30
100
AcDbLine
 10
32.076187
 20
5.943281
 30
0.0
 11
32.060573
 21
5.927667
 31
0.0
  0
LINE
  5
160
330
5AE
100
AcDbEntity
  8
_0
  6
Continuous
 62
     7
370
    30
100
AcDbLine
 10
32.078792
 20
5.942344
 30
0.0
 11
32.064115
 21
5.927667
 31
0.0
  0
LINE
  5
161
330
5AE
100
AcDbEntity
  8
_0
  6
Continuous
 62
     7
370
    30
100
AcDbLine
 10
32.081385
 20
5.941406
 30
0.0
 11
32.067646
 21
5.927667
 31
0.0
  0
LINE
  5
162
330
5AE
100
AcDbEntity
  8
_0
  6
Continuous
 62
     7
370
    30
100
AcDbLine
 10
32.083979
 20
5.940469
 30
0.0
 11
32.071188
 21
5.927667
 31
0.0
  0
LINE
  5
163
330
5AE
100
AcDbEntity
  8
_0
  6
Continuous
 62
     7
370
    30
100
AcDbLine
 10
32.086583
 20
5.939531
 30
0.0
 11
32.074719
 21
5.927667
 31
0.0
  0
LINE
  5
164
330
5AE
100
AcDbEntity
  8
_0
  6
Continuous
 62
     7
370
    30
100
AcDbLine
 10
32.089177
 20
5.938594
 30
0.0
 11
32.07825
 21
5.927667
 31
0.0
  0
LINE
  5
165
330
5AE
100
AcDbEntity
  8
_0
  6
Continuous
 62
     7
370
    30
100
AcDbLine
 10
32.091771
 20
5.937656
 30
0.0
 11
32.081792
 21
5.927667
 31
0.0
  0
LINE
  5
166
330
5AE
100
AcDbEntity
  8
_0
  6
Continuous
 62
     7
370
    30
100
AcDbLine
 10
32.094375
 20
5.936719
 30
0.0
 11
32.085323
 21
5.927667
 31
0.0
  0
LINE
  5
167
330
5AE
100
AcDbEntity
  8
_0
  6
Continuous
 62
     7
370
    30
100
AcDbLine
 10
32.096969
 20
5.935781
 30
0.0
 11
32.088865
 21
5.927667
 31
0.0
  0
LINE
  5
168
330
5AE
100
AcDbEntity
  8
_0
  6
Continuous
 62
     7
370
    30
100
AcDbLine
 10
32.099562
 20
5.934844
 30
0.0
 11
32.092396
 21
5.927667
 31
0.0
  0
LINE
  5
169
330
5AE
100
AcDbEntity
  8
_0
  6
Continuous
 62
     7
370
    30
100
AcDbLine
 10
32.102167
 20
5.933906
 30
0.0
 11
32.095927
 21
5.927667
 31
0.0
  0
LINE
  5
16A
330
5AE
100
AcDbEntity
  8
_0
  6
Continuous
 62
     7
370
    30
100
AcDbLine
 10
32.10476
 20
5.932958
 30
0.0
 11
32.099469
 21
5.927667
 31
0.0
  0
LINE
  5
16B
330
5AE
100
AcDbEntity
  8
_0
  6
Continuous
 62
     7
370
    30
100
AcDbLine
 10
32.107354
 20
5.932021
 30
0.0
 11
32.103
 21
5.927667
 31
0.0
  0
LINE
  5
16C
330
5AE
100
AcDbEntity
  8
_0
  6
Continuous
 62
     7
370
    30
100
AcDbLine
 10
32.109948
 20
5.931083
 30
0.0
 11
32.106542
 21
5.927667
 31
0.0
  0
LINE
  5
16D
330
5AE
100
AcDbEntity
  8
_0
  6
Continuous
 62
     7
370
    30
100
AcDbLine
 10
32.112552
 20
5.930146
 30
0.0
 11
32.110073
 21
5.927667
 31
0.0
  0
LINE
  5
16E
330
5AE
100
AcDbEntity
  8
_0
  6
Continuous
 62
     7
370
    30
100
AcDbLine
 10
32.115146
 20
5.929208
 30
0.0
 11
32.113604
 21
5.927667
 31
0.0
  0
LINE
  5
16F
330
5AE
100
AcDbEntity
  8
_0
  6
Continuous
 62
     7
370
    30
100
AcDbLine
 10
32.11774
 20
5.928271
 30
0.0
 11
32.117146
 21
5.927667
 31
0.0
  0
LINE
  5
170
330
5AE
100
AcDbEntity
  8
_0
  6
Continuous
 62
     7
370
    30
100
AcDbLine
 10
31.969833
 20
6.080885
 30
0.0
 11
31.954469
 21
6.065521
 31
0.0
  0
LINE
  5
171
330
5AE
100
AcDbEntity
  8
_0
  6
Continuous
 62
     7
370
    30
100
AcDbLine
 10
31.867396
 20
5.978438
 30
0.0
 11
31.816625
 21
5.927667
 31
0.0
  0
LINE
  5
172
330
5AE
100
AcDbEntity
  8
_0
  6
Continuous
 62
     7
370
    30
100
AcDbLine
 10
31.935688
 20
6.04674
 30
0.0
 11
31.906417
 21
6.017469
 31
0.0
  0
LINE
  5
173
330
5AE
100
AcDbEntity
  8
_0
  6
Continuous
 62
     7
370
    30
100
AcDbLine
 10
31.969833
 20
6.084417
 30
0.0
 11
31.950937
 21
6.065521
 31
0.0
  0
LINE
  5
174
330
5AE
100
AcDbEntity
  8
_0
  6
Continuous
 62
     7
370
    30
100
AcDbLine
 10
31.863854
 20
5.978438
 30
0.0
 11
31.813094
 21
5.927667
 31
0.0
  0
LINE
  5
175
330
5AE
100
AcDbEntity
  8
_0
  6
Continuous
 62
     7
370
    30
100
AcDbLine
 10
31.935688
 20
6.050271
 30
0.0
 11
31.906417
 21
6.021
 31
0.0
  0
LINE
  5
176
330
5AE
100
AcDbEntity
  8
_0
  6
Continuous
 62
     7
370
    30
100
AcDbLine
 10
31.969833
 20
6.087948
 30
0.0
 11
31.947396
 21
6.065521
 31
0.0
  0
LINE
  5
177
330
5AE
100
AcDbEntity
  8
_0
  6
Continuous
 62
     7
370
    30
100
AcDbLine
 10
31.858677
 20
5.976802
 30
0.0
 11
31.809552
 21
5.927667
 31
0.0
  0
LINE
  5
178
330
5AE
100
AcDbEntity
  8
_0
  6
Continuous
 62
     7
370
    30
100
AcDbLine
 10
31.935688
 20
6.053802
 30
0.0
 11
31.906417
 21
6.024542
 31
0.0
  0
LINE
  5
179
330
5AE
100
AcDbEntity
  8
_0
  6
Continuous
 62
     7
370
    30
100
AcDbLine
 10
31.969833
 20
6.09149
 30
0.0
 11
31.943865
 21
6.065521
 31
0.0
  0
LINE
  5
17A
330
5AE
100
AcDbEntity
  8
_0
  6
Continuous
 62
     7
370
    30
100
AcDbLine
 10
31.853146
 20
5.974802
 30
0.0
 11
31.806021
 21
5.927667
 31
0.0
  0
LINE
  5
17B
330
5AE
100
AcDbEntity
  8
_0
  6
Continuous
 62
     7
370
    30
100
AcDbLine
 10
31.935688
 20
6.057344
 30
0.0
 11
31.906417
 21
6.028073
 31
0.0
  0
LINE
  5
17C
330
5AE
100
AcDbEntity
  8
_0
  6
Continuous
 62
     7
370
    30
100
AcDbLine
 10
31.969833
 20
6.095021
 30
0.0
 11
31.940323
 21
6.065521
 31
0.0
  0
LINE
  5
17D
330
5AE
100
AcDbEntity
  8
_0
  6
Continuous
 62
     7
370
    30
100
AcDbLine
 10
31.847615
 20
5.972802
 30
0.0
 11
31.802479
 21
5.927667
 31
0.0
  0
LINE
  5
17E
330
5AE
100
AcDbEntity
  8
_0
  6
Continuous
 62
     7
370
    30
100
AcDbLine
 10
31.935688
 20
6.060875
 30
0.0
 11
31.906417
 21
6.031615
 31
0.0
  0
LINE
  5
17F
330
5AE
100
AcDbEntity
  8
_0
  6
Continuous
 62
     7
370
    30
100
AcDbLine
 10
31.969833
 20
6.098562
 30
0.0
 11
31.936792
 21
6.065521
 31
0.0
  0
LINE
  5
180
330
5AE
100
AcDbEntity
  8
_0
  6
Continuous
 62
     7
370
    30
100
AcDbLine
 10
31.842073
 20
5.970802
 30
0.0
 11
31.798948
 21
5.927667
 31
0.0
  0
LINE
  5
181
330
5AE
100
AcDbEntity
  8
_0
  6
Continuous
 62
     7
370
    30
100
AcDbLine
 10
31.935688
 20
6.064417
 30
0.0
 11
31.906417
 21
6.035146
 31
0.0
  0
LINE
  5
182
330
5AE
100
AcDbEntity
  8
_0
  6
Continuous
 62
     7
370
    30
100
AcDbLine
 10
31.969833
 20
6.102094
 30
0.0
 11
31.906417
 21
6.038677
 31
0.0
  0
LINE
  5
183
330
5AE
100
AcDbEntity
  8
_0
  6
Continuous
 62
     7
370
    30
100
AcDbLine
 10
31.836542
 20
5.968802
 30
0.0
 11
31.795406
 21
5.927667
 31
0.0
  0
LINE
  5
184
330
5AE
100
AcDbEntity
  8
_0
  6
Continuous
 62
     7
370
    30
100
AcDbLine
 10
31.969833
 20
6.105625
 30
0.0
 11
31.906417
 21
6.042219
 31
0.0
  0
LINE
  5
185
330
5AE
100
AcDbEntity
  8
_0
  6
Continuous
 62
     7
370
    30
100
AcDbLine
 10
31.831
 20
5.966802
 30
0.0
 11
31.791875
 21
5.927667
 31
0.0
  0
LINE
  5
186
330
5AE
100
AcDbEntity
  8
_0
  6
Continuous
 62
     7
370
    30
100
AcDbLine
 10
31.969833
 20
6.109167
 30
0.0
 11
31.906417
 21
6.04575
 31
0.0
  0
LINE
  5
187
330
5AE
100
AcDbEntity
  8
_0
  6
Continuous
 62
     7
370
    30
100
AcDbLine
 10
31.825469
 20
5.964802
 30
0.0
 11
31.788344
 21
5.927667
 31
0.0
  0
LINE
  5
188
330
5AE
100
AcDbEntity
  8
_0
  6
Continuous
 62
     7
370
    30
100
AcDbLine
 10
31.969833
 20
6.112698
 30
0.0
 11
31.906417
 21
6.049292
 31
0.0
  0
LINE
  5
189
330
5AE
100
AcDbEntity
  8
_0
  6
Continuous
 62
     7
370
    30
100
AcDbLine
 10
31.819937
 20
5.962802
 30
0.0
 11
31.784802
 21
5.927667
 31
0.0
  0
LINE
  5
18A
330
5AE
100
AcDbEntity
  8
_0
  6
Continuous
 62
     7
370
    30
100
AcDbLine
 10
31.969833
 20
6.11624
 30
0.0
 11
31.906417
 21
6.052823
 31
0.0
  0
LINE
  5
18B
330
5AE
100
AcDbEntity
  8
_0
  6
Continuous
 62
     7
370
    30
100
AcDbLine
 10
31.814396
 20
5.960802
 30
0.0
 11
31.781271
 21
5.927667
 31
0.0
  0
LINE
  5
18C
330
5AE
100
AcDbEntity
  8
_0
  6
Continuous
 62
     7
370
    30
100
AcDbLine
 10
31.969833
 20
6.119771
 30
0.0
 11
31.906417
 21
6.056354
 31
0.0
  0
LINE
  5
18D
330
5AE
100
AcDbEntity
  8
_0
  6
Continuous
 62
     7
370
    30
100
AcDbLine
 10
31.808865
 20
5.958802
 30
0.0
 11
31.777729
 21
5.927667
 31
0.0
  0
LINE
  5
18E
330
5AE
100
AcDbEntity
  8
_0
  6
Continuous
 62
     7
370
    30
100
AcDbLine
 10
31.969833
 20
6.123302
 30
0.0
 11
31.906417
 21
6.059896
 31
0.0
  0
LINE
  5
18F
330
5AE
100
AcDbEntity
  8
_0
  6
Continuous
 62
     7
370
    30
100
AcDbLine
 10
31.803323
 20
5.956802
 30
0.0
 11
31.774198
 21
5.927667
 31
0.0
  0
LINE
  5
190
330
5AE
100
AcDbEntity
  8
_0
  6
Continuous
 62
     7
370
    30
100
AcDbLine
 10
31.969833
 20
6.126844
 30
0.0
 11
31.906417
 21
6.063427
 31
0.0
  0
LINE
  5
191
330
5AE
100
AcDbEntity
  8
_0
  6
Continuous
 62
     7
370
    30
100
AcDbLine
 10
31.797792
 20
5.954802
 30
0.0
 11
31.770667
 21
5.927667
 31
0.0
  0
LINE
  5
192
330
5AE
100
AcDbEntity
  8
_0
  6
Continuous
 62
     7
370
    30
100
AcDbLine
 10
31.969062
 20
6.129604
 30
0.0
 11
31.904969
 21
6.065521
 31
0.0
  0
LINE
  5
193
330
5AE
100
AcDbEntity
  8
_0
  6
Continuous
 62
     7
370
    30
100
AcDbLine
 10
31.79226
 20
5.952802
 30
0.0
 11
31.767125
 21
5.927667
 31
0.0
  0
LINE
  5
194
330
5AE
100
AcDbEntity
  8
_0
  6
Continuous
 62
     7
370
    30
100
AcDbLine
 10
31.965521
 20
6.129604
 30
0.0
 11
31.901438
 21
6.065521
 31
0.0
  0
LINE
  5
195
330
5AE
100
AcDbEntity
  8
_0
  6
Continuous
 62
     7
370
    30
100
AcDbLine
 10
31.786719
 20
5.950802
 30
0.0
 11
31.763594
 21
5.927667
 31
0.0
  0
LINE
  5
196
330
5AE
100
AcDbEntity
  8
_0
  6
Continuous
 62
     7
370
    30
100
AcDbLine
 10
31.96199
 20
6.129604
 30
0.0
 11
31.897896
 21
6.065521
 31
0.0
  0
LINE
  5
197
330
5AE
100
AcDbEntity
  8
_0
  6
Continuous
 62
     7
370
    30
100
AcDbLine
 10
31.781187
 20
5.948802
 30
0.0
 11
31.760052
 21
5.927667
 31
0.0
  0
LINE
  5
198
330
5AE
100
AcDbEntity
  8
_0
  6
Continuous
 62
     7
370
    30
100
AcDbLine
 10
31.958458
 20
6.129604
 30
0.0
 11
31.894365
 21
6.065521
 31
0.0
  0
LINE
  5
199
330
5AE
100
AcDbEntity
  8
_0
  6
Continuous
 62
     7
370
    30
100
AcDbLine
 10
31.775646
 20
5.946802
 30
0.0
 11
31.756521
 21
5.927667
 31
0.0
  0
LINE
  5
19A
330
5AE
100
AcDbEntity
  8
_0
  6
Continuous
 62
     7
370
    30
100
AcDbLine
 10
31.954917
 20
6.129604
 30
0.0
 11
31.890833
 21
6.065521
 31
0.0
  0
LINE
  5
19B
330
5AE
100
AcDbEntity
  8
_0
  6
Continuous
 62
     7
370
    30
100
AcDbLine
 10
31.770115
 20
5.944802
 30
0.0
 11
31.75299
 21
5.927667
 31
0.0
  0
LINE
  5
19C
330
5AE
100
AcDbEntity
  8
_0
  6
Continuous
 62
     7
370
    30
100
AcDbLine
 10
31.951385
 20
6.129604
 30
0.0
 11
31.887292
 21
6.065521
 31
0.0
  0
LINE
  5
19D
330
5AE
100
AcDbEntity
  8
_0
  6
Continuous
 62
     7
370
    30
100
AcDbLine
 10
31.764573
 20
5.942802
 30
0.0
 11
31.749448
 21
5.927667
 31
0.0
  0
LINE
  5
19E
330
5AE
100
AcDbEntity
  8
_0
  6
Continuous
 62
     7
370
    30
100
AcDbLine
 10
31.947844
 20
6.129604
 30
0.0
 11
31.88376
 21
6.065521
 31
0.0
  0
LINE
  5
19F
330
5AE
100
AcDbEntity
  8
_0
  6
Continuous
 62
     7
370
    30
100
AcDbLine
 10
31.759042
 20
5.940802
 30
0.0
 11
31.745917
 21
5.927667
 31
0.0
  0
LINE
  5
1A0
330
5AE
100
AcDbEntity
  8
_0
  6
Continuous
 62
     7
370
    30
100
AcDbLine
 10
31.944312
 20
6.129604
 30
0.0
 11
31.880219
 21
6.065521
 31
0.0
  0
LINE
  5
1A1
330
5AE
100
AcDbEntity
  8
_0
  6
Continuous
 62
     7
370
    30
100
AcDbLine
 10
31.75351
 20
5.938802
 30
0.0
 11
31.742375
 21
5.927667
 31
0.0
  0
LINE
  5
1A2
330
5AE
100
AcDbEntity
  8
_0
  6
Continuous
 62
     7
370
    30
100
AcDbLine
 10
31.940781
 20
6.129604
 30
0.0
 11
31.876687
 21
6.065521
 31
0.0
  0
LINE
  5
1A3
330
5AE
100
AcDbEntity
  8
_0
  6
Continuous
 62
     7
370
    30
100
AcDbLine
 10
31.747969
 20
5.936802
 30
0.0
 11
31.738844
 21
5.927667
 31
0.0
  0
LINE
  5
1A4
330
5AE
100
AcDbEntity
  8
_0
  6
Continuous
 62
     7
370
    30
100
AcDbLine
 10
31.93724
 20
6.129604
 30
0.0
 11
31.873156
 21
6.065521
 31
0.0
  0
LINE
  5
1A5
330
5AE
100
AcDbEntity
  8
_0
  6
Continuous
 62
     7
370
    30
100
AcDbLine
 10
31.742437
 20
5.934802
 30
0.0
 11
31.735302
 21
5.927667
 31
0.0
  0
LINE
  5
1A6
330
5AE
100
AcDbEntity
  8
_0
  6
Continuous
 62
     7
370
    30
100
AcDbLine
 10
31.933708
 20
6.129604
 30
0.0
 11
31.872271
 21
6.068177
 31
0.0
  0
LINE
  5
1A7
330
5AE
100
AcDbEntity
  8
_0
  6
Continuous
 62
     7
370
    30
100
AcDbLine
 10
31.736896
 20
5.932802
 30
0.0
 11
31.731771
 21
5.927667
 31
0.0
  0
LINE
  5
1A8
330
5AE
100
AcDbEntity
  8
_0
  6
Continuous
 62
     7
370
    30
100
AcDbLine
 10
31.930167
 20
6.129604
 30
0.0
 11
31.872271
 21
6.071708
 31
0.0
  0
LINE
  5
1A9
330
5AE
100
AcDbEntity
  8
_0
  6
Continuous
 62
     7
370
    30
100
AcDbLine
 10
31.731365
 20
5.930802
 30
0.0
 11
31.72824
 21
5.927667
 31
0.0
  0
LINE
  5
1AA
330
5AE
100
AcDbEntity
  8
_0
  6
Continuous
 62
     7
370
    30
100
AcDbLine
 10
31.926635
 20
6.129604
 30
0.0
 11
31.872271
 21
6.07525
 31
0.0
  0
LINE
  5
1AB
330
5AE
100
AcDbEntity
  8
_0
  6
Continuous
 62
     7
370
    30
100
AcDbLine
 10
31.725833
 20
5.928802
 30
0.0
 11
31.724698
 21
5.927667
 31
0.0
  0
LINE
  5
1AC
330
5AE
100
AcDbEntity
  8
_0
  6
Continuous
 62
     7
370
    30
100
AcDbLine
 10
31.923094
 20
6.129604
 30
0.0
 11
31.872271
 21
6.078781
 31
0.0
  0
LINE
  5
1AD
330
5AE
100
AcDbEntity
  8
_0
  6
Continuous
 62
     7
370
    30
100
AcDbLine
 10
31.919562
 20
6.129604
 30
0.0
 11
31.872271
 21
6.082323
 31
0.0
  0
LINE
  5
1AE
330
5AE
100
AcDbEntity
  8
_0
  6
Continuous
 62
     7
370
    30
100
AcDbLine
 10
31.916031
 20
6.129604
 30
0.0
 11
31.872271
 21
6.085854
 31
0.0
  0
LINE
  5
1AF
330
5AE
100
AcDbEntity
  8
_0
  6
Continuous
 62
     7
370
    30
100
AcDbLine
 10
31.91249
 20
6.129604
 30
0.0
 11
31.872271
 21
6.089385
 31
0.0
  0
LINE
  5
1B0
330
5AE
100
AcDbEntity
  8
_0
  6
Continuous
 62
     7
370
    30
100
AcDbLine
 10
31.908958
 20
6.129604
 30
0.0
 11
31.872271
 21
6.092927
 31
0.0
  0
LINE
  5
1B1
330
5AE
100
AcDbEntity
  8
_0
  6
Continuous
 62
     7
370
    30
100
AcDbLine
 10
31.905417
 20
6.129604
 30
0.0
 11
31.872271
 21
6.096458
 31
0.0
  0
LINE
  5
1B2
330
5AE
100
AcDbEntity
  8
_0
  6
Continuous
 62
     7
370
    30
100
AcDbLine
 10
31.901885
 20
6.129604
 30
0.0
 11
31.872271
 21
6.1
 31
0.0
  0
LINE
  5
1B3
330
5AE
100
AcDbEntity
  8
_0
  6
Continuous
 62
     7
370
    30
100
AcDbLine
 10
31.898354
 20
6.129604
 30
0.0
 11
31.872271
 21
6.103531
 31
0.0
  0
LINE
  5
1B4
330
5AE
100
AcDbEntity
  8
_0
  6
Continuous
 62
     7
370
    30
100
AcDbLine
 10
31.894813
 20
6.129604
 30
0.0
 11
31.872271
 21
6.107062
 31
0.0
  0
LINE
  5
1B5
330
5AE
100
AcDbEntity
  8
_0
  6
Continuous
 62
     7
370
    30
100
AcDbLine
 10
31.891281
 20
6.129604
 30
0.0
 11
31.872271
 21
6.110604
 31
0.0
  0
LINE
  5
1B6
330
5AE
100
AcDbEntity
  8
_0
  6
Continuous
 62
     7
370
    30
100
AcDbLine
 10
31.88774
 20
6.129604
 30
0.0
 11
31.872271
 21
6.114135
 31
0.0
  0
LINE
  5
1B7
330
5AE
100
AcDbEntity
  8
_0
  6
Continuous
 62
     7
370
    30
100
AcDbLine
 10
31.884208
 20
6.129604
 30
0.0
 11
31.872271
 21
6.117677
 31
0.0
  0
LINE
  5
1B8
330
5AE
100
AcDbEntity
  8
_0
  6
Continuous
 62
     7
370
    30
100
AcDbLine
 10
31.880677
 20
6.129604
 30
0.0
 11
31.872271
 21
6.121208
 31
0.0
  0
LINE
  5
1B9
330
5AE
100
AcDbEntity
  8
_0
  6
Continuous
 62
     7
370
    30
100
AcDbLine
 10
31.877135
 20
6.129604
 30
0.0
 11
31.872271
 21
6.12474
 31
0.0
  0
LINE
  5
1BA
330
5AE
100
AcDbEntity
  8
_0
  6
Continuous
 62
     7
370
    30
100
AcDbLine
 10
31.873604
 20
6.129604
 30
0.0
 11
31.872271
 21
6.128281
 31
0.0
  0
LINE
  5
1BC
330
5AE
100
AcDbEntity
  8
HATCH
  6
Continuous
 62
     7
370
    30
100
AcDbLine
 10
33.903208
 20
5.441771
 30
0.0
 11
33.903208
 21
5.404271
 31
0.0
  0
LINE
  5
1BD
330
5AE
100
AcDbEntity
  8
HATCH
  6
Continuous
 62
     7
370
    30
100
AcDbLine
 10
33.903208
 20
5.329271
 30
0.0
 11
33.903208
 21
5.291771
 31
0.0
  0
LINE
  5
1BE
330
5AE
100
AcDbEntity
  8
HATCH
  6
Continuous
 62
     7
370
    30
100
AcDbLine
 10
33.903208
 20
5.216771
 30
0.0
 11
33.903208
 21
5.195177
 31
0.0
  0
LINE
  5
1BF
330
5AE
100
AcDbEntity
  8
HATCH
  6
Continuous
 62
     7
370
    30
100
AcDbLine
 10
33.870729
 20
5.385521
 30
0.0
 11
33.870729
 21
5.348021
 31
0.0
  0
LINE
  5
1C0
330
5AE
100
AcDbEntity
  8
HATCH
  6
Continuous
 62
     7
370
    30
100
AcDbLine
 10
33.870729
 20
5.273021
 30
0.0
 11
33.870729
 21
5.235521
 31
0.0
  0
LINE
  5
1C1
330
5AE
100
AcDbEntity
  8
HATCH
  6
Continuous
 62
     7
370
    30
100
AcDbLine
 10
33.83825
 20
5.441771
 30
0.0
 11
33.83825
 21
5.404271
 31
0.0
  0
LINE
  5
1C2
330
5AE
100
AcDbEntity
  8
HATCH
  6
Continuous
 62
     7
370
    30
100
AcDbLine
 10
33.83825
 20
5.329271
 30
0.0
 11
33.83825
 21
5.291771
 31
0.0
  0
LINE
  5
1C3
330
5AE
100
AcDbEntity
  8
HATCH
  6
Continuous
 62
     7
370
    30
100
AcDbLine
 10
33.83825
 20
5.216771
 30
0.0
 11
33.83825
 21
5.196531
 31
0.0
  0
LINE
  5
1C4
330
5AE
100
AcDbEntity
  8
HATCH
  6
Continuous
 62
     7
370
    30
100
AcDbLine
 10
33.805781
 20
5.385521
 30
0.0
 11
33.805781
 21
5.348021
 31
0.0
  0
LINE
  5
1C5
330
5AE
100
AcDbEntity
  8
HATCH
  6
Continuous
 62
     7
370
    30
100
AcDbLine
 10
33.805781
 20
5.273021
 30
0.0
 11
33.805781
 21
5.235521
 31
0.0
  0
LINE
  5
1C6
330
5AE
100
AcDbEntity
  8
HATCH
  6
Continuous
 62
     7
370
    30
100
AcDbLine
 10
33.773302
 20
5.441771
 30
0.0
 11
33.773302
 21
5.404271
 31
0.0
  0
LINE
  5
1C7
330
5AE
100
AcDbEntity
  8
HATCH
  6
Continuous
 62
     7
370
    30
100
AcDbLine
 10
33.773302
 20
5.329271
 30
0.0
 11
33.773302
 21
5.291771
 31
0.0
  0
LINE
  5
1C8
330
5AE
100
AcDbEntity
  8
HATCH
  6
Continuous
 62
     7
370
    30
100
AcDbLine
 10
33.773302
 20
5.216771
 30
0.0
 11
33.773302
 21
5.206083
 31
0.0
  0
LINE
  5
1C9
330
5AE
100
AcDbEntity
  8
HATCH
  6
Continuous
 62
     7
370
    30
100
AcDbLine
 10
33.740823
 20
5.385521
 30
0.0
 11
33.740823
 21
5.348021
 31
0.0
  0
LINE
  5
1CA
330
5AE
100
AcDbEntity
  8
HATCH
  6
Continuous
 62
     7
370
    30
100
AcDbLine
 10
33.740823
 20
5.273021
 30
0.0
 11
33.740823
 21
5.235521
 31
0.0
  0
LINE
  5
1CB
330
5AE
100
AcDbEntity
  8
HATCH
  6
Continuous
 62
     7
370
    30
100
AcDbLine
 10
33.708354
 20
5.441771
 30
0.0
 11
33.708354
 21
5.404271
 31
0.0
  0
LINE
  5
1CC
330
5AE
100
AcDbEntity
  8
HATCH
  6
Continuous
 62
     7
370
    30
100
AcDbLine
 10
33.708354
 20
5.329271
 30
0.0
 11
33.708354
 21
5.291771
 31
0.0
  0
LINE
  5
1CD
330
5AE
100
AcDbEntity
  8
HATCH
  6
Continuous
 62
     7
370
    30
100
AcDbLine
 10
33.675875
 20
5.385521
 30
0.0
 11
33.675875
 21
5.348021
 31
0.0
  0
LINE
  5
1CE
330
5AE
100
AcDbEntity
  8
HATCH
  6
Continuous
 62
     7
370
    30
100
AcDbLine
 10
33.675875
 20
5.273021
 30
0.0
 11
33.675875
 21
5.25474
 31
0.0
  0
LINE
  5
1CF
330
5AE
100
AcDbEntity
  8
HATCH
  6
Continuous
 62
     7
370
    30
100
AcDbLine
 10
33.643396
 20
5.441771
 30
0.0
 11
33.643396
 21
5.404271
 31
0.0
  0
LINE
  5
1D0
330
5AE
100
AcDbEntity
  8
HATCH
  6
Continuous
 62
     7
370
    30
100
AcDbLine
 10
33.643396
 20
5.329271
 30
0.0
 11
33.643396
 21
5.291771
 31
0.0
  0
LINE
  5
1D1
330
5AE
100
AcDbEntity
  8
HATCH
  6
Continuous
 62
     7
370
    30
100
AcDbLine
 10
33.610917
 20
5.385521
 30
0.0
 11
33.610917
 21
5.348021
 31
0.0
  0
LINE
  5
1D2
330
5AE
100
AcDbEntity
  8
HATCH
  6
Continuous
 62
     7
370
    30
100
AcDbLine
 10
33.578448
 20
5.441771
 30
0.0
 11
33.578448
 21
5.404271
 31
0.0
  0
LINE
  5
1D3
330
5AE
100
AcDbEntity
  8
HATCH
  6
Continuous
 62
     7
370
    30
100
AcDbLine
 10
33.578448
 20
5.329271
 30
0.0
 11
33.578448
 21
5.303385
 31
0.0
  0
LINE
  5
1D4
330
5AE
100
AcDbEntity
  8
HATCH
  6
Continuous
 62
     7
370
    30
100
AcDbLine
 10
33.545969
 20
5.385521
 30
0.0
 11
33.545969
 21
5.348021
 31
0.0
  0
LINE
  5
1D5
330
5AE
100
AcDbEntity
  8
HATCH
  6
Continuous
 62
     7
370
    30
100
AcDbLine
 10
33.51349
 20
5.441771
 30
0.0
 11
33.51349
 21
5.404271
 31
0.0
  0
LINE
  5
1D6
330
5AE
100
AcDbEntity
  8
HATCH
  6
Continuous
 62
     7
370
    30
100
AcDbLine
 10
33.481021
 20
5.385521
 30
0.0
 11
33.481021
 21
5.352031
 31
0.0
  0
LINE
  5
1D7
330
5AE
100
AcDbEntity
  8
HATCH
  6
Continuous
 62
     7
370
    30
100
AcDbLine
 10
33.448542
 20
5.441771
 30
0.0
 11
33.448542
 21
5.404271
 31
0.0
  0
LINE
  5
1D8
330
5AE
100
AcDbEntity
  8
HATCH
  6
Continuous
 62
     7
370
    30
100
AcDbLine
 10
33.416062
 20
5.385521
 30
0.0
 11
33.416062
 21
5.384469
 31
0.0
  0
LINE
  5
1D9
330
5AE
100
AcDbEntity
  8
HATCH
  6
Continuous
 62
     7
370
    30
100
AcDbLine
 10
33.383594
 20
5.441771
 30
0.0
 11
33.383594
 21
5.404271
 31
0.0
  0
LINE
  5
1DA
330
5AE
100
AcDbEntity
  8
HATCH
  6
Continuous
 62
     7
370
    30
100
AcDbLine
 10
33.318635
 20
5.441771
 30
0.0
 11
33.318635
 21
5.433115
 31
0.0
  0
LINE
  5
1DB
330
5AE
100
AcDbEntity
  8
HATCH
  6
Continuous
 62
     7
370
    30
100
AcDbLine
 10
33.286167
 20
5.460875
 30
0.0
 11
33.286167
 21
5.460521
 31
0.0
  0
LINE
  5
1DC
330
5AE
100
AcDbEntity
  8
HATCH
  6
Continuous
 62
     7
370
    30
100
AcDbLine
 10
33.935677
 20
5.385521
 30
0.0
 11
33.935677
 21
5.348021
 31
0.0
  0
LINE
  5
1DD
330
5AE
100
AcDbEntity
  8
HATCH
  6
Continuous
 62
     7
370
    30
100
AcDbLine
 10
33.935677
 20
5.273021
 30
0.0
 11
33.935677
 21
5.235521
 31
0.0
  0
LINE
  5
1DE
330
5AE
100
AcDbEntity
  8
HATCH
  6
Continuous
 62
     7
370
    30
100
AcDbLine
 10
33.968156
 20
5.441771
 30
0.0
 11
33.968156
 21
5.404271
 31
0.0
  0
LINE
  5
1DF
330
5AE
100
AcDbEntity
  8
HATCH
  6
Continuous
 62
     7
370
    30
100
AcDbLine
 10
33.968156
 20
5.329271
 30
0.0
 11
33.968156
 21
5.291771
 31
0.0
  0
LINE
  5
1E0
330
5AE
100
AcDbEntity
  8
HATCH
  6
Continuous
 62
     7
370
    30
100
AcDbLine
 10
33.968156
 20
5.216771
 30
0.0
 11
33.968156
 21
5.193823
 31
0.0
  0
LINE
  5
1E1
330
5AE
100
AcDbEntity
  8
HATCH
  6
Continuous
 62
     7
370
    30
100
AcDbLine
 10
34.000635
 20
5.385521
 30
0.0
 11
34.000635
 21
5.348021
 31
0.0
  0
LINE
  5
1E2
330
5AE
100
AcDbEntity
  8
HATCH
  6
Continuous
 62
     7
370
    30
100
AcDbLine
 10
34.000635
 20
5.273021
 30
0.0
 11
34.000635
 21
5.235521
 31
0.0
  0
LINE
  5
1E3
330
5AE
100
AcDbEntity
  8
HATCH
  6
Continuous
 62
     7
370
    30
100
AcDbLine
 10
34.033104
 20
5.428625
 30
0.0
 11
34.033104
 21
5.404271
 31
0.0
  0
LINE
  5
1E4
330
5AE
100
AcDbEntity
  8
HATCH
  6
Continuous
 62
     7
370
    30
100
AcDbLine
 10
34.033104
 20
5.329271
 30
0.0
 11
34.033104
 21
5.291771
 31
0.0
  0
LINE
  5
1E5
330
5AE
100
AcDbEntity
  8
HATCH
  6
Continuous
 62
     7
370
    30
100
AcDbLine
 10
34.033104
 20
5.216771
 30
0.0
 11
34.033104
 21
5.192469
 31
0.0
  0
LINE
  5
1E6
330
5AE
100
AcDbEntity
  8
HATCH
  6
Continuous
 62
     7
370
    30
100
AcDbLine
 10
34.065583
 20
5.385521
 30
0.0
 11
34.065583
 21
5.348021
 31
0.0
  0
LINE
  5
1E7
330
5AE
100
AcDbEntity
  8
HATCH
  6
Continuous
 62
     7
370
    30
100
AcDbLine
 10
34.065583
 20
5.273021
 30
0.0
 11
34.065583
 21
5.235521
 31
0.0
  0
LINE
  5
1E8
330
5AE
100
AcDbEntity
  8
HATCH
  6
Continuous
 62
     7
370
    30
100
AcDbLine
 10
34.098062
 20
5.329271
 30
0.0
 11
34.098062
 21
5.291771
 31
0.0
  0
LINE
  5
1E9
330
5AE
100
AcDbEntity
  8
HATCH
  6
Continuous
 62
     7
370
    30
100
AcDbLine
 10
34.098062
 20
5.216771
 30
0.0
 11
34.098062
 21
5.191115
 31
0.0
  0
LINE
  5
1EA
330
5AE
100
AcDbEntity
  8
HATCH
  6
Continuous
 62
     7
370
    30
100
AcDbLine
 10
34.130542
 20
5.379969
 30
0.0
 11
34.130542
 21
5.348021
 31
0.0
  0
LINE
  5
1EB
330
5AE
100
AcDbEntity
  8
HATCH
  6
Continuous
 62
     7
370
    30
100
AcDbLine
 10
34.130542
 20
5.273021
 30
0.0
 11
34.130542
 21
5.235521
 31
0.0
  0
LINE
  5
1EC
330
5AE
100
AcDbEntity
  8
HATCH
  6
Continuous
 62
     7
370
    30
100
AcDbLine
 10
34.16301
 20
5.329271
 30
0.0
 11
34.16301
 21
5.291771
 31
0.0
  0
LINE
  5
1ED
330
5AE
100
AcDbEntity
  8
HATCH
  6
Continuous
 62
     7
370
    30
100
AcDbLine
 10
34.16301
 20
5.216771
 30
0.0
 11
34.16301
 21
5.18976
 31
0.0
  0
LINE
  5
1EE
330
5AE
100
AcDbEntity
  8
HATCH
  6
Continuous
 62
     7
370
    30
100
AcDbLine
 10
34.19549
 20
5.273021
 30
0.0
 11
34.19549
 21
5.235521
 31
0.0
  0
LINE
  5
1EF
330
5AE
100
AcDbEntity
  8
HATCH
  6
Continuous
 62
     7
370
    30
100
AcDbLine
 10
34.227969
 20
5.329271
 30
0.0
 11
34.227969
 21
5.291771
 31
0.0
  0
LINE
  5
1F0
330
5AE
100
AcDbEntity
  8
HATCH
  6
Continuous
 62
     7
370
    30
100
AcDbLine
 10
34.227969
 20
5.216771
 30
0.0
 11
34.227969
 21
5.188406
 31
0.0
  0
LINE
  5
1F1
330
5AE
100
AcDbEntity
  8
HATCH
  6
Continuous
 62
     7
370
    30
100
AcDbLine
 10
34.260438
 20
5.273021
 30
0.0
 11
34.260438
 21
5.235521
 31
0.0
  0
LINE
  5
1F2
330
5AE
100
AcDbEntity
  8
HATCH
  6
Continuous
 62
     7
370
    30
100
AcDbLine
 10
34.292917
 20
5.298896
 30
0.0
 11
34.292917
 21
5.291771
 31
0.0
  0
LINE
  5
1F3
330
5AE
100
AcDbEntity
  8
HATCH
  6
Continuous
 62
     7
370
    30
100
AcDbLine
 10
34.292917
 20
5.216771
 30
0.0
 11
34.292917
 21
5.187052
 31
0.0
  0
LINE
  5
1F4
330
5AE
100
AcDbEntity
  8
HATCH
  6
Continuous
 62
     7
370
    30
100
AcDbLine
 10
34.325396
 20
5.273021
 30
0.0
 11
34.325396
 21
5.235521
 31
0.0
  0
LINE
  5
1F5
330
5AE
100
AcDbEntity
  8
HATCH
  6
Continuous
 62
     7
370
    30
100
AcDbLine
 10
34.357865
 20
5.216771
 30
0.0
 11
34.357865
 21
5.185698
 31
0.0
  0
LINE
  5
1F6
330
5AE
100
AcDbEntity
  8
HATCH
  6
Continuous
 62
     7
370
    30
100
AcDbLine
 10
34.390344
 20
5.25024
 30
0.0
 11
34.390344
 21
5.235521
 31
0.0
  0
LINE
  5
1F7
330
5AE
100
AcDbEntity
  8
HATCH
  6
Continuous
 62
     7
370
    30
100
AcDbLine
 10
34.422823
 20
5.216771
 30
0.0
 11
34.422823
 21
5.184354
 31
0.0
  0
LINE
  5
1F8
330
5AE
100
AcDbEntity
  8
HATCH
  6
Continuous
 62
     7
370
    30
100
AcDbLine
 10
34.487771
 20
5.201594
 30
0.0
 11
34.487771
 21
5.183
 31
0.0
  0
LINE
  5
1F9
330
5AE
100
AcDbEntity
  8
HATCH
  6
Continuous
 62
     7
370
    30
100
AcDbLine
 10
34.098062
 20
5.216771
 30
0.0
 11
34.065583
 21
5.235521
 31
0.0
  0
LINE
  5
1FA
330
5AE
100
AcDbEntity
  8
HATCH
  6
Continuous
 62
     7
370
    30
100
AcDbLine
 10
34.000635
 20
5.273021
 30
0.0
 11
33.968156
 21
5.291771
 31
0.0
  0
LINE
  5
1FB
330
5AE
100
AcDbEntity
  8
HATCH
  6
Continuous
 62
     7
370
    30
100
AcDbLine
 10
33.903208
 20
5.329271
 30
0.0
 11
33.870729
 21
5.348021
 31
0.0
  0
LINE
  5
1FC
330
5AE
100
AcDbEntity
  8
HATCH
  6
Continuous
 62
     7
370
    30
100
AcDbLine
 10
33.805781
 20
5.385521
 30
0.0
 11
33.773302
 21
5.404271
 31
0.0
  0
LINE
  5
1FD
330
5AE
100
AcDbEntity
  8
HATCH
  6
Continuous
 62
     7
370
    30
100
AcDbLine
 10
33.708354
 20
5.441771
 30
0.0
 11
33.689823
 21
5.452469
 31
0.0
  0
LINE
  5
1FE
330
5AE
100
AcDbEntity
  8
HATCH
  6
Continuous
 62
     7
370
    30
100
AcDbLine
 10
34.16301
 20
5.216771
 30
0.0
 11
34.130542
 21
5.235521
 31
0.0
  0
LINE
  5
1FF
330
5AE
100
AcDbEntity
  8
HATCH
  6
Continuous
 62
     7
370
    30
100
AcDbLine
 10
34.065583
 20
5.273021
 30
0.0
 11
34.033104
 21
5.291771
 31
0.0
  0
LINE
  5
200
330
5AE
100
AcDbEntity
  8
HATCH
  6
Continuous
 62
     7
370
    30
100
AcDbLine
 10
33.968156
 20
5.329271
 30
0.0
 11
33.935677
 21
5.348021
 31
0.0
  0
LINE
  5
201
330
5AE
100
AcDbEntity
  8
HATCH
  6
Continuous
 62
     7
370
    30
100
AcDbLine
 10
33.870729
 20
5.385521
 30
0.0
 11
33.83825
 21
5.404271
 31
0.0
  0
LINE
  5
202
330
5AE
100
AcDbEntity
  8
HATCH
  6
Continuous
 62
     7
370
    30
100
AcDbLine
 10
33.773302
 20
5.441771
 30
0.0
 11
33.757208
 21
5.451062
 31
0.0
  0
LINE
  5
203
330
5AE
100
AcDbEntity
  8
HATCH
  6
Continuous
 62
     7
370
    30
100
AcDbLine
 10
34.227969
 20
5.216771
 30
0.0
 11
34.19549
 21
5.235521
 31
0.0
  0
LINE
  5
204
330
5AE
100
AcDbEntity
  8
HATCH
  6
Continuous
 62
     7
370
    30
100
AcDbLine
 10
34.130542
 20
5.273021
 30
0.0
 11
34.098062
 21
5.291771
 31
0.0
  0
LINE
  5
205
330
5AE
100
AcDbEntity
  8
HATCH
  6
Continuous
 62
     7
370
    30
100
AcDbLine
 10
34.033104
 20
5.329271
 30
0.0
 11
34.000635
 21
5.348021
 31
0.0
  0
LINE
  5
206
330
5AE
100
AcDbEntity
  8
HATCH
  6
Continuous
 62
     7
370
    30
100
AcDbLine
 10
33.935677
 20
5.385521
 30
0.0
 11
33.903208
 21
5.404271
 31
0.0
  0
LINE
  5
207
330
5AE
100
AcDbEntity
  8
HATCH
  6
Continuous
 62
     7
370
    30
100
AcDbLine
 10
33.83825
 20
5.441771
 30
0.0
 11
33.824594
 21
5.449656
 31
0.0
  0
LINE
  5
208
330
5AE
100
AcDbEntity
  8
HATCH
  6
Continuous
 62
     7
370
    30
100
AcDbLine
 10
34.292917
 20
5.216771
 30
0.0
 11
34.260438
 21
5.235521
 31
0.0
  0
LINE
  5
209
330
5AE
100
AcDbEntity
  8
HATCH
  6
Continuous
 62
     7
370
    30
100
AcDbLine
 10
34.19549
 20
5.273021
 30
0.0
 11
34.16301
 21
5.291771
 31
0.0
  0
LINE
  5
20A
330
5AE
100
AcDbEntity
  8
HATCH
  6
Continuous
 62
     7
370
    30
100
AcDbLine
 10
34.098062
 20
5.329271
 30
0.0
 11
34.065583
 21
5.348021
 31
0.0
  0
LINE
  5
20B
330
5AE
100
AcDbEntity
  8
HATCH
  6
Continuous
 62
     7
370
    30
100
AcDbLine
 10
34.000635
 20
5.385521
 30
0.0
 11
33.968156
 21
5.404271
 31
0.0
  0
LINE
  5
20C
330
5AE
100
AcDbEntity
  8
HATCH
  6
Continuous
 62
     7
370
    30
100
AcDbLine
 10
33.903208
 20
5.441771
 30
0.0
 11
33.891979
 21
5.44825
 31
0.0
  0
LINE
  5
20D
330
5AE
100
AcDbEntity
  8
HATCH
  6
Continuous
 62
     7
370
    30
100
AcDbLine
 10
34.357865
 20
5.216771
 30
0.0
 11
34.325396
 21
5.235521
 31
0.0
  0
LINE
  5
20E
330
5AE
100
AcDbEntity
  8
HATCH
  6
Continuous
 62
     7
370
    30
100
AcDbLine
 10
34.260438
 20
5.273021
 30
0.0
 11
34.227969
 21
5.291771
 31
0.0
  0
LINE
  5
20F
330
5AE
100
AcDbEntity
  8
HATCH
  6
Continuous
 62
     7
370
    30
100
AcDbLine
 10
34.16301
 20
5.329271
 30
0.0
 11
34.130542
 21
5.348021
 31
0.0
  0
LINE
  5
210
330
5AE
100
AcDbEntity
  8
HATCH
  6
Continuous
 62
     7
370
    30
100
AcDbLine
 10
34.065583
 20
5.385521
 30
0.0
 11
34.033104
 21
5.404271
 31
0.0
  0
LINE
  5
211
330
5AE
100
AcDbEntity
  8
HATCH
  6
Continuous
 62
     7
370
    30
100
AcDbLine
 10
33.968156
 20
5.441771
 30
0.0
 11
33.959354
 21
5.446854
 31
0.0
  0
LINE
  5
212
330
5AE
100
AcDbEntity
  8
HATCH
  6
Continuous
 62
     7
370
    30
100
AcDbLine
 10
34.422823
 20
5.216771
 30
0.0
 11
34.390344
 21
5.235521
 31
0.0
  0
LINE
  5
213
330
5AE
100
AcDbEntity
  8
HATCH
  6
Continuous
 62
     7
370
    30
100
AcDbLine
 10
34.325396
 20
5.273021
 30
0.0
 11
34.292917
 21
5.291771
 31
0.0
  0
LINE
  5
214
330
5AE
100
AcDbEntity
  8
HATCH
  6
Continuous
 62
     7
370
    30
100
AcDbLine
 10
34.227969
 20
5.329271
 30
0.0
 11
34.201635
 21
5.344469
 31
0.0
  0
LINE
  5
215
330
5AE
100
AcDbEntity
  8
HATCH
  6
Continuous
 62
     7
370
    30
100
AcDbLine
 10
34.033104
 20
5.216771
 30
0.0
 11
34.000635
 21
5.235521
 31
0.0
  0
LINE
  5
216
330
5AE
100
AcDbEntity
  8
HATCH
  6
Continuous
 62
     7
370
    30
100
AcDbLine
 10
33.935677
 20
5.273021
 30
0.0
 11
33.903208
 21
5.291771
 31
0.0
  0
LINE
  5
217
330
5AE
100
AcDbEntity
  8
HATCH
  6
Continuous
 62
     7
370
    30
100
AcDbLine
 10
33.83825
 20
5.329271
 30
0.0
 11
33.805781
 21
5.348021
 31
0.0
  0
LINE
  5
218
330
5AE
100
AcDbEntity
  8
HATCH
  6
Continuous
 62
     7
370
    30
100
AcDbLine
 10
33.740823
 20
5.385521
 30
0.0
 11
33.708354
 21
5.404271
 31
0.0
  0
LINE
  5
219
330
5AE
100
AcDbEntity
  8
HATCH
  6
Continuous
 62
     7
370
    30
100
AcDbLine
 10
33.643396
 20
5.441771
 30
0.0
 11
33.622437
 21
5.453875
 31
0.0
  0
LINE
  5
21A
330
5AE
100
AcDbEntity
  8
HATCH
  6
Continuous
 62
     7
370
    30
100
AcDbLine
 10
33.968156
 20
5.216771
 30
0.0
 11
33.935677
 21
5.235521
 31
0.0
  0
LINE
  5
21B
330
5AE
100
AcDbEntity
  8
HATCH
  6
Continuous
 62
     7
370
    30
100
AcDbLine
 10
33.870729
 20
5.273021
 30
0.0
 11
33.83825
 21
5.291771
 31
0.0
  0
LINE
  5
21C
330
5AE
100
AcDbEntity
  8
HATCH
  6
Continuous
 62
     7
370
    30
100
AcDbLine
 10
33.773302
 20
5.329271
 30
0.0
 11
33.740823
 21
5.348021
 31
0.0
  0
LINE
  5
21D
330
5AE
100
AcDbEntity
  8
HATCH
  6
Continuous
 62
     7
370
    30
100
AcDbLine
 10
33.675875
 20
5.385521
 30
0.0
 11
33.643396
 21
5.404271
 31
0.0
  0
LINE
  5
21E
330
5AE
100
AcDbEntity
  8
HATCH
  6
Continuous
 62
     7
370
    30
100
AcDbLine
 10
33.578448
 20
5.441771
 30
0.0
 11
33.555052
 21
5.455271
 31
0.0
  0
LINE
  5
21F
330
5AE
100
AcDbEntity
  8
HATCH
  6
Continuous
 62
     7
370
    30
100
AcDbLine
 10
33.903208
 20
5.216771
 30
0.0
 11
33.870729
 21
5.235521
 31
0.0
  0
LINE
  5
220
330
5AE
100
AcDbEntity
  8
HATCH
  6
Continuous
 62
     7
370
    30
100
AcDbLine
 10
33.805781
 20
5.273021
 30
0.0
 11
33.773302
 21
5.291771
 31
0.0
  0
LINE
  5
221
330
5AE
100
AcDbEntity
  8
HATCH
  6
Continuous
 62
     7
370
    30
100
AcDbLine
 10
33.708354
 20
5.329271
 30
0.0
 11
33.675875
 21
5.348021
 31
0.0
  0
LINE
  5
222
330
5AE
100
AcDbEntity
  8
HATCH
  6
Continuous
 62
     7
370
    30
100
AcDbLine
 10
33.610917
 20
5.385521
 30
0.0
 11
33.578448
 21
5.404271
 31
0.0
  0
LINE
  5
223
330
5AE
100
AcDbEntity
  8
HATCH
  6
Continuous
 62
     7
370
    30
100
AcDbLine
 10
33.51349
 20
5.441771
 30
0.0
 11
33.487677
 21
5.456677
 31
0.0
  0
LINE
  5
224
330
5AE
100
AcDbEntity
  8
HATCH
  6
Continuous
 62
     7
370
    30
100
AcDbLine
 10
33.83825
 20
5.216771
 30
0.0
 11
33.805781
 21
5.235521
 31
0.0
  0
LINE
  5
225
330
5AE
100
AcDbEntity
  8
HATCH
  6
Continuous
 62
     7
370
    30
100
AcDbLine
 10
33.740823
 20
5.273021
 30
0.0
 11
33.708354
 21
5.291771
 31
0.0
  0
LINE
  5
226
330
5AE
100
AcDbEntity
  8
HATCH
  6
Continuous
 62
     7
370
    30
100
AcDbLine
 10
33.643396
 20
5.329271
 30
0.0
 11
33.610917
 21
5.348021
 31
0.0
  0
LINE
  5
227
330
5AE
100
AcDbEntity
  8
HATCH
  6
Continuous
 62
     7
370
    30
100
AcDbLine
 10
33.545969
 20
5.385521
 30
0.0
 11
33.51349
 21
5.404271
 31
0.0
  0
LINE
  5
228
330
5AE
100
AcDbEntity
  8
HATCH
  6
Continuous
 62
     7
370
    30
100
AcDbLine
 10
33.448542
 20
5.441771
 30
0.0
 11
33.420292
 21
5.458083
 31
0.0
  0
LINE
  5
229
330
5AE
100
AcDbEntity
  8
HATCH
  6
Continuous
 62
     7
370
    30
100
AcDbLine
 10
33.773302
 20
5.216771
 30
0.0
 11
33.740823
 21
5.235521
 31
0.0
  0
LINE
  5
22A
330
5AE
100
AcDbEntity
  8
HATCH
  6
Continuous
 62
     7
370
    30
100
AcDbLine
 10
33.675875
 20
5.273021
 30
0.0
 11
33.643396
 21
5.291771
 31
0.0
  0
LINE
  5
22B
330
5AE
100
AcDbEntity
  8
HATCH
  6
Continuous
 62
     7
370
    30
100
AcDbLine
 10
33.578448
 20
5.329271
 30
0.0
 11
33.545969
 21
5.348021
 31
0.0
  0
LINE
  5
22C
330
5AE
100
AcDbEntity
  8
HATCH
  6
Continuous
 62
     7
370
    30
100
AcDbLine
 10
33.481021
 20
5.385521
 30
0.0
 11
33.448542
 21
5.404271
 31
0.0
  0
LINE
  5
22D
330
5AE
100
AcDbEntity
  8
HATCH
  6
Continuous
 62
     7
370
    30
100
AcDbLine
 10
33.383594
 20
5.441771
 30
0.0
 11
33.352906
 21
5.45949
 31
0.0
  0
LINE
  5
22E
330
5AE
100
AcDbEntity
  8
HATCH
  6
Continuous
 62
     7
370
    30
100
AcDbLine
 10
33.416062
 20
5.385521
 30
0.0
 11
33.383594
 21
5.404271
 31
0.0
  0
LINE
  5
22F
330
5AE
100
AcDbEntity
  8
HATCH
  6
Continuous
 62
     7
370
    30
100
AcDbLine
 10
33.318635
 20
5.441771
 30
0.0
 11
33.286167
 21
5.460521
 31
0.0
  0
LINE
  5
230
330
5AE
100
AcDbEntity
  8
HATCH
  6
Continuous
 62
     7
370
    30
100
AcDbLine
 10
34.033104
 20
5.404271
 30
0.0
 11
34.000635
 21
5.385521
 31
0.0
  0
LINE
  5
231
330
5AE
100
AcDbEntity
  8
HATCH
  6
Continuous
 62
     7
370
    30
100
AcDbLine
 10
33.935677
 20
5.348021
 30
0.0
 11
33.903208
 21
5.329271
 31
0.0
  0
LINE
  5
232
330
5AE
100
AcDbEntity
  8
HATCH
  6
Continuous
 62
     7
370
    30
100
AcDbLine
 10
33.83825
 20
5.291771
 30
0.0
 11
33.805781
 21
5.273021
 31
0.0
  0
LINE
  5
233
330
5AE
100
AcDbEntity
  8
HATCH
  6
Continuous
 62
     7
370
    30
100
AcDbLine
 10
33.740823
 20
5.235521
 30
0.0
 11
33.728552
 21
5.228438
 31
0.0
  0
LINE
  5
234
330
5AE
100
AcDbEntity
  8
HATCH
  6
Continuous
 62
     7
370
    30
100
AcDbLine
 10
33.968156
 20
5.404271
 30
0.0
 11
33.935677
 21
5.385521
 31
0.0
  0
LINE
  5
235
330
5AE
100
AcDbEntity
  8
HATCH
  6
Continuous
 62
     7
370
    30
100
AcDbLine
 10
33.870729
 20
5.348021
 30
0.0
 11
33.83825
 21
5.329271
 31
0.0
  0
LINE
  5
236
330
5AE
100
AcDbEntity
  8
HATCH
  6
Continuous
 62
     7
370
    30
100
AcDbLine
 10
33.773302
 20
5.291771
 30
0.0
 11
33.740823
 21
5.273021
 31
0.0
  0
LINE
  5
237
330
5AE
100
AcDbEntity
  8
HATCH
  6
Continuous
 62
     7
370
    30
100
AcDbLine
 10
33.976344
 20
5.4465
 30
0.0
 11
33.968156
 21
5.441771
 31
0.0
  0
LINE
  5
238
330
5AE
100
AcDbEntity
  8
HATCH
  6
Continuous
 62
     7
370
    30
100
AcDbLine
 10
33.903208
 20
5.404271
 30
0.0
 11
33.870729
 21
5.385521
 31
0.0
  0
LINE
  5
239
330
5AE
100
AcDbEntity
  8
HATCH
  6
Continuous
 62
     7
370
    30
100
AcDbLine
 10
33.805781
 20
5.348021
 30
0.0
 11
33.773302
 21
5.329271
 31
0.0
  0
LINE
  5
23A
330
5AE
100
AcDbEntity
  8
HATCH
  6
Continuous
 62
     7
370
    30
100
AcDbLine
 10
33.708354
 20
5.291771
 30
0.0
 11
33.675875
 21
5.273021
 31
0.0
  0
LINE
  5
23B
330
5AE
100
AcDbEntity
  8
HATCH
  6
Continuous
 62
     7
370
    30
100
AcDbLine
 10
33.913656
 20
5.447802
 30
0.0
 11
33.903208
 21
5.441771
 31
0.0
  0
LINE
  5
23C
330
5AE
100
AcDbEntity
  8
HATCH
  6
Continuous
 62
     7
370
    30
100
AcDbLine
 10
33.83825
 20
5.404271
 30
0.0
 11
33.805781
 21
5.385521
 31
0.0
  0
LINE
  5
23D
330
5AE
100
AcDbEntity
  8
HATCH
  6
Continuous
 62
     7
370
    30
100
AcDbLine
 10
33.740823
 20
5.348021
 30
0.0
 11
33.708354
 21
5.329271
 31
0.0
  0
LINE
  5
23E
330
5AE
100
AcDbEntity
  8
HATCH
  6
Continuous
 62
     7
370
    30
100
AcDbLine
 10
33.643396
 20
5.291771
 30
0.0
 11
33.624063
 21
5.280604
 31
0.0
  0
LINE
  5
23F
330
5AE
100
AcDbEntity
  8
HATCH
  6
Continuous
 62
     7
370
    30
100
AcDbLine
 10
33.850958
 20
5.449104
 30
0.0
 11
33.83825
 21
5.441771
 31
0.0
  0
LINE
  5
240
330
5AE
100
AcDbEntity
  8
HATCH
  6
Continuous
 62
     7
370
    30
100
AcDbLine
 10
33.773302
 20
5.404271
 30
0.0
 11
33.740823
 21
5.385521
 31
0.0
  0
LINE
  5
241
330
5AE
100
AcDbEntity
  8
HATCH
  6
Continuous
 62
     7
370
    30
100
AcDbLine
 10
33.675875
 20
5.348021
 30
0.0
 11
33.643396
 21
5.329271
 31
0.0
  0
LINE
  5
242
330
5AE
100
AcDbEntity
  8
HATCH
  6
Continuous
 62
     7
370
    30
100
AcDbLine
 10
33.788271
 20
5.450417
 30
0.0
 11
33.773302
 21
5.441771
 31
0.0
  0
LINE
  5
243
330
5AE
100
AcDbEntity
  8
HATCH
  6
Continuous
 62
     7
370
    30
100
AcDbLine
 10
33.708354
 20
5.404271
 30
0.0
 11
33.675875
 21
5.385521
 31
0.0
  0
LINE
  5
244
330
5AE
100
AcDbEntity
  8
HATCH
  6
Continuous
 62
     7
370
    30
100
AcDbLine
 10
33.610917
 20
5.348021
 30
0.0
 11
33.578448
 21
5.329271
 31
0.0
  0
LINE
  5
245
330
5AE
100
AcDbEntity
  8
HATCH
  6
Continuous
 62
     7
370
    30
100
AcDbLine
 10
33.725583
 20
5.451719
 30
0.0
 11
33.708354
 21
5.441771
 31
0.0
  0
LINE
  5
246
330
5AE
100
AcDbEntity
  8
HATCH
  6
Continuous
 62
     7
370
    30
100
AcDbLine
 10
33.643396
 20
5.404271
 30
0.0
 11
33.610917
 21
5.385521
 31
0.0
  0
LINE
  5
247
330
5AE
100
AcDbEntity
  8
HATCH
  6
Continuous
 62
     7
370
    30
100
AcDbLine
 10
33.545969
 20
5.348021
 30
0.0
 11
33.519573
 21
5.332781
 31
0.0
  0
LINE
  5
248
330
5AE
100
AcDbEntity
  8
HATCH
  6
Continuous
 62
     7
370
    30
100
AcDbLine
 10
33.662896
 20
5.453031
 30
0.0
 11
33.643396
 21
5.441771
 31
0.0
  0
LINE
  5
249
330
5AE
100
AcDbEntity
  8
HATCH
  6
Continuous
 62
     7
370
    30
100
AcDbLine
 10
33.578448
 20
5.404271
 30
0.0
 11
33.545969
 21
5.385521
 31
0.0
  0
LINE
  5
24A
330
5AE
100
AcDbEntity
  8
HATCH
  6
Continuous
 62
     7
370
    30
100
AcDbLine
 10
33.600208
 20
5.454333
 30
0.0
 11
33.578448
 21
5.441771
 31
0.0
  0
LINE
  5
24B
330
5AE
100
AcDbEntity
  8
HATCH
  6
Continuous
 62
     7
370
    30
100
AcDbLine
 10
33.51349
 20
5.404271
 30
0.0
 11
33.481021
 21
5.385521
 31
0.0
  0
LINE
  5
24C
330
5AE
100
AcDbEntity
  8
HATCH
  6
Continuous
 62
     7
370
    30
100
AcDbLine
 10
33.53751
 20
5.455635
 30
0.0
 11
33.51349
 21
5.441771
 31
0.0
  0
LINE
  5
24D
330
5AE
100
AcDbEntity
  8
HATCH
  6
Continuous
 62
     7
370
    30
100
AcDbLine
 10
33.448542
 20
5.404271
 30
0.0
 11
33.416062
 21
5.385521
 31
0.0
  0
LINE
  5
24E
330
5AE
100
AcDbEntity
  8
HATCH
  6
Continuous
 62
     7
370
    30
100
AcDbLine
 10
33.474823
 20
5.456948
 30
0.0
 11
33.448542
 21
5.441771
 31
0.0
  0
LINE
  5
24F
330
5AE
100
AcDbEntity
  8
HATCH
  6
Continuous
 62
     7
370
    30
100
AcDbLine
 10
33.383594
 20
5.404271
 30
0.0
 11
33.38026
 21
5.402344
 31
0.0
  0
LINE
  5
250
330
5AE
100
AcDbEntity
  8
HATCH
  6
Continuous
 62
     7
370
    30
100
AcDbLine
 10
33.412135
 20
5.45825
 30
0.0
 11
33.383594
 21
5.441771
 31
0.0
  0
LINE
  5
251
330
5AE
100
AcDbEntity
  8
HATCH
  6
Continuous
 62
     7
370
    30
100
AcDbLine
 10
33.349448
 20
5.459562
 30
0.0
 11
33.318635
 21
5.441771
 31
0.0
  0
LINE
  5
252
330
5AE
100
AcDbEntity
  8
HATCH
  6
Continuous
 62
     7
370
    30
100
AcDbLine
 10
33.286167
 20
5.460521
 30
0.0
 11
33.275771
 21
5.454521
 31
0.0
  0
LINE
  5
253
330
5AE
100
AcDbEntity
  8
HATCH
  6
Continuous
 62
     7
370
    30
100
AcDbLine
 10
34.090552
 20
5.399938
 30
0.0
 11
34.065583
 21
5.385521
 31
0.0
  0
LINE
  5
254
330
5AE
100
AcDbEntity
  8
HATCH
  6
Continuous
 62
     7
370
    30
100
AcDbLine
 10
34.000635
 20
5.348021
 30
0.0
 11
33.968156
 21
5.329271
 31
0.0
  0
LINE
  5
255
330
5AE
100
AcDbEntity
  8
HATCH
  6
Continuous
 62
     7
370
    30
100
AcDbLine
 10
33.903208
 20
5.291771
 30
0.0
 11
33.870729
 21
5.273021
 31
0.0
  0
LINE
  5
256
330
5AE
100
AcDbEntity
  8
HATCH
  6
Continuous
 62
     7
370
    30
100
AcDbLine
 10
33.805781
 20
5.235521
 30
0.0
 11
33.773302
 21
5.216771
 31
0.0
  0
LINE
  5
257
330
5AE
100
AcDbEntity
  8
HATCH
  6
Continuous
 62
     7
370
    30
100
AcDbLine
 10
34.065583
 20
5.348021
 30
0.0
 11
34.033104
 21
5.329271
 31
0.0
  0
LINE
  5
258
330
5AE
100
AcDbEntity
  8
HATCH
  6
Continuous
 62
     7
370
    30
100
AcDbLine
 10
33.968156
 20
5.291771
 30
0.0
 11
33.935677
 21
5.273021
 31
0.0
  0
LINE
  5
259
330
5AE
100
AcDbEntity
  8
HATCH
  6
Continuous
 62
     7
370
    30
100
AcDbLine
 10
33.870729
 20
5.235521
 30
0.0
 11
33.83825
 21
5.216771
 31
0.0
  0
LINE
  5
25A
330
5AE
100
AcDbEntity
  8
HATCH
  6
Continuous
 62
     7
370
    30
100
AcDbLine
 10
34.130542
 20
5.348021
 30
0.0
 11
34.098062
 21
5.329271
 31
0.0
  0
LINE
  5
25B
330
5AE
100
AcDbEntity
  8
HATCH
  6
Continuous
 62
     7
370
    30
100
AcDbLine
 10
34.033104
 20
5.291771
 30
0.0
 11
34.000635
 21
5.273021
 31
0.0
  0
LINE
  5
25C
330
5AE
100
AcDbEntity
  8
HATCH
  6
Continuous
 62
     7
370
    30
100
AcDbLine
 10
33.935677
 20
5.235521
 30
0.0
 11
33.903208
 21
5.216771
 31
0.0
  0
LINE
  5
25D
330
5AE
100
AcDbEntity
  8
HATCH
  6
Continuous
 62
     7
370
    30
100
AcDbLine
 10
34.195042
 20
5.34776
 30
0.0
 11
34.16301
 21
5.329271
 31
0.0
  0
LINE
  5
25E
330
5AE
100
AcDbEntity
  8
HATCH
  6
Continuous
 62
     7
370
    30
100
AcDbLine
 10
34.098062
 20
5.291771
 30
0.0
 11
34.065583
 21
5.273021
 31
0.0
  0
LINE
  5
25F
330
5AE
100
AcDbEntity
  8
HATCH
  6
Continuous
 62
     7
370
    30
100
AcDbLine
 10
34.000635
 20
5.235521
 30
0.0
 11
33.968156
 21
5.216771
 31
0.0
  0
LINE
  5
260
330
5AE
100
AcDbEntity
  8
HATCH
  6
Continuous
 62
     7
370
    30
100
AcDbLine
 10
34.229875
 20
5.330375
 30
0.0
 11
34.227969
 21
5.329271
 31
0.0
  0
LINE
  5
261
330
5AE
100
AcDbEntity
  8
HATCH
  6
Continuous
 62
     7
370
    30
100
AcDbLine
 10
34.16301
 20
5.291771
 30
0.0
 11
34.130542
 21
5.273021
 31
0.0
  0
LINE
  5
262
330
5AE
100
AcDbEntity
  8
HATCH
  6
Continuous
 62
     7
370
    30
100
AcDbLine
 10
34.065583
 20
5.235521
 30
0.0
 11
34.033104
 21
5.216771
 31
0.0
  0
LINE
  5
263
330
5AE
100
AcDbEntity
  8
HATCH
  6
Continuous
 62
     7
370
    30
100
AcDbLine
 10
34.227969
 20
5.291771
 30
0.0
 11
34.19549
 21
5.273021
 31
0.0
  0
LINE
  5
264
330
5AE
100
AcDbEntity
  8
HATCH
  6
Continuous
 62
     7
370
    30
100
AcDbLine
 10
34.130542
 20
5.235521
 30
0.0
 11
34.098062
 21
5.216771
 31
0.0
  0
LINE
  5
265
330
5AE
100
AcDbEntity
  8
HATCH
  6
Continuous
 62
     7
370
    30
100
AcDbLine
 10
34.292917
 20
5.291771
 30
0.0
 11
34.260438
 21
5.273021
 31
0.0
  0
LINE
  5
266
330
5AE
100
AcDbEntity
  8
HATCH
  6
Continuous
 62
     7
370
    30
100
AcDbLine
 10
34.19549
 20
5.235521
 30
0.0
 11
34.16301
 21
5.216771
 31
0.0
  0
LINE
  5
267
330
5AE
100
AcDbEntity
  8
HATCH
  6
Continuous
 62
     7
370
    30
100
AcDbLine
 10
34.334365
 20
5.278198
 30
0.0
 11
34.325396
 21
5.273021
 31
0.0
  0
LINE
  5
268
330
5AE
100
AcDbEntity
  8
HATCH
  6
Continuous
 62
     7
370
    30
100
AcDbLine
 10
34.260438
 20
5.235521
 30
0.0
 11
34.227969
 21
5.216771
 31
0.0
  0
LINE
  5
269
330
5AE
100
AcDbEntity
  8
HATCH
  6
Continuous
 62
     7
370
    30
100
AcDbLine
 10
34.325396
 20
5.235521
 30
0.0
 11
34.292917
 21
5.216771
 31
0.0
  0
LINE
  5
26A
330
5AE
100
AcDbEntity
  8
HATCH
  6
Continuous
 62
     7
370
    30
100
AcDbLine
 10
34.390344
 20
5.235521
 30
0.0
 11
34.357865
 21
5.216771
 31
0.0
  0
LINE
  5
26B
330
5AE
100
AcDbEntity
  8
HATCH
  6
Continuous
 62
     7
370
    30
100
AcDbLine
 10
34.438844
 20
5.226021
 30
0.0
 11
34.422823
 21
5.216771
 31
0.0
  0
LINE
  5
26C
330
5AE
100
AcDbEntity
  8
HATCH
  6
Continuous
 62
     7
370
    30
100
AcDbLine
 10
28.310604
 20
5.441771
 30
0.0
 11
28.310604
 21
5.404271
 31
0.0
  0
LINE
  5
26D
330
5AE
100
AcDbEntity
  8
HATCH
  6
Continuous
 62
     7
370
    30
100
AcDbLine
 10
28.310604
 20
5.329271
 30
0.0
 11
28.310604
 21
5.291771
 31
0.0
  0
LINE
  5
26E
330
5AE
100
AcDbEntity
  8
HATCH
  6
Continuous
 62
     7
370
    30
100
AcDbLine
 10
28.310604
 20
5.216771
 30
0.0
 11
28.310604
 21
5.195177
 31
0.0
  0
LINE
  5
26F
330
5AE
100
AcDbEntity
  8
HATCH
  6
Continuous
 62
     7
370
    30
100
AcDbLine
 10
28.343083
 20
5.385521
 30
0.0
 11
28.343083
 21
5.348021
 31
0.0
  0
LINE
  5
270
330
5AE
100
AcDbEntity
  8
HATCH
  6
Continuous
 62
     7
370
    30
100
AcDbLine
 10
28.343083
 20
5.273021
 30
0.0
 11
28.343083
 21
5.235521
 31
0.0
  0
LINE
  5
271
330
5AE
100
AcDbEntity
  8
HATCH
  6
Continuous
 62
     7
370
    30
100
AcDbLine
 10
28.375562
 20
5.441771
 30
0.0
 11
28.375562
 21
5.404271
 31
0.0
  0
LINE
  5
272
330
5AE
100
AcDbEntity
  8
HATCH
  6
Continuous
 62
     7
370
    30
100
AcDbLine
 10
28.375562
 20
5.329271
 30
0.0
 11
28.375562
 21
5.291771
 31
0.0
  0
LINE
  5
273
330
5AE
100
AcDbEntity
  8
HATCH
  6
Continuous
 62
     7
370
    30
100
AcDbLine
 10
28.375562
 20
5.216771
 30
0.0
 11
28.375562
 21
5.196531
 31
0.0
  0
LINE
  5
274
330
5AE
100
AcDbEntity
  8
HATCH
  6
Continuous
 62
     7
370
    30
100
AcDbLine
 10
28.408031
 20
5.385521
 30
0.0
 11
28.408031
 21
5.348021
 31
0.0
  0
LINE
  5
275
330
5AE
100
AcDbEntity
  8
HATCH
  6
Continuous
 62
     7
370
    30
100
AcDbLine
 10
28.408031
 20
5.273021
 30
0.0
 11
28.408031
 21
5.235521
 31
0.0
  0
LINE
  5
276
330
5AE
100
AcDbEntity
  8
HATCH
  6
Continuous
 62
     7
370
    30
100
AcDbLine
 10
28.44051
 20
5.441771
 30
0.0
 11
28.44051
 21
5.404271
 31
0.0
  0
LINE
  5
277
330
5AE
100
AcDbEntity
  8
HATCH
  6
Continuous
 62
     7
370
    30
100
AcDbLine
 10
28.44051
 20
5.329271
 30
0.0
 11
28.44051
 21
5.291771
 31
0.0
  0
LINE
  5
278
330
5AE
100
AcDbEntity
  8
HATCH
  6
Continuous
 62
     7
370
    30
100
AcDbLine
 10
28.44051
 20
5.216771
 30
0.0
 11
28.44051
 21
5.206083
 31
0.0
  0
LINE
  5
279
330
5AE
100
AcDbEntity
  8
HATCH
  6
Continuous
 62
     7
370
    30
100
AcDbLine
 10
28.47299
 20
5.385521
 30
0.0
 11
28.47299
 21
5.348021
 31
0.0
  0
LINE
  5
27A
330
5AE
100
AcDbEntity
  8
HATCH
  6
Continuous
 62
     7
370
    30
100
AcDbLine
 10
28.47299
 20
5.273021
 30
0.0
 11
28.47299
 21
5.235521
 31
0.0
  0
LINE
  5
27B
330
5AE
100
AcDbEntity
  8
HATCH
  6
Continuous
 62
     7
370
    30
100
AcDbLine
 10
28.505458
 20
5.441771
 30
0.0
 11
28.505458
 21
5.404271
 31
0.0
  0
LINE
  5
27C
330
5AE
100
AcDbEntity
  8
HATCH
  6
Continuous
 62
     7
370
    30
100
AcDbLine
 10
28.505458
 20
5.329271
 30
0.0
 11
28.505458
 21
5.291771
 31
0.0
  0
LINE
  5
27D
330
5AE
100
AcDbEntity
  8
HATCH
  6
Continuous
 62
     7
370
    30
100
AcDbLine
 10
28.537937
 20
5.385521
 30
0.0
 11
28.537937
 21
5.348021
 31
0.0
  0
LINE
  5
27E
330
5AE
100
AcDbEntity
  8
HATCH
  6
Continuous
 62
     7
370
    30
100
AcDbLine
 10
28.537937
 20
5.273021
 30
0.0
 11
28.537937
 21
5.25474
 31
0.0
  0
LINE
  5
27F
330
5AE
100
AcDbEntity
  8
HATCH
  6
Continuous
 62
     7
370
    30
100
AcDbLine
 10
28.570417
 20
5.441771
 30
0.0
 11
28.570417
 21
5.404271
 31
0.0
  0
LINE
  5
280
330
5AE
100
AcDbEntity
  8
HATCH
  6
Continuous
 62
     7
370
    30
100
AcDbLine
 10
28.570417
 20
5.329271
 30
0.0
 11
28.570417
 21
5.291771
 31
0.0
  0
LINE
  5
281
330
5AE
100
AcDbEntity
  8
HATCH
  6
Continuous
 62
     7
370
    30
100
AcDbLine
 10
28.602896
 20
5.385521
 30
0.0
 11
28.602896
 21
5.348021
 31
0.0
  0
LINE
  5
282
330
5AE
100
AcDbEntity
  8
HATCH
  6
Continuous
 62
     7
370
    30
100
AcDbLine
 10
28.635365
 20
5.441771
 30
0.0
 11
28.635365
 21
5.404271
 31
0.0
  0
LINE
  5
283
330
5AE
100
AcDbEntity
  8
HATCH
  6
Continuous
 62
     7
370
    30
100
AcDbLine
 10
28.635365
 20
5.329271
 30
0.0
 11
28.635365
 21
5.303385
 31
0.0
  0
LINE
  5
284
330
5AE
100
AcDbEntity
  8
HATCH
  6
Continuous
 62
     7
370
    30
100
AcDbLine
 10
28.667844
 20
5.385521
 30
0.0
 11
28.667844
 21
5.348021
 31
0.0
  0
LINE
  5
285
330
5AE
100
AcDbEntity
  8
HATCH
  6
Continuous
 62
     7
370
    30
100
AcDbLine
 10
28.700323
 20
5.441771
 30
0.0
 11
28.700323
 21
5.404271
 31
0.0
  0
LINE
  5
286
330
5AE
100
AcDbEntity
  8
HATCH
  6
Continuous
 62
     7
370
    30
100
AcDbLine
 10
28.765271
 20
5.441771
 30
0.0
 11
28.765271
 21
5.404271
 31
0.0
  0
LINE
  5
287
330
5AE
100
AcDbEntity
  8
HATCH
  6
Continuous
 62
     7
370
    30
100
AcDbLine
 10
28.79775
 20
5.385521
 30
0.0
 11
28.79775
 21
5.384469
 31
0.0
  0
LINE
  5
288
330
5AE
100
AcDbEntity
  8
HATCH
  6
Continuous
 62
     7
370
    30
100
AcDbLine
 10
28.830219
 20
5.441771
 30
0.0
 11
28.830219
 21
5.404271
 31
0.0
  0
LINE
  5
289
330
5AE
100
AcDbEntity
  8
HATCH
  6
Continuous
 62
     7
370
    30
100
AcDbLine
 10
28.895177
 20
5.441771
 30
0.0
 11
28.895177
 21
5.433115
 31
0.0
  0
LINE
  5
28A
330
5AE
100
AcDbEntity
  8
HATCH
  6
Continuous
 62
     7
370
    30
100
AcDbLine
 10
28.927646
 20
5.460875
 30
0.0
 11
28.927646
 21
5.460521
 31
0.0
  0
LINE
  5
28B
330
5AE
100
AcDbEntity
  8
HATCH
  6
Continuous
 62
     7
370
    30
100
AcDbLine
 10
28.278135
 20
5.385521
 30
0.0
 11
28.278135
 21
5.348021
 31
0.0
  0
LINE
  5
28C
330
5AE
100
AcDbEntity
  8
HATCH
  6
Continuous
 62
     7
370
    30
100
AcDbLine
 10
28.278135
 20
5.273021
 30
0.0
 11
28.278135
 21
5.235521
 31
0.0
  0
LINE
  5
28D
330
5AE
100
AcDbEntity
  8
HATCH
  6
Continuous
 62
     7
370
    30
100
AcDbLine
 10
28.245656
 20
5.441771
 30
0.0
 11
28.245656
 21
5.404271
 31
0.0
  0
LINE
  5
28E
330
5AE
100
AcDbEntity
  8
HATCH
  6
Continuous
 62
     7
370
    30
100
AcDbLine
 10
28.245656
 20
5.329271
 30
0.0
 11
28.245656
 21
5.291771
 31
0.0
  0
LINE
  5
28F
330
5AE
100
AcDbEntity
  8
HATCH
  6
Continuous
 62
     7
370
    30
100
AcDbLine
 10
28.245656
 20
5.216771
 30
0.0
 11
28.245656
 21
5.193823
 31
0.0
  0
LINE
  5
290
330
5AE
100
AcDbEntity
  8
HATCH
  6
Continuous
 62
     7
370
    30
100
AcDbLine
 10
28.213177
 20
5.385521
 30
0.0
 11
28.213177
 21
5.348021
 31
0.0
  0
LINE
  5
291
330
5AE
100
AcDbEntity
  8
HATCH
  6
Continuous
 62
     7
370
    30
100
AcDbLine
 10
28.213177
 20
5.273021
 30
0.0
 11
28.213177
 21
5.235521
 31
0.0
  0
LINE
  5
292
330
5AE
100
AcDbEntity
  8
HATCH
  6
Continuous
 62
     7
370
    30
100
AcDbLine
 10
28.180708
 20
5.428625
 30
0.0
 11
28.180708
 21
5.404271
 31
0.0
  0
LINE
  5
293
330
5AE
100
AcDbEntity
  8
HATCH
  6
Continuous
 62
     7
370
    30
100
AcDbLine
 10
28.180708
 20
5.329271
 30
0.0
 11
28.180708
 21
5.291771
 31
0.0
  0
LINE
  5
294
330
5AE
100
AcDbEntity
  8
HATCH
  6
Continuous
 62
     7
370
    30
100
AcDbLine
 10
28.180708
 20
5.216771
 30
0.0
 11
28.180708
 21
5.192469
 31
0.0
  0
LINE
  5
295
330
5AE
100
AcDbEntity
  8
HATCH
  6
Continuous
 62
     7
370
    30
100
AcDbLine
 10
28.148229
 20
5.385521
 30
0.0
 11
28.148229
 21
5.348021
 31
0.0
  0
LINE
  5
296
330
5AE
100
AcDbEntity
  8
HATCH
  6
Continuous
 62
     7
370
    30
100
AcDbLine
 10
28.148229
 20
5.273021
 30
0.0
 11
28.148229
 21
5.235521
 31
0.0
  0
LINE
  5
297
330
5AE
100
AcDbEntity
  8
HATCH
  6
Continuous
 62
     7
370
    30
100
AcDbLine
 10
28.11575
 20
5.329271
 30
0.0
 11
28.11575
 21
5.291771
 31
0.0
  0
LINE
  5
298
330
5AE
100
AcDbEntity
  8
HATCH
  6
Continuous
 62
     7
370
    30
100
AcDbLine
 10
28.11575
 20
5.216771
 30
0.0
 11
28.11575
 21
5.191115
 31
0.0
  0
LINE
  5
299
330
5AE
100
AcDbEntity
  8
HATCH
  6
Continuous
 62
     7
370
    30
100
AcDbLine
 10
28.083271
 20
5.379969
 30
0.0
 11
28.083271
 21
5.348021
 31
0.0
  0
LINE
  5
29A
330
5AE
100
AcDbEntity
  8
HATCH
  6
Continuous
 62
     7
370
    30
100
AcDbLine
 10
28.083271
 20
5.273021
 30
0.0
 11
28.083271
 21
5.235521
 31
0.0
  0
LINE
  5
29B
330
5AE
100
AcDbEntity
  8
HATCH
  6
Continuous
 62
     7
370
    30
100
AcDbLine
 10
28.050802
 20
5.329271
 30
0.0
 11
28.050802
 21
5.291771
 31
0.0
  0
LINE
  5
29C
330
5AE
100
AcDbEntity
  8
HATCH
  6
Continuous
 62
     7
370
    30
100
AcDbLine
 10
28.050802
 20
5.216771
 30
0.0
 11
28.050802
 21
5.18976
 31
0.0
  0
LINE
  5
29D
330
5AE
100
AcDbEntity
  8
HATCH
  6
Continuous
 62
     7
370
    30
100
AcDbLine
 10
28.018323
 20
5.273021
 30
0.0
 11
28.018323
 21
5.235521
 31
0.0
  0
LINE
  5
29E
330
5AE
100
AcDbEntity
  8
HATCH
  6
Continuous
 62
     7
370
    30
100
AcDbLine
 10
27.985844
 20
5.329271
 30
0.0
 11
27.985844
 21
5.291771
 31
0.0
  0
LINE
  5
29F
330
5AE
100
AcDbEntity
  8
HATCH
  6
Continuous
 62
     7
370
    30
100
AcDbLine
 10
27.985844
 20
5.216771
 30
0.0
 11
27.985844
 21
5.188406
 31
0.0
  0
LINE
  5
2A0
330
5AE
100
AcDbEntity
  8
HATCH
  6
Continuous
 62
     7
370
    30
100
AcDbLine
 10
27.953375
 20
5.273021
 30
0.0
 11
27.953375
 21
5.235521
 31
0.0
  0
LINE
  5
2A1
330
5AE
100
AcDbEntity
  8
HATCH
  6
Continuous
 62
     7
370
    30
100
AcDbLine
 10
27.920896
 20
5.298896
 30
0.0
 11
27.920896
 21
5.291771
 31
0.0
  0
LINE
  5
2A2
330
5AE
100
AcDbEntity
  8
HATCH
  6
Continuous
 62
     7
370
    30
100
AcDbLine
 10
27.920896
 20
5.216771
 30
0.0
 11
27.920896
 21
5.187052
 31
0.0
  0
LINE
  5
2A3
330
5AE
100
AcDbEntity
  8
HATCH
  6
Continuous
 62
     7
370
    30
100
AcDbLine
 10
27.888417
 20
5.273021
 30
0.0
 11
27.888417
 21
5.235521
 31
0.0
  0
LINE
  5
2A4
330
5AE
100
AcDbEntity
  8
HATCH
  6
Continuous
 62
     7
370
    30
100
AcDbLine
 10
27.855948
 20
5.216771
 30
0.0
 11
27.855948
 21
5.185698
 31
0.0
  0
LINE
  5
2A5
330
5AE
100
AcDbEntity
  8
HATCH
  6
Continuous
 62
     7
370
    30
100
AcDbLine
 10
27.823469
 20
5.25024
 30
0.0
 11
27.823469
 21
5.235521
 31
0.0
  0
LINE
  5
2A6
330
5AE
100
AcDbEntity
  8
HATCH
  6
Continuous
 62
     7
370
    30
100
AcDbLine
 10
27.79099
 20
5.216771
 30
0.0
 11
27.79099
 21
5.184354
 31
0.0
  0
LINE
  5
2A7
330
5AE
100
AcDbEntity
  8
HATCH
  6
Continuous
 62
     7
370
    30
100
AcDbLine
 10
27.726042
 20
5.201594
 30
0.0
 11
27.726042
 21
5.183
 31
0.0
  0
LINE
  5
2A8
330
5AE
100
AcDbEntity
  8
HATCH
  6
Continuous
 62
     7
370
    30
100
AcDbLine
 10
28.11575
 20
5.216771
 30
0.0
 11
28.148229
 21
5.235521
 31
0.0
  0
LINE
  5
2A9
330
5AE
100
AcDbEntity
  8
HATCH
  6
Continuous
 62
     7
370
    30
100
AcDbLine
 10
28.213177
 20
5.273021
 30
0.0
 11
28.245656
 21
5.291771
 31
0.0
  0
LINE
  5
2AA
330
5AE
100
AcDbEntity
  8
HATCH
  6
Continuous
 62
     7
370
    30
100
AcDbLine
 10
28.310604
 20
5.329271
 30
0.0
 11
28.343083
 21
5.348021
 31
0.0
  0
LINE
  5
2AB
330
5AE
100
AcDbEntity
  8
HATCH
  6
Continuous
 62
     7
370
    30
100
AcDbLine
 10
28.408031
 20
5.385521
 30
0.0
 11
28.44051
 21
5.404271
 31
0.0
  0
LINE
  5
2AC
330
5AE
100
AcDbEntity
  8
HATCH
  6
Continuous
 62
     7
370
    30
100
AcDbLine
 10
28.505458
 20
5.441771
 30
0.0
 11
28.52399
 21
5.452469
 31
0.0
  0
LINE
  5
2AD
330
5AE
100
AcDbEntity
  8
HATCH
  6
Continuous
 62
     7
370
    30
100
AcDbLine
 10
28.050802
 20
5.216771
 30
0.0
 11
28.083271
 21
5.235521
 31
0.0
  0
LINE
  5
2AE
330
5AE
100
AcDbEntity
  8
HATCH
  6
Continuous
 62
     7
370
    30
100
AcDbLine
 10
28.148229
 20
5.273021
 30
0.0
 11
28.180708
 21
5.291771
 31
0.0
  0
LINE
  5
2AF
330
5AE
100
AcDbEntity
  8
HATCH
  6
Continuous
 62
     7
370
    30
100
AcDbLine
 10
28.245656
 20
5.329271
 30
0.0
 11
28.278135
 21
5.348021
 31
0.0
  0
LINE
  5
2B0
330
5AE
100
AcDbEntity
  8
HATCH
  6
Continuous
 62
     7
370
    30
100
AcDbLine
 10
28.343083
 20
5.385521
 30
0.0
 11
28.375562
 21
5.404271
 31
0.0
  0
LINE
  5
2B1
330
5AE
100
AcDbEntity
  8
HATCH
  6
Continuous
 62
     7
370
    30
100
AcDbLine
 10
28.44051
 20
5.441771
 30
0.0
 11
28.456604
 21
5.451062
 31
0.0
  0
LINE
  5
2B2
330
5AE
100
AcDbEntity
  8
HATCH
  6
Continuous
 62
     7
370
    30
100
AcDbLine
 10
27.985844
 20
5.216771
 30
0.0
 11
28.018323
 21
5.235521
 31
0.0
  0
LINE
  5
2B3
330
5AE
100
AcDbEntity
  8
HATCH
  6
Continuous
 62
     7
370
    30
100
AcDbLine
 10
28.083271
 20
5.273021
 30
0.0
 11
28.11575
 21
5.291771
 31
0.0
  0
LINE
  5
2B4
330
5AE
100
AcDbEntity
  8
HATCH
  6
Continuous
 62
     7
370
    30
100
AcDbLine
 10
28.180708
 20
5.329271
 30
0.0
 11
28.213177
 21
5.348021
 31
0.0
  0
LINE
  5
2B5
330
5AE
100
AcDbEntity
  8
HATCH
  6
Continuous
 62
     7
370
    30
100
AcDbLine
 10
28.278135
 20
5.385521
 30
0.0
 11
28.310604
 21
5.404271
 31
0.0
  0
LINE
  5
2B6
330
5AE
100
AcDbEntity
  8
HATCH
  6
Continuous
 62
     7
370
    30
100
AcDbLine
 10
28.375562
 20
5.441771
 30
0.0
 11
28.389219
 21
5.449656
 31
0.0
  0
LINE
  5
2B7
330
5AE
100
AcDbEntity
  8
HATCH
  6
Continuous
 62
     7
370
    30
100
AcDbLine
 10
27.920896
 20
5.216771
 30
0.0
 11
27.953375
 21
5.235521
 31
0.0
  0
LINE
  5
2B8
330
5AE
100
AcDbEntity
  8
HATCH
  6
Continuous
 62
     7
370
    30
100
AcDbLine
 10
28.018323
 20
5.273021
 30
0.0
 11
28.050802
 21
5.291771
 31
0.0
  0
LINE
  5
2B9
330
5AE
100
AcDbEntity
  8
HATCH
  6
Continuous
 62
     7
370
    30
100
AcDbLine
 10
28.11575
 20
5.329271
 30
0.0
 11
28.148229
 21
5.348021
 31
0.0
  0
LINE
  5
2BA
330
5AE
100
AcDbEntity
  8
HATCH
  6
Continuous
 62
     7
370
    30
100
AcDbLine
 10
28.213177
 20
5.385521
 30
0.0
 11
28.245656
 21
5.404271
 31
0.0
  0
LINE
  5
2BB
330
5AE
100
AcDbEntity
  8
HATCH
  6
Continuous
 62
     7
370
    30
100
AcDbLine
 10
28.310604
 20
5.441771
 30
0.0
 11
28.321833
 21
5.44825
 31
0.0
  0
LINE
  5
2BC
330
5AE
100
AcDbEntity
  8
HATCH
  6
Continuous
 62
     7
370
    30
100
AcDbLine
 10
27.855948
 20
5.216771
 30
0.0
 11
27.888417
 21
5.235521
 31
0.0
  0
LINE
  5
2BD
330
5AE
100
AcDbEntity
  8
HATCH
  6
Continuous
 62
     7
370
    30
100
AcDbLine
 10
27.953375
 20
5.273021
 30
0.0
 11
27.985844
 21
5.291771
 31
0.0
  0
LINE
  5
2BE
330
5AE
100
AcDbEntity
  8
HATCH
  6
Continuous
 62
     7
370
    30
100
AcDbLine
 10
28.050802
 20
5.329271
 30
0.0
 11
28.083271
 21
5.348021
 31
0.0
  0
LINE
  5
2BF
330
5AE
100
AcDbEntity
  8
HATCH
  6
Continuous
 62
     7
370
    30
100
AcDbLine
 10
28.148229
 20
5.385521
 30
0.0
 11
28.180708
 21
5.404271
 31
0.0
  0
LINE
  5
2C0
330
5AE
100
AcDbEntity
  8
HATCH
  6
Continuous
 62
     7
370
    30
100
AcDbLine
 10
28.245656
 20
5.441771
 30
0.0
 11
28.254458
 21
5.446854
 31
0.0
  0
LINE
  5
2C1
330
5AE
100
AcDbEntity
  8
HATCH
  6
Continuous
 62
     7
370
    30
100
AcDbLine
 10
27.79099
 20
5.216771
 30
0.0
 11
27.823469
 21
5.235521
 31
0.0
  0
LINE
  5
2C2
330
5AE
100
AcDbEntity
  8
HATCH
  6
Continuous
 62
     7
370
    30
100
AcDbLine
 10
27.888417
 20
5.273021
 30
0.0
 11
27.920896
 21
5.291771
 31
0.0
  0
LINE
  5
2C3
330
5AE
100
AcDbEntity
  8
HATCH
  6
Continuous
 62
     7
370
    30
100
AcDbLine
 10
27.985844
 20
5.329271
 30
0.0
 11
28.012177
 21
5.344469
 31
0.0
  0
LINE
  5
2C4
330
5AE
100
AcDbEntity
  8
HATCH
  6
Continuous
 62
     7
370
    30
100
AcDbLine
 10
28.180708
 20
5.216771
 30
0.0
 11
28.213177
 21
5.235521
 31
0.0
  0
LINE
  5
2C5
330
5AE
100
AcDbEntity
  8
HATCH
  6
Continuous
 62
     7
370
    30
100
AcDbLine
 10
28.278135
 20
5.273021
 30
0.0
 11
28.310604
 21
5.291771
 31
0.0
  0
LINE
  5
2C6
330
5AE
100
AcDbEntity
  8
HATCH
  6
Continuous
 62
     7
370
    30
100
AcDbLine
 10
28.375562
 20
5.329271
 30
0.0
 11
28.408031
 21
5.348021
 31
0.0
  0
LINE
  5
2C7
330
5AE
100
AcDbEntity
  8
HATCH
  6
Continuous
 62
     7
370
    30
100
AcDbLine
 10
28.47299
 20
5.385521
 30
0.0
 11
28.505458
 21
5.404271
 31
0.0
  0
LINE
  5
2C8
330
5AE
100
AcDbEntity
  8
HATCH
  6
Continuous
 62
     7
370
    30
100
AcDbLine
 10
28.570417
 20
5.441771
 30
0.0
 11
28.591375
 21
5.453875
 31
0.0
  0
LINE
  5
2C9
330
5AE
100
AcDbEntity
  8
HATCH
  6
Continuous
 62
     7
370
    30
100
AcDbLine
 10
28.245656
 20
5.216771
 30
0.0
 11
28.278135
 21
5.235521
 31
0.0
  0
LINE
  5
2CA
330
5AE
100
AcDbEntity
  8
HATCH
  6
Continuous
 62
     7
370
    30
100
AcDbLine
 10
28.343083
 20
5.273021
 30
0.0
 11
28.375562
 21
5.291771
 31
0.0
  0
LINE
  5
2CB
330
5AE
100
AcDbEntity
  8
HATCH
  6
Continuous
 62
     7
370
    30
100
AcDbLine
 10
28.44051
 20
5.329271
 30
0.0
 11
28.47299
 21
5.348021
 31
0.0
  0
LINE
  5
2CC
330
5AE
100
AcDbEntity
  8
HATCH
  6
Continuous
 62
     7
370
    30
100
AcDbLine
 10
28.537937
 20
5.385521
 30
0.0
 11
28.570417
 21
5.404271
 31
0.0
  0
LINE
  5
2CD
330
5AE
100
AcDbEntity
  8
HATCH
  6
Continuous
 62
     7
370
    30
100
AcDbLine
 10
28.635365
 20
5.441771
 30
0.0
 11
28.65876
 21
5.455271
 31
0.0
  0
LINE
  5
2CE
330
5AE
100
AcDbEntity
  8
HATCH
  6
Continuous
 62
     7
370
    30
100
AcDbLine
 10
28.310604
 20
5.216771
 30
0.0
 11
28.343083
 21
5.235521
 31
0.0
  0
LINE
  5
2CF
330
5AE
100
AcDbEntity
  8
HATCH
  6
Continuous
 62
     7
370
    30
100
AcDbLine
 10
28.408031
 20
5.273021
 30
0.0
 11
28.44051
 21
5.291771
 31
0.0
  0
LINE
  5
2D0
330
5AE
100
AcDbEntity
  8
HATCH
  6
Continuous
 62
     7
370
    30
100
AcDbLine
 10
28.505458
 20
5.329271
 30
0.0
 11
28.537937
 21
5.348021
 31
0.0
  0
LINE
  5
2D1
330
5AE
100
AcDbEntity
  8
HATCH
  6
Continuous
 62
     7
370
    30
100
AcDbLine
 10
28.602896
 20
5.385521
 30
0.0
 11
28.635365
 21
5.404271
 31
0.0
  0
LINE
  5
2D2
330
5AE
100
AcDbEntity
  8
HATCH
  6
Continuous
 62
     7
370
    30
100
AcDbLine
 10
28.700323
 20
5.441771
 30
0.0
 11
28.726135
 21
5.456677
 31
0.0
  0
LINE
  5
2D3
330
5AE
100
AcDbEntity
  8
HATCH
  6
Continuous
 62
     7
370
    30
100
AcDbLine
 10
28.375562
 20
5.216771
 30
0.0
 11
28.408031
 21
5.235521
 31
0.0
  0
LINE
  5
2D4
330
5AE
100
AcDbEntity
  8
HATCH
  6
Continuous
 62
     7
370
    30
100
AcDbLine
 10
28.47299
 20
5.273021
 30
0.0
 11
28.505458
 21
5.291771
 31
0.0
  0
LINE
  5
2D5
330
5AE
100
AcDbEntity
  8
HATCH
  6
Continuous
 62
     7
370
    30
100
AcDbLine
 10
28.570417
 20
5.329271
 30
0.0
 11
28.602896
 21
5.348021
 31
0.0
  0
LINE
  5
2D6
330
5AE
100
AcDbEntity
  8
HATCH
  6
Continuous
 62
     7
370
    30
100
AcDbLine
 10
28.667844
 20
5.385521
 30
0.0
 11
28.700323
 21
5.404271
 31
0.0
  0
LINE
  5
2D7
330
5AE
100
AcDbEntity
  8
HATCH
  6
Continuous
 62
     7
370
    30
100
AcDbLine
 10
28.765271
 20
5.441771
 30
0.0
 11
28.793521
 21
5.458083
 31
0.0
  0
LINE
  5
2D8
330
5AE
100
AcDbEntity
  8
HATCH
  6
Continuous
 62
     7
370
    30
100
AcDbLine
 10
28.44051
 20
5.216771
 30
0.0
 11
28.47299
 21
5.235521
 31
0.0
  0
LINE
  5
2D9
330
5AE
100
AcDbEntity
  8
HATCH
  6
Continuous
 62
     7
370
    30
100
AcDbLine
 10
28.537937
 20
5.273021
 30
0.0
 11
28.570417
 21
5.291771
 31
0.0
  0
LINE
  5
2DA
330
5AE
100
AcDbEntity
  8
HATCH
  6
Continuous
 62
     7
370
    30
100
AcDbLine
 10
28.635365
 20
5.329271
 30
0.0
 11
28.667844
 21
5.348021
 31
0.0
  0
LINE
  5
2DB
330
5AE
100
AcDbEntity
  8
HATCH
  6
Continuous
 62
     7
370
    30
100
AcDbLine
 10
28.732792
 20
5.385521
 30
0.0
 11
28.765271
 21
5.404271
 31
0.0
  0
LINE
  5
2DC
330
5AE
100
AcDbEntity
  8
HATCH
  6
Continuous
 62
     7
370
    30
100
AcDbLine
 10
28.830219
 20
5.441771
 30
0.0
 11
28.860906
 21
5.45949
 31
0.0
  0
LINE
  5
2DD
330
5AE
100
AcDbEntity
  8
HATCH
  6
Continuous
 62
     7
370
    30
100
AcDbLine
 10
28.79775
 20
5.385521
 30
0.0
 11
28.830219
 21
5.404271
 31
0.0
  0
LINE
  5
2DE
330
5AE
100
AcDbEntity
  8
HATCH
  6
Continuous
 62
     7
370
    30
100
AcDbLine
 10
28.895177
 20
5.441771
 30
0.0
 11
28.927646
 21
5.460521
 31
0.0
  0
LINE
  5
2DF
330
5AE
100
AcDbEntity
  8
HATCH
  6
Continuous
 62
     7
370
    30
100
AcDbLine
 10
28.180708
 20
5.404271
 30
0.0
 11
28.213177
 21
5.385521
 31
0.0
  0
LINE
  5
2E0
330
5AE
100
AcDbEntity
  8
HATCH
  6
Continuous
 62
     7
370
    30
100
AcDbLine
 10
28.278135
 20
5.348021
 30
0.0
 11
28.310604
 21
5.329271
 31
0.0
  0
LINE
  5
2E1
330
5AE
100
AcDbEntity
  8
HATCH
  6
Continuous
 62
     7
370
    30
100
AcDbLine
 10
28.375562
 20
5.291771
 30
0.0
 11
28.408031
 21
5.273021
 31
0.0
  0
LINE
  5
2E2
330
5AE
100
AcDbEntity
  8
HATCH
  6
Continuous
 62
     7
370
    30
100
AcDbLine
 10
28.47299
 20
5.235521
 30
0.0
 11
28.48526
 21
5.228438
 31
0.0
  0
LINE
  5
2E3
330
5AE
100
AcDbEntity
  8
HATCH
  6
Continuous
 62
     7
370
    30
100
AcDbLine
 10
28.245656
 20
5.404271
 30
0.0
 11
28.278135
 21
5.385521
 31
0.0
  0
LINE
  5
2E4
330
5AE
100
AcDbEntity
  8
HATCH
  6
Continuous
 62
     7
370
    30
100
AcDbLine
 10
28.343083
 20
5.348021
 30
0.0
 11
28.375562
 21
5.329271
 31
0.0
  0
LINE
  5
2E5
330
5AE
100
AcDbEntity
  8
HATCH
  6
Continuous
 62
     7
370
    30
100
AcDbLine
 10
28.44051
 20
5.291771
 30
0.0
 11
28.47299
 21
5.273021
 31
0.0
  0
LINE
  5
2E6
330
5AE
100
AcDbEntity
  8
HATCH
  6
Continuous
 62
     7
370
    30
100
AcDbLine
 10
28.237469
 20
5.4465
 30
0.0
 11
28.245656
 21
5.441771
 31
0.0
  0
LINE
  5
2E7
330
5AE
100
AcDbEntity
  8
HATCH
  6
Continuous
 62
     7
370
    30
100
AcDbLine
 10
28.310604
 20
5.404271
 30
0.0
 11
28.343083
 21
5.385521
 31
0.0
  0
LINE
  5
2E8
330
5AE
100
AcDbEntity
  8
HATCH
  6
Continuous
 62
     7
370
    30
100
AcDbLine
 10
28.408031
 20
5.348021
 30
0.0
 11
28.44051
 21
5.329271
 31
0.0
  0
LINE
  5
2E9
330
5AE
100
AcDbEntity
  8
HATCH
  6
Continuous
 62
     7
370
    30
100
AcDbLine
 10
28.505458
 20
5.291771
 30
0.0
 11
28.537937
 21
5.273021
 31
0.0
  0
LINE
  5
2EA
330
5AE
100
AcDbEntity
  8
HATCH
  6
Continuous
 62
     7
370
    30
100
AcDbLine
 10
28.300156
 20
5.447802
 30
0.0
 11
28.310604
 21
5.441771
 31
0.0
  0
LINE
  5
2EB
330
5AE
100
AcDbEntity
  8
HATCH
  6
Continuous
 62
     7
370
    30
100
AcDbLine
 10
28.375562
 20
5.404271
 30
0.0
 11
28.408031
 21
5.385521
 31
0.0
  0
LINE
  5
2EC
330
5AE
100
AcDbEntity
  8
HATCH
  6
Continuous
 62
     7
370
    30
100
AcDbLine
 10
28.47299
 20
5.348021
 30
0.0
 11
28.505458
 21
5.329271
 31
0.0
  0
LINE
  5
2ED
330
5AE
100
AcDbEntity
  8
HATCH
  6
Continuous
 62
     7
370
    30
100
AcDbLine
 10
28.570417
 20
5.291771
 30
0.0
 11
28.58975
 21
5.280604
 31
0.0
  0
LINE
  5
2EE
330
5AE
100
AcDbEntity
  8
HATCH
  6
Continuous
 62
     7
370
    30
100
AcDbLine
 10
28.362854
 20
5.449104
 30
0.0
 11
28.375562
 21
5.441771
 31
0.0
  0
LINE
  5
2EF
330
5AE
100
AcDbEntity
  8
HATCH
  6
Continuous
 62
     7
370
    30
100
AcDbLine
 10
28.44051
 20
5.404271
 30
0.0
 11
28.47299
 21
5.385521
 31
0.0
  0
LINE
  5
2F0
330
5AE
100
AcDbEntity
  8
HATCH
  6
Continuous
 62
     7
370
    30
100
AcDbLine
 10
28.537937
 20
5.348021
 30
0.0
 11
28.570417
 21
5.329271
 31
0.0
  0
LINE
  5
2F1
330
5AE
100
AcDbEntity
  8
HATCH
  6
Continuous
 62
     7
370
    30
100
AcDbLine
 10
28.425542
 20
5.450417
 30
0.0
 11
28.44051
 21
5.441771
 31
0.0
  0
LINE
  5
2F2
330
5AE
100
AcDbEntity
  8
HATCH
  6
Continuous
 62
     7
370
    30
100
AcDbLine
 10
28.505458
 20
5.404271
 30
0.0
 11
28.537937
 21
5.385521
 31
0.0
  0
LINE
  5
2F3
330
5AE
100
AcDbEntity
  8
HATCH
  6
Continuous
 62
     7
370
    30
100
AcDbLine
 10
28.602896
 20
5.348021
 30
0.0
 11
28.635365
 21
5.329271
 31
0.0
  0
LINE
  5
2F4
330
5AE
100
AcDbEntity
  8
HATCH
  6
Continuous
 62
     7
370
    30
100
AcDbLine
 10
28.488229
 20
5.451719
 30
0.0
 11
28.505458
 21
5.441771
 31
0.0
  0
LINE
  5
2F5
330
5AE
100
AcDbEntity
  8
HATCH
  6
Continuous
 62
     7
370
    30
100
AcDbLine
 10
28.570417
 20
5.404271
 30
0.0
 11
28.602896
 21
5.385521
 31
0.0
  0
LINE
  5
2F6
330
5AE
100
AcDbEntity
  8
HATCH
  6
Continuous
 62
     7
370
    30
100
AcDbLine
 10
28.667844
 20
5.348021
 30
0.0
 11
28.69424
 21
5.332781
 31
0.0
  0
LINE
  5
2F7
330
5AE
100
AcDbEntity
  8
HATCH
  6
Continuous
 62
     7
370
    30
100
AcDbLine
 10
28.550917
 20
5.453031
 30
0.0
 11
28.570417
 21
5.441771
 31
0.0
  0
LINE
  5
2F8
330
5AE
100
AcDbEntity
  8
HATCH
  6
Continuous
 62
     7
370
    30
100
AcDbLine
 10
28.635365
 20
5.404271
 30
0.0
 11
28.667844
 21
5.385521
 31
0.0
  0
LINE
  5
2F9
330
5AE
100
AcDbEntity
  8
HATCH
  6
Continuous
 62
     7
370
    30
100
AcDbLine
 10
28.613604
 20
5.454333
 30
0.0
 11
28.635365
 21
5.441771
 31
0.0
  0
LINE
  5
2FA
330
5AE
100
AcDbEntity
  8
HATCH
  6
Continuous
 62
     7
370
    30
100
AcDbLine
 10
28.700323
 20
5.404271
 30
0.0
 11
28.732792
 21
5.385521
 31
0.0
  0
LINE
  5
2FB
330
5AE
100
AcDbEntity
  8
HATCH
  6
Continuous
 62
     7
370
    30
100
AcDbLine
 10
28.676302
 20
5.455635
 30
0.0
 11
28.700323
 21
5.441771
 31
0.0
  0
LINE
  5
2FC
330
5AE
100
AcDbEntity
  8
HATCH
  6
Continuous
 62
     7
370
    30
100
AcDbLine
 10
28.765271
 20
5.404271
 30
0.0
 11
28.79775
 21
5.385521
 31
0.0
  0
LINE
  5
2FD
330
5AE
100
AcDbEntity
  8
HATCH
  6
Continuous
 62
     7
370
    30
100
AcDbLine
 10
28.73899
 20
5.456948
 30
0.0
 11
28.765271
 21
5.441771
 31
0.0
  0
LINE
  5
2FE
330
5AE
100
AcDbEntity
  8
HATCH
  6
Continuous
 62
     7
370
    30
100
AcDbLine
 10
28.830219
 20
5.404271
 30
0.0
 11
28.833552
 21
5.402344
 31
0.0
  0
LINE
  5
2FF
330
5AE
100
AcDbEntity
  8
HATCH
  6
Continuous
 62
     7
370
    30
100
AcDbLine
 10
28.801677
 20
5.45825
 30
0.0
 11
28.830219
 21
5.441771
 31
0.0
  0
LINE
  5
300
330
5AE
100
AcDbEntity
  8
HATCH
  6
Continuous
 62
     7
370
    30
100
AcDbLine
 10
28.864365
 20
5.459562
 30
0.0
 11
28.895177
 21
5.441771
 31
0.0
  0
LINE
  5
301
330
5AE
100
AcDbEntity
  8
HATCH
  6
Continuous
 62
     7
370
    30
100
AcDbLine
 10
28.927646
 20
5.460521
 30
0.0
 11
28.938042
 21
5.454521
 31
0.0
  0
LINE
  5
302
330
5AE
100
AcDbEntity
  8
HATCH
  6
Continuous
 62
     7
370
    30
100
AcDbLine
 10
28.12326
 20
5.399938
 30
0.0
 11
28.148229
 21
5.385521
 31
0.0
  0
LINE
  5
303
330
5AE
100
AcDbEntity
  8
HATCH
  6
Continuous
 62
     7
370
    30
100
AcDbLine
 10
28.213177
 20
5.348021
 30
0.0
 11
28.245656
 21
5.329271
 31
0.0
  0
LINE
  5
304
330
5AE
100
AcDbEntity
  8
HATCH
  6
Continuous
 62
     7
370
    30
100
AcDbLine
 10
28.310604
 20
5.291771
 30
0.0
 11
28.343083
 21
5.273021
 31
0.0
  0
LINE
  5
305
330
5AE
100
AcDbEntity
  8
HATCH
  6
Continuous
 62
     7
370
    30
100
AcDbLine
 10
28.408031
 20
5.235521
 30
0.0
 11
28.44051
 21
5.216771
 31
0.0
  0
LINE
  5
306
330
5AE
100
AcDbEntity
  8
HATCH
  6
Continuous
 62
     7
370
    30
100
AcDbLine
 10
28.148229
 20
5.348021
 30
0.0
 11
28.180708
 21
5.329271
 31
0.0
  0
LINE
  5
307
330
5AE
100
AcDbEntity
  8
HATCH
  6
Continuous
 62
     7
370
    30
100
AcDbLine
 10
28.245656
 20
5.291771
 30
0.0
 11
28.278135
 21
5.273021
 31
0.0
  0
LINE
  5
308
330
5AE
100
AcDbEntity
  8
HATCH
  6
Continuous
 62
     7
370
    30
100
AcDbLine
 10
28.343083
 20
5.235521
 30
0.0
 11
28.375562
 21
5.216771
 31
0.0
  0
LINE
  5
309
330
5AE
100
AcDbEntity
  8
HATCH
  6
Continuous
 62
     7
370
    30
100
AcDbLine
 10
28.083271
 20
5.348021
 30
0.0
 11
28.11575
 21
5.329271
 31
0.0
  0
LINE
  5
30A
330
5AE
100
AcDbEntity
  8
HATCH
  6
Continuous
 62
     7
370
    30
100
AcDbLine
 10
28.180708
 20
5.291771
 30
0.0
 11
28.213177
 21
5.273021
 31
0.0
  0
LINE
  5
30B
330
5AE
100
AcDbEntity
  8
HATCH
  6
Continuous
 62
     7
370
    30
100
AcDbLine
 10
28.278135
 20
5.235521
 30
0.0
 11
28.310604
 21
5.216771
 31
0.0
  0
LINE
  5
30C
330
5AE
100
AcDbEntity
  8
HATCH
  6
Continuous
 62
     7
370
    30
100
AcDbLine
 10
28.018771
 20
5.34776
 30
0.0
 11
28.050802
 21
5.329271
 31
0.0
  0
LINE
  5
30D
330
5AE
100
AcDbEntity
  8
HATCH
  6
Continuous
 62
     7
370
    30
100
AcDbLine
 10
28.11575
 20
5.291771
 30
0.0
 11
28.148229
 21
5.273021
 31
0.0
  0
LINE
  5
30E
330
5AE
100
AcDbEntity
  8
HATCH
  6
Continuous
 62
     7
370
    30
100
AcDbLine
 10
28.213177
 20
5.235521
 30
0.0
 11
28.245656
 21
5.216771
 31
0.0
  0
LINE
  5
30F
330
5AE
100
AcDbEntity
  8
HATCH
  6
Continuous
 62
     7
370
    30
100
AcDbLine
 10
27.983937
 20
5.330375
 30
0.0
 11
27.985844
 21
5.329271
 31
0.0
  0
LINE
  5
310
330
5AE
100
AcDbEntity
  8
HATCH
  6
Continuous
 62
     7
370
    30
100
AcDbLine
 10
28.050802
 20
5.291771
 30
0.0
 11
28.083271
 21
5.273021
 31
0.0
  0
LINE
  5
311
330
5AE
100
AcDbEntity
  8
HATCH
  6
Continuous
 62
     7
370
    30
100
AcDbLine
 10
28.148229
 20
5.235521
 30
0.0
 11
28.180708
 21
5.216771
 31
0.0
  0
LINE
  5
312
330
5AE
100
AcDbEntity
  8
HATCH
  6
Continuous
 62
     7
370
    30
100
AcDbLine
 10
27.985844
 20
5.291771
 30
0.0
 11
28.018323
 21
5.273021
 31
0.0
  0
LINE
  5
313
330
5AE
100
AcDbEntity
  8
HATCH
  6
Continuous
 62
     7
370
    30
100
AcDbLine
 10
28.083271
 20
5.235521
 30
0.0
 11
28.11575
 21
5.216771
 31
0.0
  0
LINE
  5
314
330
5AE
100
AcDbEntity
  8
HATCH
  6
Continuous
 62
     7
370
    30
100
AcDbLine
 10
27.920896
 20
5.291771
 30
0.0
 11
27.953375
 21
5.273021
 31
0.0
  0
LINE
  5
315
330
5AE
100
AcDbEntity
  8
HATCH
  6
Continuous
 62
     7
370
    30
100
AcDbLine
 10
28.018323
 20
5.235521
 30
0.0
 11
28.050802
 21
5.216771
 31
0.0
  0
LINE
  5
316
330
5AE
100
AcDbEntity
  8
HATCH
  6
Continuous
 62
     7
370
    30
100
AcDbLine
 10
27.879448
 20
5.278198
 30
0.0
 11
27.888417
 21
5.273021
 31
0.0
  0
LINE
  5
317
330
5AE
100
AcDbEntity
  8
HATCH
  6
Continuous
 62
     7
370
    30
100
AcDbLine
 10
27.953375
 20
5.235521
 30
0.0
 11
27.985844
 21
5.216771
 31
0.0
  0
LINE
  5
318
330
5AE
100
AcDbEntity
  8
HATCH
  6
Continuous
 62
     7
370
    30
100
AcDbLine
 10
27.888417
 20
5.235521
 30
0.0
 11
27.920896
 21
5.216771
 31
0.0
  0
LINE
  5
319
330
5AE
100
AcDbEntity
  8
HATCH
  6
Continuous
 62
     7
370
    30
100
AcDbLine
 10
27.823469
 20
5.235521
 30
0.0
 11
27.855948
 21
5.216771
 31
0.0
  0
LINE
  5
31A
330
5AE
100
AcDbEntity
  8
HATCH
  6
Continuous
 62
     7
370
    30
100
AcDbLine
 10
27.774969
 20
5.226021
 30
0.0
 11
27.79099
 21
5.216771
 31
0.0
  0
LINE
  5
31B
330
5AE
100
AcDbEntity
  8
HATCH
  6
Continuous
 62
     7
370
    30
100
AcDbLine
 10
34.545615
 20
5.172708
 30
0.0
 11
34.507854
 21
5.134958
 31
0.0
  0
LINE
  5
31C
330
5AE
100
AcDbEntity
  8
HATCH
  6
Continuous
 62
     7
370
    30
100
AcDbLine
 10
34.419469
 20
5.046573
 30
0.0
 11
34.331083
 21
4.958188
 31
0.0
  0
LINE
  5
31D
330
5AE
100
AcDbEntity
  8
HATCH
  6
Continuous
 62
     7
370
    30
100
AcDbLine
 10
34.381333
 20
5.185208
 30
0.0
 11
34.331083
 21
5.134958
 31
0.0
  0
LINE
  5
31E
330
5AE
100
AcDbEntity
  8
HATCH
  6
Continuous
 62
     7
370
    30
100
AcDbLine
 10
34.242688
 20
5.046573
 30
0.0
 11
34.154302
 21
4.958188
 31
0.0
  0
LINE
  5
31F
330
5AE
100
AcDbEntity
  8
HATCH
  6
Continuous
 62
     7
370
    30
100
AcDbLine
 10
34.208167
 20
5.188823
 30
0.0
 11
34.154302
 21
5.134958
 31
0.0
  0
LINE
  5
320
330
5AE
100
AcDbEntity
  8
HATCH
  6
Continuous
 62
     7
370
    30
100
AcDbLine
 10
34.065917
 20
5.046573
 30
0.0
 11
33.977531
 21
4.958188
 31
0.0
  0
LINE
  5
321
330
5AE
100
AcDbEntity
  8
HATCH
  6
Continuous
 62
     7
370
    30
100
AcDbLine
 10
34.035
 20
5.192427
 30
0.0
 11
33.977531
 21
5.134958
 31
0.0
  0
LINE
  5
322
330
5AE
100
AcDbEntity
  8
HATCH
  6
Continuous
 62
     7
370
    30
100
AcDbLine
 10
34.59625
 20
5.046573
 30
0.0
 11
34.507854
 21
4.958188
 31
0.0
  0
LINE
  5
323
330
5AE
100
AcDbEntity
  8
HATCH
  6
Continuous
 62
     7
370
    30
100
AcDbLine
 10
34.773021
 20
5.046573
 30
0.0
 11
34.684635
 21
4.958188
 31
0.0
  0
LINE
  5
324
330
5AE
100
AcDbEntity
  8
HATCH
  6
Continuous
 62
     7
370
    30
100
AcDbLine
 10
34.59625
 20
4.869792
 30
0.0
 11
34.554677
 21
4.828229
 31
0.0
  0
LINE
  5
325
330
5AE
100
AcDbEntity
  8
HATCH
  6
Continuous
 62
     7
370
    30
100
AcDbLine
 10
34.899323
 20
4.996094
 30
0.0
 11
34.861406
 21
4.958188
 31
0.0
  0
LINE
  5
326
330
5AE
100
AcDbEntity
  8
HATCH
  6
Continuous
 62
     7
370
    30
100
AcDbLine
 10
34.773021
 20
4.869792
 30
0.0
 11
34.684635
 21
4.781406
 31
0.0
  0
LINE
  5
327
330
5AE
100
AcDbEntity
  8
HATCH
  6
Continuous
 62
     7
370
    30
100
AcDbLine
 10
34.949802
 20
4.869792
 30
0.0
 11
34.861406
 21
4.781406
 31
0.0
  0
LINE
  5
328
330
5AE
100
AcDbEntity
  8
HATCH
  6
Continuous
 62
     7
370
    30
100
AcDbLine
 10
34.563104
 20
5.079719
 30
0.0
 11
34.474708
 21
4.991333
 31
0.0
  0
LINE
  5
329
330
5AE
100
AcDbEntity
  8
HATCH
  6
Continuous
 62
     7
370
    30
100
AcDbLine
 10
34.386323
 20
4.902938
 30
0.0
 11
34.379094
 21
4.895708
 31
0.0
  0
LINE
  5
32A
330
5AE
100
AcDbEntity
  8
HATCH
  6
Continuous
 62
     7
370
    30
100
AcDbLine
 10
34.489562
 20
5.182958
 30
0.0
 11
34.474708
 21
5.168104
 31
0.0
  0
LINE
  5
32B
330
5AE
100
AcDbEntity
  8
HATCH
  6
Continuous
 62
     7
370
    30
100
AcDbLine
 10
34.386323
 20
5.079719
 30
0.0
 11
34.297937
 21
4.991333
 31
0.0
  0
LINE
  5
32C
330
5AE
100
AcDbEntity
  8
HATCH
  6
Continuous
 62
     7
370
    30
100
AcDbLine
 10
34.209552
 20
4.902938
 30
0.0
 11
34.207708
 21
4.901104
 31
0.0
  0
LINE
  5
32D
330
5AE
100
AcDbEntity
  8
HATCH
  6
Continuous
 62
     7
370
    30
100
AcDbLine
 10
34.316396
 20
5.186562
 30
0.0
 11
34.297937
 21
5.168104
 31
0.0
  0
LINE
  5
32E
330
5AE
100
AcDbEntity
  8
HATCH
  6
Continuous
 62
     7
370
    30
100
AcDbLine
 10
34.209552
 20
5.079719
 30
0.0
 11
34.121156
 21
4.991333
 31
0.0
  0
LINE
  5
32F
330
5AE
100
AcDbEntity
  8
HATCH
  6
Continuous
 62
     7
370
    30
100
AcDbLine
 10
34.143229
 20
5.190177
 30
0.0
 11
34.121156
 21
5.168104
 31
0.0
  0
LINE
  5
330
330
5AE
100
AcDbEntity
  8
HATCH
  6
Continuous
 62
     7
370
    30
100
AcDbLine
 10
34.032771
 20
5.079719
 30
0.0
 11
33.944385
 21
4.991333
 31
0.0
  0
LINE
  5
331
330
5AE
100
AcDbEntity
  8
HATCH
  6
Continuous
 62
     7
370
    30
100
AcDbLine
 10
33.970052
 20
5.193781
 30
0.0
 11
33.944385
 21
5.168104
 31
0.0
  0
LINE
  5
332
330
5AE
100
AcDbEntity
  8
HATCH
  6
Continuous
 62
     7
370
    30
100
AcDbLine
 10
34.737198
 20
5.077042
 30
0.0
 11
34.65149
 21
4.991333
 31
0.0
  0
LINE
  5
333
330
5AE
100
AcDbEntity
  8
HATCH
  6
Continuous
 62
     7
370
    30
100
AcDbLine
 10
34.563104
 20
4.902938
 30
0.0
 11
34.511615
 21
4.851458
 31
0.0
  0
LINE
  5
334
330
5AE
100
AcDbEntity
  8
HATCH
  6
Continuous
 62
     7
370
    30
100
AcDbLine
 10
34.855104
 20
5.018167
 30
0.0
 11
34.82826
 21
4.991333
 31
0.0
  0
LINE
  5
335
330
5AE
100
AcDbEntity
  8
HATCH
  6
Continuous
 62
     7
370
    30
100
AcDbLine
 10
34.739875
 20
4.902938
 30
0.0
 11
34.65149
 21
4.814552
 31
0.0
  0
LINE
  5
336
330
5AE
100
AcDbEntity
  8
HATCH
  6
Continuous
 62
     7
370
    30
100
AcDbLine
 10
34.916656
 20
4.902938
 30
0.0
 11
34.82826
 21
4.814552
 31
0.0
  0
LINE
  5
337
330
5AE
100
AcDbEntity
  8
HATCH
  6
Continuous
 62
     7
370
    30
100
AcDbLine
 10
34.529958
 20
5.112865
 30
0.0
 11
34.441562
 21
5.024479
 31
0.0
  0
LINE
  5
338
330
5AE
100
AcDbEntity
  8
HATCH
  6
Continuous
 62
     7
370
    30
100
AcDbLine
 10
34.353177
 20
4.936083
 30
0.0
 11
34.314823
 21
4.897729
 31
0.0
  0
LINE
  5
339
330
5AE
100
AcDbEntity
  8
HATCH
  6
Continuous
 62
     7
370
    30
100
AcDbLine
 10
34.353177
 20
5.112865
 30
0.0
 11
34.264792
 21
5.024479
 31
0.0
  0
LINE
  5
33A
330
5AE
100
AcDbEntity
  8
HATCH
  6
Continuous
 62
     7
370
    30
100
AcDbLine
 10
34.176406
 20
4.936083
 30
0.0
 11
34.143448
 21
4.903125
 31
0.0
  0
LINE
  5
33B
330
5AE
100
AcDbEntity
  8
HATCH
  6
Continuous
 62
     7
370
    30
100
AcDbLine
 10
34.176406
 20
5.112865
 30
0.0
 11
34.08801
 21
5.024479
 31
0.0
  0
LINE
  5
33C
330
5AE
100
AcDbEntity
  8
HATCH
  6
Continuous
 62
     7
370
    30
100
AcDbLine
 10
33.999625
 20
4.936083
 30
0.0
 11
33.972062
 21
4.908531
 31
0.0
  0
LINE
  5
33D
330
5AE
100
AcDbEntity
  8
HATCH
  6
Continuous
 62
     7
370
    30
100
AcDbLine
 10
33.999625
 20
5.112865
 30
0.0
 11
33.914708
 21
5.027948
 31
0.0
  0
LINE
  5
33E
330
5AE
100
AcDbEntity
  8
HATCH
  6
Continuous
 62
     7
370
    30
100
AcDbLine
 10
34.69299
 20
5.099125
 30
0.0
 11
34.618344
 21
5.024479
 31
0.0
  0
LINE
  5
33F
330
5AE
100
AcDbEntity
  8
HATCH
  6
Continuous
 62
     7
370
    30
100
AcDbLine
 10
34.529958
 20
4.936083
 30
0.0
 11
34.468552
 21
4.874677
 31
0.0
  0
LINE
  5
340
330
5AE
100
AcDbEntity
  8
HATCH
  6
Continuous
 62
     7
370
    30
100
AcDbLine
 10
34.810896
 20
5.04025
 30
0.0
 11
34.795125
 21
5.024479
 31
0.0
  0
LINE
  5
341
330
5AE
100
AcDbEntity
  8
HATCH
  6
Continuous
 62
     7
370
    30
100
AcDbLine
 10
34.706729
 20
4.936083
 30
0.0
 11
34.618344
 21
4.847698
 31
0.0
  0
LINE
  5
342
330
5AE
100
AcDbEntity
  8
HATCH
  6
Continuous
 62
     7
370
    30
100
AcDbLine
 10
34.88351
 20
4.936083
 30
0.0
 11
34.795125
 21
4.847698
 31
0.0
  0
LINE
  5
343
330
5AE
100
AcDbEntity
  8
HATCH
  6
Continuous
 62
     7
370
    30
100
AcDbLine
 10
34.706729
 20
4.759313
 30
0.0
 11
34.69824
 21
4.750812
 31
0.0
  0
LINE
  5
344
330
5AE
100
AcDbEntity
  8
HATCH
  6
Continuous
 62
     7
370
    30
100
AcDbLine
 10
34.88351
 20
4.759313
 30
0.0
 11
34.813083
 21
4.688885
 31
0.0
  0
LINE
  5
345
330
5AE
100
AcDbEntity
  8
HATCH
  6
Continuous
 62
     7
370
    30
100
AcDbLine
 10
34.684635
 20
4.759313
 30
0.0
 11
34.59625
 21
4.847698
 31
0.0
  0
LINE
  5
346
330
5AE
100
AcDbEntity
  8
HATCH
  6
Continuous
 62
     7
370
    30
100
AcDbLine
 10
34.507854
 20
4.936083
 30
0.0
 11
34.419469
 21
5.024479
 31
0.0
  0
LINE
  5
347
330
5AE
100
AcDbEntity
  8
HATCH
  6
Continuous
 62
     7
370
    30
100
AcDbLine
 10
34.331083
 20
5.112865
 30
0.0
 11
34.256125
 21
5.187823
 31
0.0
  0
LINE
  5
348
330
5AE
100
AcDbEntity
  8
HATCH
  6
Continuous
 62
     7
370
    30
100
AcDbLine
 10
34.861406
 20
4.759313
 30
0.0
 11
34.773021
 21
4.847698
 31
0.0
  0
LINE
  5
349
330
5AE
100
AcDbEntity
  8
HATCH
  6
Continuous
 62
     7
370
    30
100
AcDbLine
 10
34.684635
 20
4.936083
 30
0.0
 11
34.59625
 21
5.024479
 31
0.0
  0
LINE
  5
34A
330
5AE
100
AcDbEntity
  8
HATCH
  6
Continuous
 62
     7
370
    30
100
AcDbLine
 10
34.507854
 20
5.112865
 30
0.0
 11
34.436667
 21
5.184062
 31
0.0
  0
LINE
  5
34B
330
5AE
100
AcDbEntity
  8
HATCH
  6
Continuous
 62
     7
370
    30
100
AcDbLine
 10
34.951365
 20
4.846135
 30
0.0
 11
34.949802
 21
4.847698
 31
0.0
  0
LINE
  5
34C
330
5AE
100
AcDbEntity
  8
HATCH
  6
Continuous
 62
     7
370
    30
100
AcDbLine
 10
34.861406
 20
4.936083
 30
0.0
 11
34.773021
 21
5.024479
 31
0.0
  0
LINE
  5
34D
330
5AE
100
AcDbEntity
  8
HATCH
  6
Continuous
 62
     7
370
    30
100
AcDbLine
 10
34.331083
 20
4.936083
 30
0.0
 11
34.242688
 21
5.024479
 31
0.0
  0
LINE
  5
34E
330
5AE
100
AcDbEntity
  8
HATCH
  6
Continuous
 62
     7
370
    30
100
AcDbLine
 10
34.154302
 20
5.112865
 30
0.0
 11
34.075583
 21
5.191583
 31
0.0
  0
LINE
  5
34F
330
5AE
100
AcDbEntity
  8
HATCH
  6
Continuous
 62
     7
370
    30
100
AcDbLine
 10
34.154302
 20
4.936083
 30
0.0
 11
34.065917
 21
5.024479
 31
0.0
  0
LINE
  5
350
330
5AE
100
AcDbEntity
  8
HATCH
  6
Continuous
 62
     7
370
    30
100
AcDbLine
 10
33.977531
 20
5.112865
 30
0.0
 11
33.917729
 21
5.172667
 31
0.0
  0
LINE
  5
351
330
5AE
100
AcDbEntity
  8
HATCH
  6
Continuous
 62
     7
370
    30
100
AcDbLine
 10
33.977531
 20
4.936083
 30
0.0
 11
33.914115
 21
4.9995
 31
0.0
  0
LINE
  5
352
330
5AE
100
AcDbEntity
  8
HATCH
  6
Continuous
 62
     7
370
    30
100
AcDbLine
 10
34.82826
 20
4.726167
 30
0.0
 11
34.739875
 21
4.814552
 31
0.0
  0
LINE
  5
353
330
5AE
100
AcDbEntity
  8
HATCH
  6
Continuous
 62
     7
370
    30
100
AcDbLine
 10
34.65149
 20
4.902938
 30
0.0
 11
34.563104
 21
4.991333
 31
0.0
  0
LINE
  5
354
330
5AE
100
AcDbEntity
  8
HATCH
  6
Continuous
 62
     7
370
    30
100
AcDbLine
 10
34.474708
 20
5.079719
 30
0.0
 11
34.386323
 21
5.168104
 31
0.0
  0
LINE
  5
355
330
5AE
100
AcDbEntity
  8
HATCH
  6
Continuous
 62
     7
370
    30
100
AcDbLine
 10
34.927375
 20
4.803833
 30
0.0
 11
34.916656
 21
4.814552
 31
0.0
  0
LINE
  5
356
330
5AE
100
AcDbEntity
  8
HATCH
  6
Continuous
 62
     7
370
    30
100
AcDbLine
 10
34.82826
 20
4.902938
 30
0.0
 11
34.739875
 21
4.991333
 31
0.0
  0
LINE
  5
357
330
5AE
100
AcDbEntity
  8
HATCH
  6
Continuous
 62
     7
370
    30
100
AcDbLine
 10
34.65149
 20
5.079719
 30
0.0
 11
34.571344
 21
5.159865
 31
0.0
  0
LINE
  5
358
330
5AE
100
AcDbEntity
  8
HATCH
  6
Continuous
 62
     7
370
    30
100
AcDbLine
 10
34.991354
 20
4.916625
 30
0.0
 11
34.924427
 21
4.983552
 31
0.0
  0
LINE
  5
359
330
5AE
100
AcDbEntity
  8
HATCH
  6
Continuous
 62
     7
370
    30
100
AcDbLine
 10
34.474708
 20
4.902938
 30
0.0
 11
34.386323
 21
4.991333
 31
0.0
  0
LINE
  5
35A
330
5AE
100
AcDbEntity
  8
HATCH
  6
Continuous
 62
     7
370
    30
100
AcDbLine
 10
34.297937
 20
5.079719
 30
0.0
 11
34.209552
 21
5.168104
 31
0.0
  0
LINE
  5
35B
330
5AE
100
AcDbEntity
  8
HATCH
  6
Continuous
 62
     7
370
    30
100
AcDbLine
 10
34.297937
 20
4.902938
 30
0.0
 11
34.209552
 21
4.991333
 31
0.0
  0
LINE
  5
35C
330
5AE
100
AcDbEntity
  8
HATCH
  6
Continuous
 62
     7
370
    30
100
AcDbLine
 10
34.121156
 20
5.079719
 30
0.0
 11
34.032771
 21
5.168104
 31
0.0
  0
LINE
  5
35D
330
5AE
100
AcDbEntity
  8
HATCH
  6
Continuous
 62
     7
370
    30
100
AcDbLine
 10
34.12024
 20
4.903865
 30
0.0
 11
34.032771
 21
4.991333
 31
0.0
  0
LINE
  5
35E
330
5AE
100
AcDbEntity
  8
HATCH
  6
Continuous
 62
     7
370
    30
100
AcDbLine
 10
33.944385
 20
5.079719
 30
0.0
 11
33.916375
 21
5.107729
 31
0.0
  0
LINE
  5
35F
330
5AE
100
AcDbEntity
  8
HATCH
  6
Continuous
 62
     7
370
    30
100
AcDbLine
 10
33.937708
 20
4.909615
 30
0.0
 11
33.91276
 21
4.934563
 31
0.0
  0
LINE
  5
360
330
5AE
100
AcDbEntity
  8
HATCH
  6
Continuous
 62
     7
370
    30
100
AcDbLine
 10
34.783083
 20
4.705062
 30
0.0
 11
34.706729
 21
4.781406
 31
0.0
  0
LINE
  5
361
330
5AE
100
AcDbEntity
  8
HATCH
  6
Continuous
 62
     7
370
    30
100
AcDbLine
 10
34.618344
 20
4.869792
 30
0.0
 11
34.529958
 21
4.958188
 31
0.0
  0
LINE
  5
362
330
5AE
100
AcDbEntity
  8
HATCH
  6
Continuous
 62
     7
370
    30
100
AcDbLine
 10
34.441562
 20
5.046573
 30
0.0
 11
34.353177
 21
5.134958
 31
0.0
  0
LINE
  5
363
330
5AE
100
AcDbEntity
  8
HATCH
  6
Continuous
 62
     7
370
    30
100
AcDbLine
 10
34.903385
 20
4.761531
 30
0.0
 11
34.88351
 21
4.781406
 31
0.0
  0
LINE
  5
364
330
5AE
100
AcDbEntity
  8
HATCH
  6
Continuous
 62
     7
370
    30
100
AcDbLine
 10
34.795125
 20
4.869792
 30
0.0
 11
34.706729
 21
4.958188
 31
0.0
  0
LINE
  5
365
330
5AE
100
AcDbEntity
  8
HATCH
  6
Continuous
 62
     7
370
    30
100
AcDbLine
 10
34.618344
 20
5.046573
 30
0.0
 11
34.529958
 21
5.134958
 31
0.0
  0
LINE
  5
366
330
5AE
100
AcDbEntity
  8
HATCH
  6
Continuous
 62
     7
370
    30
100
AcDbLine
 10
34.967365
 20
4.874333
 30
0.0
 11
34.88351
 21
4.958188
 31
0.0
  0
LINE
  5
367
330
5AE
100
AcDbEntity
  8
HATCH
  6
Continuous
 62
     7
370
    30
100
AcDbLine
 10
34.795125
 20
5.046573
 30
0.0
 11
34.792021
 21
5.049667
 31
0.0
  0
LINE
  5
368
330
5AE
100
AcDbEntity
  8
HATCH
  6
Continuous
 62
     7
370
    30
100
AcDbLine
 10
34.416844
 20
4.894521
 30
0.0
 11
34.353177
 21
4.958188
 31
0.0
  0
LINE
  5
369
330
5AE
100
AcDbEntity
  8
HATCH
  6
Continuous
 62
     7
370
    30
100
AcDbLine
 10
34.264792
 20
5.046573
 30
0.0
 11
34.176406
 21
5.134958
 31
0.0
  0
LINE
  5
36A
330
5AE
100
AcDbEntity
  8
HATCH
  6
Continuous
 62
     7
370
    30
100
AcDbLine
 10
34.234323
 20
4.900271
 30
0.0
 11
34.176406
 21
4.958188
 31
0.0
  0
LINE
  5
36B
330
5AE
100
AcDbEntity
  8
HATCH
  6
Continuous
 62
     7
370
    30
100
AcDbLine
 10
34.08801
 20
5.046573
 30
0.0
 11
33.999625
 21
5.134958
 31
0.0
  0
LINE
  5
36C
330
5AE
100
AcDbEntity
  8
HATCH
  6
Continuous
 62
     7
370
    30
100
AcDbLine
 10
34.051792
 20
4.906021
 30
0.0
 11
33.999625
 21
4.958188
 31
0.0
  0
LINE
  5
36D
330
5AE
100
AcDbEntity
  8
HATCH
  6
Continuous
 62
     7
370
    30
100
AcDbLine
 10
32.928927
 20
5.7375
 30
0.0
 11
32.880208
 21
5.709375
 31
0.0
  0
LINE
  5
36E
330
5AE
100
AcDbEntity
  8
HATCH
  6
Continuous
 62
     7
370
    30
100
AcDbLine
 10
32.8315
 20
5.68125
 30
0.0
 11
32.782781
 21
5.653125
 31
0.0
  0
LINE
  5
36F
330
5AE
100
AcDbEntity
  8
HATCH
  6
Continuous
 62
     7
370
    30
100
AcDbLine
 10
32.734073
 20
5.625
 30
0.0
 11
32.685354
 21
5.596875
 31
0.0
  0
LINE
  5
370
330
5AE
100
AcDbEntity
  8
HATCH
  6
Continuous
 62
     7
370
    30
100
AcDbLine
 10
32.636646
 20
5.56875
 30
0.0
 11
32.609812
 21
5.55326
 31
0.0
  0
LINE
  5
371
330
5AE
100
AcDbEntity
  8
HATCH
  6
Continuous
 62
     7
370
    30
100
AcDbLine
 10
32.8315
 20
5.79375
 30
0.0
 11
32.782781
 21
5.765625
 31
0.0
  0
LINE
  5
372
330
5AE
100
AcDbEntity
  8
HATCH
  6
Continuous
 62
     7
370
    30
100
AcDbLine
 10
32.734073
 20
5.7375
 30
0.0
 11
32.685354
 21
5.709375
 31
0.0
  0
LINE
  5
373
330
5AE
100
AcDbEntity
  8
HATCH
  6
Continuous
 62
     7
370
    30
100
AcDbLine
 10
32.636646
 20
5.68125
 30
0.0
 11
32.587927
 21
5.653125
 31
0.0
  0
LINE
  5
374
330
5AE
100
AcDbEntity
  8
HATCH
  6
Continuous
 62
     7
370
    30
100
AcDbLine
 10
32.539219
 20
5.625
 30
0.0
 11
32.505823
 21
5.605719
 31
0.0
  0
LINE
  5
375
330
5AE
100
AcDbEntity
  8
HATCH
  6
Continuous
 62
     7
370
    30
100
AcDbLine
 10
32.734073
 20
5.85
 30
0.0
 11
32.685354
 21
5.821875
 31
0.0
  0
LINE
  5
376
330
5AE
100
AcDbEntity
  8
HATCH
  6
Continuous
 62
     7
370
    30
100
AcDbLine
 10
32.636646
 20
5.79375
 30
0.0
 11
32.587927
 21
5.765625
 31
0.0
  0
LINE
  5
377
330
5AE
100
AcDbEntity
  8
HATCH
  6
Continuous
 62
     7
370
    30
100
AcDbLine
 10
32.539219
 20
5.7375
 30
0.0
 11
32.4905
 21
5.709375
 31
0.0
  0
LINE
  5
378
330
5AE
100
AcDbEntity
  8
HATCH
  6
Continuous
 62
     7
370
    30
100
AcDbLine
 10
32.441792
 20
5.68125
 30
0.0
 11
32.438604
 21
5.679406
 31
0.0
  0
LINE
  5
379
330
5AE
100
AcDbEntity
  8
HATCH
  6
Continuous
 62
     7
370
    30
100
AcDbLine
 10
32.636646
 20
5.90625
 30
0.0
 11
32.587927
 21
5.878125
 31
0.0
  0
LINE
  5
37A
330
5AE
100
AcDbEntity
  8
HATCH
  6
Continuous
 62
     7
370
    30
100
AcDbLine
 10
32.539219
 20
5.85
 30
0.0
 11
32.4905
 21
5.821875
 31
0.0
  0
LINE
  5
37B
330
5AE
100
AcDbEntity
  8
HATCH
  6
Continuous
 62
     7
370
    30
100
AcDbLine
 10
32.441792
 20
5.79375
 30
0.0
 11
32.438604
 21
5.791906
 31
0.0
  0
LINE
  5
37C
330
5AE
100
AcDbEntity
  8
HATCH
  6
Continuous
 62
     7
370
    30
100
AcDbLine
 10
32.441792
 20
5.90625
 30
0.0
 11
32.438604
 21
5.904406
 31
0.0
  0
LINE
  5
37D
330
5AE
100
AcDbEntity
  8
HATCH
  6
Continuous
 62
     7
370
    30
100
AcDbLine
 10
33.026354
 20
5.68125
 30
0.0
 11
32.977635
 21
5.653125
 31
0.0
  0
LINE
  5
37E
330
5AE
100
AcDbEntity
  8
HATCH
  6
Continuous
 62
     7
370
    30
100
AcDbLine
 10
32.928927
 20
5.625
 30
0.0
 11
32.880208
 21
5.596875
 31
0.0
  0
LINE
  5
37F
330
5AE
100
AcDbEntity
  8
HATCH
  6
Continuous
 62
     7
370
    30
100
AcDbLine
 10
32.8315
 20
5.56875
 30
0.0
 11
32.782781
 21
5.540625
 31
0.0
  0
LINE
  5
380
330
5AE
100
AcDbEntity
  8
HATCH
  6
Continuous
 62
     7
370
    30
100
AcDbLine
 10
32.734073
 20
5.5125
 30
0.0
 11
32.713792
 21
5.500792
 31
0.0
  0
LINE
  5
381
330
5AE
100
AcDbEntity
  8
HATCH
  6
Continuous
 62
     7
370
    30
100
AcDbLine
 10
33.123781
 20
5.625
 30
0.0
 11
33.075073
 21
5.596875
 31
0.0
  0
LINE
  5
382
330
5AE
100
AcDbEntity
  8
HATCH
  6
Continuous
 62
     7
370
    30
100
AcDbLine
 10
33.026354
 20
5.56875
 30
0.0
 11
32.977635
 21
5.540625
 31
0.0
  0
LINE
  5
383
330
5AE
100
AcDbEntity
  8
HATCH
  6
Continuous
 62
     7
370
    30
100
AcDbLine
 10
32.928927
 20
5.5125
 30
0.0
 11
32.880208
 21
5.484375
 31
0.0
  0
LINE
  5
384
330
5AE
100
AcDbEntity
  8
HATCH
  6
Continuous
 62
     7
370
    30
100
AcDbLine
 10
33.221208
 20
5.56875
 30
0.0
 11
33.1725
 21
5.540625
 31
0.0
  0
LINE
  5
385
330
5AE
100
AcDbEntity
  8
HATCH
  6
Continuous
 62
     7
370
    30
100
AcDbLine
 10
33.123781
 20
5.5125
 30
0.0
 11
33.075073
 21
5.484375
 31
0.0
  0
LINE
  5
386
330
5AE
100
AcDbEntity
  8
HATCH
  6
Continuous
 62
     7
370
    30
100
AcDbLine
 10
33.373687
 20
5.544281
 30
0.0
 11
33.367354
 21
5.540625
 31
0.0
  0
LINE
  5
387
330
5AE
100
AcDbEntity
  8
HATCH
  6
Continuous
 62
     7
370
    30
100
AcDbLine
 10
33.318635
 20
5.5125
 30
0.0
 11
33.269927
 21
5.484375
 31
0.0
  0
LINE
  5
388
330
5AE
100
AcDbEntity
  8
HATCH
  6
Continuous
 62
     7
370
    30
100
AcDbLine
 10
33.478104
 20
5.492073
 30
0.0
 11
33.464781
 21
5.484375
 31
0.0
  0
LINE
  5
389
330
5AE
100
AcDbEntity
  8
HATCH
  6
Continuous
 62
     7
370
    30
100
AcDbLine
 10
33.412615
 20
5.45824
 30
0.0
 11
33.367354
 21
5.484375
 31
0.0
  0
LINE
  5
38A
330
5AE
100
AcDbEntity
  8
HATCH
  6
Continuous
 62
     7
370
    30
100
AcDbLine
 10
33.318635
 20
5.5125
 30
0.0
 11
33.269927
 21
5.540625
 31
0.0
  0
LINE
  5
38B
330
5AE
100
AcDbEntity
  8
HATCH
  6
Continuous
 62
     7
370
    30
100
AcDbLine
 10
33.221208
 20
5.56875
 30
0.0
 11
33.1725
 21
5.596875
 31
0.0
  0
LINE
  5
38C
330
5AE
100
AcDbEntity
  8
HATCH
  6
Continuous
 62
     7
370
    30
100
AcDbLine
 10
33.123781
 20
5.625
 30
0.0
 11
33.075073
 21
5.653125
 31
0.0
  0
LINE
  5
38D
330
5AE
100
AcDbEntity
  8
HATCH
  6
Continuous
 62
     7
370
    30
100
AcDbLine
 10
33.026354
 20
5.68125
 30
0.0
 11
32.977635
 21
5.709375
 31
0.0
  0
LINE
  5
38E
330
5AE
100
AcDbEntity
  8
HATCH
  6
Continuous
 62
     7
370
    30
100
AcDbLine
 10
32.928927
 20
5.7375
 30
0.0
 11
32.880208
 21
5.765625
 31
0.0
  0
LINE
  5
38F
330
5AE
100
AcDbEntity
  8
HATCH
  6
Continuous
 62
     7
370
    30
100
AcDbLine
 10
32.8315
 20
5.79375
 30
0.0
 11
32.782781
 21
5.821875
 31
0.0
  0
LINE
  5
390
330
5AE
100
AcDbEntity
  8
HATCH
  6
Continuous
 62
     7
370
    30
100
AcDbLine
 10
32.734073
 20
5.85
 30
0.0
 11
32.685354
 21
5.878125
 31
0.0
  0
LINE
  5
391
330
5AE
100
AcDbEntity
  8
HATCH
  6
Continuous
 62
     7
370
    30
100
AcDbLine
 10
32.636646
 20
5.90625
 30
0.0
 11
32.599542
 21
5.927667
 31
0.0
  0
LINE
  5
392
330
5AE
100
AcDbEntity
  8
HATCH
  6
Continuous
 62
     7
370
    30
100
AcDbLine
 10
33.210469
 20
5.462448
 30
0.0
 11
33.1725
 21
5.484375
 31
0.0
  0
LINE
  5
393
330
5AE
100
AcDbEntity
  8
HATCH
  6
Continuous
 62
     7
370
    30
100
AcDbLine
 10
33.123781
 20
5.5125
 30
0.0
 11
33.075073
 21
5.540625
 31
0.0
  0
LINE
  5
394
330
5AE
100
AcDbEntity
  8
HATCH
  6
Continuous
 62
     7
370
    30
100
AcDbLine
 10
33.026354
 20
5.56875
 30
0.0
 11
32.977635
 21
5.596875
 31
0.0
  0
LINE
  5
395
330
5AE
100
AcDbEntity
  8
HATCH
  6
Continuous
 62
     7
370
    30
100
AcDbLine
 10
32.928927
 20
5.625
 30
0.0
 11
32.880208
 21
5.653125
 31
0.0
  0
LINE
  5
396
330
5AE
100
AcDbEntity
  8
HATCH
  6
Continuous
 62
     7
370
    30
100
AcDbLine
 10
32.8315
 20
5.68125
 30
0.0
 11
32.782781
 21
5.709375
 31
0.0
  0
LINE
  5
397
330
5AE
100
AcDbEntity
  8
HATCH
  6
Continuous
 62
     7
370
    30
100
AcDbLine
 10
32.734073
 20
5.7375
 30
0.0
 11
32.685354
 21
5.765625
 31
0.0
  0
LINE
  5
398
330
5AE
100
AcDbEntity
  8
HATCH
  6
Continuous
 62
     7
370
    30
100
AcDbLine
 10
32.636646
 20
5.79375
 30
0.0
 11
32.587927
 21
5.821875
 31
0.0
  0
LINE
  5
399
330
5AE
100
AcDbEntity
  8
HATCH
  6
Continuous
 62
     7
370
    30
100
AcDbLine
 10
32.539219
 20
5.85
 30
0.0
 11
32.4905
 21
5.878125
 31
0.0
  0
LINE
  5
39A
330
5AE
100
AcDbEntity
  8
HATCH
  6
Continuous
 62
     7
370
    30
100
AcDbLine
 10
32.441792
 20
5.90625
 30
0.0
 11
32.438604
 21
5.908094
 31
0.0
  0
LINE
  5
39B
330
5AE
100
AcDbEntity
  8
HATCH
  6
Continuous
 62
     7
370
    30
100
AcDbLine
 10
33.008313
 20
5.466667
 30
0.0
 11
32.977635
 21
5.484375
 31
0.0
  0
LINE
  5
39C
330
5AE
100
AcDbEntity
  8
HATCH
  6
Continuous
 62
     7
370
    30
100
AcDbLine
 10
32.928927
 20
5.5125
 30
0.0
 11
32.880208
 21
5.540625
 31
0.0
  0
LINE
  5
39D
330
5AE
100
AcDbEntity
  8
HATCH
  6
Continuous
 62
     7
370
    30
100
AcDbLine
 10
32.8315
 20
5.56875
 30
0.0
 11
32.782781
 21
5.596875
 31
0.0
  0
LINE
  5
39E
330
5AE
100
AcDbEntity
  8
HATCH
  6
Continuous
 62
     7
370
    30
100
AcDbLine
 10
32.734073
 20
5.625
 30
0.0
 11
32.685354
 21
5.653125
 31
0.0
  0
LINE
  5
39F
330
5AE
100
AcDbEntity
  8
HATCH
  6
Continuous
 62
     7
370
    30
100
AcDbLine
 10
32.636646
 20
5.68125
 30
0.0
 11
32.587927
 21
5.709375
 31
0.0
  0
LINE
  5
3A0
330
5AE
100
AcDbEntity
  8
HATCH
  6
Continuous
 62
     7
370
    30
100
AcDbLine
 10
32.539219
 20
5.7375
 30
0.0
 11
32.4905
 21
5.765625
 31
0.0
  0
LINE
  5
3A1
330
5AE
100
AcDbEntity
  8
HATCH
  6
Continuous
 62
     7
370
    30
100
AcDbLine
 10
32.441792
 20
5.79375
 30
0.0
 11
32.438604
 21
5.795594
 31
0.0
  0
LINE
  5
3A2
330
5AE
100
AcDbEntity
  8
HATCH
  6
Continuous
 62
     7
370
    30
100
AcDbLine
 10
32.806167
 20
5.470875
 30
0.0
 11
32.782781
 21
5.484375
 31
0.0
  0
LINE
  5
3A3
330
5AE
100
AcDbEntity
  8
HATCH
  6
Continuous
 62
     7
370
    30
100
AcDbLine
 10
32.734073
 20
5.5125
 30
0.0
 11
32.685354
 21
5.540625
 31
0.0
  0
LINE
  5
3A4
330
5AE
100
AcDbEntity
  8
HATCH
  6
Continuous
 62
     7
370
    30
100
AcDbLine
 10
32.636646
 20
5.56875
 30
0.0
 11
32.587927
 21
5.596875
 31
0.0
  0
LINE
  5
3A5
330
5AE
100
AcDbEntity
  8
HATCH
  6
Continuous
 62
     7
370
    30
100
AcDbLine
 10
32.539219
 20
5.625
 30
0.0
 11
32.4905
 21
5.653125
 31
0.0
  0
LINE
  5
3A6
330
5AE
100
AcDbEntity
  8
HATCH
  6
Continuous
 62
     7
370
    30
100
AcDbLine
 10
32.441792
 20
5.68125
 30
0.0
 11
32.438604
 21
5.683094
 31
0.0
  0
LINE
  5
3A7
330
5AE
100
AcDbEntity
  8
HATCH
  6
Continuous
 62
     7
370
    30
100
AcDbLine
 10
33.075073
 20
5.653125
 30
0.0
 11
33.075073
 21
5.596875
 31
0.0
  0
LINE
  5
3A8
330
5AE
100
AcDbEntity
  8
HATCH
  6
Continuous
 62
     7
370
    30
100
AcDbLine
 10
33.075073
 20
5.540625
 30
0.0
 11
33.075073
 21
5.484375
 31
0.0
  0
LINE
  5
3A9
330
5AE
100
AcDbEntity
  8
HATCH
  6
Continuous
 62
     7
370
    30
100
AcDbLine
 10
32.977635
 20
5.709375
 30
0.0
 11
32.977635
 21
5.653125
 31
0.0
  0
LINE
  5
3AA
330
5AE
100
AcDbEntity
  8
HATCH
  6
Continuous
 62
     7
370
    30
100
AcDbLine
 10
32.977635
 20
5.596875
 30
0.0
 11
32.977635
 21
5.540625
 31
0.0
  0
LINE
  5
3AB
330
5AE
100
AcDbEntity
  8
HATCH
  6
Continuous
 62
     7
370
    30
100
AcDbLine
 10
32.977635
 20
5.484375
 30
0.0
 11
32.977635
 21
5.467302
 31
0.0
  0
LINE
  5
3AC
330
5AE
100
AcDbEntity
  8
HATCH
  6
Continuous
 62
     7
370
    30
100
AcDbLine
 10
32.880208
 20
5.765625
 30
0.0
 11
32.880208
 21
5.709375
 31
0.0
  0
LINE
  5
3AD
330
5AE
100
AcDbEntity
  8
HATCH
  6
Continuous
 62
     7
370
    30
100
AcDbLine
 10
32.880208
 20
5.653125
 30
0.0
 11
32.880208
 21
5.596875
 31
0.0
  0
LINE
  5
3AE
330
5AE
100
AcDbEntity
  8
HATCH
  6
Continuous
 62
     7
370
    30
100
AcDbLine
 10
32.880208
 20
5.540625
 30
0.0
 11
32.880208
 21
5.484375
 31
0.0
  0
LINE
  5
3AF
330
5AE
100
AcDbEntity
  8
HATCH
  6
Continuous
 62
     7
370
    30
100
AcDbLine
 10
32.782781
 20
5.821875
 30
0.0
 11
32.782781
 21
5.765625
 31
0.0
  0
LINE
  5
3B0
330
5AE
100
AcDbEntity
  8
HATCH
  6
Continuous
 62
     7
370
    30
100
AcDbLine
 10
32.782781
 20
5.709375
 30
0.0
 11
32.782781
 21
5.653125
 31
0.0
  0
LINE
  5
3B1
330
5AE
100
AcDbEntity
  8
HATCH
  6
Continuous
 62
     7
370
    30
100
AcDbLine
 10
32.782781
 20
5.596875
 30
0.0
 11
32.782781
 21
5.540625
 31
0.0
  0
LINE
  5
3B2
330
5AE
100
AcDbEntity
  8
HATCH
  6
Continuous
 62
     7
370
    30
100
AcDbLine
 10
32.782781
 20
5.484375
 30
0.0
 11
32.782781
 21
5.471365
 31
0.0
  0
LINE
  5
3B3
330
5AE
100
AcDbEntity
  8
HATCH
  6
Continuous
 62
     7
370
    30
100
AcDbLine
 10
32.685354
 20
5.878125
 30
0.0
 11
32.685354
 21
5.821875
 31
0.0
  0
LINE
  5
3B4
330
5AE
100
AcDbEntity
  8
HATCH
  6
Continuous
 62
     7
370
    30
100
AcDbLine
 10
32.685354
 20
5.765625
 30
0.0
 11
32.685354
 21
5.709375
 31
0.0
  0
LINE
  5
3B5
330
5AE
100
AcDbEntity
  8
HATCH
  6
Continuous
 62
     7
370
    30
100
AcDbLine
 10
32.685354
 20
5.653125
 30
0.0
 11
32.685354
 21
5.596875
 31
0.0
  0
LINE
  5
3B6
330
5AE
100
AcDbEntity
  8
HATCH
  6
Continuous
 62
     7
370
    30
100
AcDbLine
 10
32.685354
 20
5.540625
 30
0.0
 11
32.685354
 21
5.515146
 31
0.0
  0
LINE
  5
3B7
330
5AE
100
AcDbEntity
  8
HATCH
  6
Continuous
 62
     7
370
    30
100
AcDbLine
 10
32.587927
 20
5.927667
 30
0.0
 11
32.587927
 21
5.878125
 31
0.0
  0
LINE
  5
3B8
330
5AE
100
AcDbEntity
  8
HATCH
  6
Continuous
 62
     7
370
    30
100
AcDbLine
 10
32.587927
 20
5.821875
 30
0.0
 11
32.587927
 21
5.765625
 31
0.0
  0
LINE
  5
3B9
330
5AE
100
AcDbEntity
  8
HATCH
  6
Continuous
 62
     7
370
    30
100
AcDbLine
 10
32.587927
 20
5.709375
 30
0.0
 11
32.587927
 21
5.653125
 31
0.0
  0
LINE
  5
3BA
330
5AE
100
AcDbEntity
  8
HATCH
  6
Continuous
 62
     7
370
    30
100
AcDbLine
 10
32.587927
 20
5.596875
 30
0.0
 11
32.587927
 21
5.564302
 31
0.0
  0
LINE
  5
3BB
330
5AE
100
AcDbEntity
  8
HATCH
  6
Continuous
 62
     7
370
    30
100
AcDbLine
 10
32.4905
 20
5.878125
 30
0.0
 11
32.4905
 21
5.821875
 31
0.0
  0
LINE
  5
3BC
330
5AE
100
AcDbEntity
  8
HATCH
  6
Continuous
 62
     7
370
    30
100
AcDbLine
 10
32.4905
 20
5.765625
 30
0.0
 11
32.4905
 21
5.709375
 31
0.0
  0
LINE
  5
3BD
330
5AE
100
AcDbEntity
  8
HATCH
  6
Continuous
 62
     7
370
    30
100
AcDbLine
 10
32.4905
 20
5.653125
 30
0.0
 11
32.4905
 21
5.613458
 31
0.0
  0
LINE
  5
3BE
330
5AE
100
AcDbEntity
  8
HATCH
  6
Continuous
 62
     7
370
    30
100
AcDbLine
 10
33.1725
 20
5.596875
 30
0.0
 11
33.1725
 21
5.540625
 31
0.0
  0
LINE
  5
3BF
330
5AE
100
AcDbEntity
  8
HATCH
  6
Continuous
 62
     7
370
    30
100
AcDbLine
 10
33.1725
 20
5.484375
 30
0.0
 11
33.1725
 21
5.46324
 31
0.0
  0
LINE
  5
3C0
330
5AE
100
AcDbEntity
  8
HATCH
  6
Continuous
 62
     7
370
    30
100
AcDbLine
 10
33.269927
 20
5.540625
 30
0.0
 11
33.269927
 21
5.484375
 31
0.0
  0
LINE
  5
3C1
330
5AE
100
AcDbEntity
  8
HATCH
  6
Continuous
 62
     7
370
    30
100
AcDbLine
 10
33.367354
 20
5.547448
 30
0.0
 11
33.367354
 21
5.540625
 31
0.0
  0
LINE
  5
3C2
330
5AE
100
AcDbEntity
  8
HATCH
  6
Continuous
 62
     7
370
    30
100
AcDbLine
 10
33.367354
 20
5.484375
 30
0.0
 11
33.367354
 21
5.459187
 31
0.0
  0
LINE
  5
3C3
330
5AE
100
AcDbEntity
  8
HATCH
  6
Continuous
 62
     7
370
    30
100
AcDbLine
 10
33.464781
 20
5.49874
 30
0.0
 11
33.464781
 21
5.484375
 31
0.0
  0
LINE
  5
3C4
330
5AE
100
AcDbEntity
  8
HATCH
  6
Continuous
 62
     7
370
    30
100
AcDbLine
 10
27.668198
 20
5.172708
 30
0.0
 11
27.705958
 21
5.134958
 31
0.0
  0
LINE
  5
3C5
330
5AE
100
AcDbEntity
  8
HATCH
  6
Continuous
 62
     7
370
    30
100
AcDbLine
 10
27.794344
 20
5.046573
 30
0.0
 11
27.882729
 21
4.958188
 31
0.0
  0
LINE
  5
3C6
330
5AE
100
AcDbEntity
  8
HATCH
  6
Continuous
 62
     7
370
    30
100
AcDbLine
 10
27.832479
 20
5.185208
 30
0.0
 11
27.882729
 21
5.134958
 31
0.0
  0
LINE
  5
3C7
330
5AE
100
AcDbEntity
  8
HATCH
  6
Continuous
 62
     7
370
    30
100
AcDbLine
 10
27.971125
 20
5.046573
 30
0.0
 11
28.05951
 21
4.958188
 31
0.0
  0
LINE
  5
3C8
330
5AE
100
AcDbEntity
  8
HATCH
  6
Continuous
 62
     7
370
    30
100
AcDbLine
 10
28.005646
 20
5.188823
 30
0.0
 11
28.05951
 21
5.134958
 31
0.0
  0
LINE
  5
3C9
330
5AE
100
AcDbEntity
  8
HATCH
  6
Continuous
 62
     7
370
    30
100
AcDbLine
 10
28.147896
 20
5.046573
 30
0.0
 11
28.236281
 21
4.958188
 31
0.0
  0
LINE
  5
3CA
330
5AE
100
AcDbEntity
  8
HATCH
  6
Continuous
 62
     7
370
    30
100
AcDbLine
 10
28.178812
 20
5.192427
 30
0.0
 11
28.236281
 21
5.134958
 31
0.0
  0
LINE
  5
3CB
330
5AE
100
AcDbEntity
  8
HATCH
  6
Continuous
 62
     7
370
    30
100
AcDbLine
 10
27.617562
 20
5.046573
 30
0.0
 11
27.705958
 21
4.958188
 31
0.0
  0
LINE
  5
3CC
330
5AE
100
AcDbEntity
  8
HATCH
  6
Continuous
 62
     7
370
    30
100
AcDbLine
 10
27.440792
 20
5.046573
 30
0.0
 11
27.529177
 21
4.958188
 31
0.0
  0
LINE
  5
3CD
330
5AE
100
AcDbEntity
  8
HATCH
  6
Continuous
 62
     7
370
    30
100
AcDbLine
 10
27.617562
 20
4.869792
 30
0.0
 11
27.659135
 21
4.828229
 31
0.0
  0
LINE
  5
3CE
330
5AE
100
AcDbEntity
  8
HATCH
  6
Continuous
 62
     7
370
    30
100
AcDbLine
 10
27.31449
 20
4.996094
 30
0.0
 11
27.352406
 21
4.958188
 31
0.0
  0
LINE
  5
3CF
330
5AE
100
AcDbEntity
  8
HATCH
  6
Continuous
 62
     7
370
    30
100
AcDbLine
 10
27.440792
 20
4.869792
 30
0.0
 11
27.529177
 21
4.781406
 31
0.0
  0
LINE
  5
3D0
330
5AE
100
AcDbEntity
  8
HATCH
  6
Continuous
 62
     7
370
    30
100
AcDbLine
 10
27.26401
 20
4.869792
 30
0.0
 11
27.352406
 21
4.781406
 31
0.0
  0
LINE
  5
3D1
330
5AE
100
AcDbEntity
  8
HATCH
  6
Continuous
 62
     7
370
    30
100
AcDbLine
 10
27.650708
 20
5.079719
 30
0.0
 11
27.739104
 21
4.991333
 31
0.0
  0
LINE
  5
3D2
330
5AE
100
AcDbEntity
  8
HATCH
  6
Continuous
 62
     7
370
    30
100
AcDbLine
 10
27.82749
 20
4.902938
 30
0.0
 11
27.834719
 21
4.895708
 31
0.0
  0
LINE
  5
3D3
330
5AE
100
AcDbEntity
  8
HATCH
  6
Continuous
 62
     7
370
    30
100
AcDbLine
 10
27.72425
 20
5.182958
 30
0.0
 11
27.739104
 21
5.168104
 31
0.0
  0
LINE
  5
3D4
330
5AE
100
AcDbEntity
  8
HATCH
  6
Continuous
 62
     7
370
    30
100
AcDbLine
 10
27.82749
 20
5.079719
 30
0.0
 11
27.915875
 21
4.991333
 31
0.0
  0
LINE
  5
3D5
330
5AE
100
AcDbEntity
  8
HATCH
  6
Continuous
 62
     7
370
    30
100
AcDbLine
 10
28.00426
 20
4.902938
 30
0.0
 11
28.006104
 21
4.901104
 31
0.0
  0
LINE
  5
3D6
330
5AE
100
AcDbEntity
  8
HATCH
  6
Continuous
 62
     7
370
    30
100
AcDbLine
 10
27.897417
 20
5.186562
 30
0.0
 11
27.915875
 21
5.168104
 31
0.0
  0
LINE
  5
3D7
330
5AE
100
AcDbEntity
  8
HATCH
  6
Continuous
 62
     7
370
    30
100
AcDbLine
 10
28.00426
 20
5.079719
 30
0.0
 11
28.092656
 21
4.991333
 31
0.0
  0
LINE
  5
3D8
330
5AE
100
AcDbEntity
  8
HATCH
  6
Continuous
 62
     7
370
    30
100
AcDbLine
 10
28.070583
 20
5.190177
 30
0.0
 11
28.092656
 21
5.168104
 31
0.0
  0
LINE
  5
3D9
330
5AE
100
AcDbEntity
  8
HATCH
  6
Continuous
 62
     7
370
    30
100
AcDbLine
 10
28.181042
 20
5.079719
 30
0.0
 11
28.269427
 21
4.991333
 31
0.0
  0
LINE
  5
3DA
330
5AE
100
AcDbEntity
  8
HATCH
  6
Continuous
 62
     7
370
    30
100
AcDbLine
 10
28.24376
 20
5.193781
 30
0.0
 11
28.269427
 21
5.168104
 31
0.0
  0
LINE
  5
3DB
330
5AE
100
AcDbEntity
  8
HATCH
  6
Continuous
 62
     7
370
    30
100
AcDbLine
 10
27.476615
 20
5.077042
 30
0.0
 11
27.562323
 21
4.991333
 31
0.0
  0
LINE
  5
3DC
330
5AE
100
AcDbEntity
  8
HATCH
  6
Continuous
 62
     7
370
    30
100
AcDbLine
 10
27.650708
 20
4.902938
 30
0.0
 11
27.702198
 21
4.851458
 31
0.0
  0
LINE
  5
3DD
330
5AE
100
AcDbEntity
  8
HATCH
  6
Continuous
 62
     7
370
    30
100
AcDbLine
 10
27.358708
 20
5.018167
 30
0.0
 11
27.385552
 21
4.991333
 31
0.0
  0
LINE
  5
3DE
330
5AE
100
AcDbEntity
  8
HATCH
  6
Continuous
 62
     7
370
    30
100
AcDbLine
 10
27.473937
 20
4.902938
 30
0.0
 11
27.562323
 21
4.814552
 31
0.0
  0
LINE
  5
3DF
330
5AE
100
AcDbEntity
  8
HATCH
  6
Continuous
 62
     7
370
    30
100
AcDbLine
 10
27.297156
 20
4.902938
 30
0.0
 11
27.385552
 21
4.814552
 31
0.0
  0
LINE
  5
3E0
330
5AE
100
AcDbEntity
  8
HATCH
  6
Continuous
 62
     7
370
    30
100
AcDbLine
 10
27.683854
 20
5.112865
 30
0.0
 11
27.77225
 21
5.024479
 31
0.0
  0
LINE
  5
3E1
330
5AE
100
AcDbEntity
  8
HATCH
  6
Continuous
 62
     7
370
    30
100
AcDbLine
 10
27.860635
 20
4.936083
 30
0.0
 11
27.89899
 21
4.897729
 31
0.0
  0
LINE
  5
3E2
330
5AE
100
AcDbEntity
  8
HATCH
  6
Continuous
 62
     7
370
    30
100
AcDbLine
 10
27.860635
 20
5.112865
 30
0.0
 11
27.949021
 21
5.024479
 31
0.0
  0
LINE
  5
3E3
330
5AE
100
AcDbEntity
  8
HATCH
  6
Continuous
 62
     7
370
    30
100
AcDbLine
 10
28.037406
 20
4.936083
 30
0.0
 11
28.070365
 21
4.903125
 31
0.0
  0
LINE
  5
3E4
330
5AE
100
AcDbEntity
  8
HATCH
  6
Continuous
 62
     7
370
    30
100
AcDbLine
 10
28.037406
 20
5.112865
 30
0.0
 11
28.125802
 21
5.024479
 31
0.0
  0
LINE
  5
3E5
330
5AE
100
AcDbEntity
  8
HATCH
  6
Continuous
 62
     7
370
    30
100
AcDbLine
 10
28.214187
 20
4.936083
 30
0.0
 11
28.24175
 21
4.908531
 31
0.0
  0
LINE
  5
3E6
330
5AE
100
AcDbEntity
  8
HATCH
  6
Continuous
 62
     7
370
    30
100
AcDbLine
 10
28.214187
 20
5.112865
 30
0.0
 11
28.299104
 21
5.027948
 31
0.0
  0
LINE
  5
3E7
330
5AE
100
AcDbEntity
  8
HATCH
  6
Continuous
 62
     7
370
    30
100
AcDbLine
 10
27.520823
 20
5.099125
 30
0.0
 11
27.595469
 21
5.024479
 31
0.0
  0
LINE
  5
3E8
330
5AE
100
AcDbEntity
  8
HATCH
  6
Continuous
 62
     7
370
    30
100
AcDbLine
 10
27.683854
 20
4.936083
 30
0.0
 11
27.74526
 21
4.874677
 31
0.0
  0
LINE
  5
3E9
330
5AE
100
AcDbEntity
  8
HATCH
  6
Continuous
 62
     7
370
    30
100
AcDbLine
 10
27.402917
 20
5.04025
 30
0.0
 11
27.418688
 21
5.024479
 31
0.0
  0
LINE
  5
3EA
330
5AE
100
AcDbEntity
  8
HATCH
  6
Continuous
 62
     7
370
    30
100
AcDbLine
 10
27.507083
 20
4.936083
 30
0.0
 11
27.595469
 21
4.847698
 31
0.0
  0
LINE
  5
3EB
330
5AE
100
AcDbEntity
  8
HATCH
  6
Continuous
 62
     7
370
    30
100
AcDbLine
 10
27.330302
 20
4.936083
 30
0.0
 11
27.418688
 21
4.847698
 31
0.0
  0
LINE
  5
3EC
330
5AE
100
AcDbEntity
  8
HATCH
  6
Continuous
 62
     7
370
    30
100
AcDbLine
 10
27.507083
 20
4.759313
 30
0.0
 11
27.515573
 21
4.750812
 31
0.0
  0
LINE
  5
3ED
330
5AE
100
AcDbEntity
  8
HATCH
  6
Continuous
 62
     7
370
    30
100
AcDbLine
 10
27.330302
 20
4.759313
 30
0.0
 11
27.400729
 21
4.688885
 31
0.0
  0
LINE
  5
3EE
330
5AE
100
AcDbEntity
  8
HATCH
  6
Continuous
 62
     7
370
    30
100
AcDbLine
 10
27.529177
 20
4.759313
 30
0.0
 11
27.617562
 21
4.847698
 31
0.0
  0
LINE
  5
3EF
330
5AE
100
AcDbEntity
  8
HATCH
  6
Continuous
 62
     7
370
    30
100
AcDbLine
 10
27.705958
 20
4.936083
 30
0.0
 11
27.794344
 21
5.024479
 31
0.0
  0
LINE
  5
3F0
330
5AE
100
AcDbEntity
  8
HATCH
  6
Continuous
 62
     7
370
    30
100
AcDbLine
 10
27.882729
 20
5.112865
 30
0.0
 11
27.957687
 21
5.187823
 31
0.0
  0
LINE
  5
3F1
330
5AE
100
AcDbEntity
  8
HATCH
  6
Continuous
 62
     7
370
    30
100
AcDbLine
 10
27.352406
 20
4.759313
 30
0.0
 11
27.440792
 21
4.847698
 31
0.0
  0
LINE
  5
3F2
330
5AE
100
AcDbEntity
  8
HATCH
  6
Continuous
 62
     7
370
    30
100
AcDbLine
 10
27.529177
 20
4.936083
 30
0.0
 11
27.617562
 21
5.024479
 31
0.0
  0
LINE
  5
3F3
330
5AE
100
AcDbEntity
  8
HATCH
  6
Continuous
 62
     7
370
    30
100
AcDbLine
 10
27.705958
 20
5.112865
 30
0.0
 11
27.777146
 21
5.184062
 31
0.0
  0
LINE
  5
3F4
330
5AE
100
AcDbEntity
  8
HATCH
  6
Continuous
 62
     7
370
    30
100
AcDbLine
 10
27.262448
 20
4.846135
 30
0.0
 11
27.26401
 21
4.847698
 31
0.0
  0
LINE
  5
3F5
330
5AE
100
AcDbEntity
  8
HATCH
  6
Continuous
 62
     7
370
    30
100
AcDbLine
 10
27.352406
 20
4.936083
 30
0.0
 11
27.440792
 21
5.024479
 31
0.0
  0
LINE
  5
3F6
330
5AE
100
AcDbEntity
  8
HATCH
  6
Continuous
 62
     7
370
    30
100
AcDbLine
 10
27.882729
 20
4.936083
 30
0.0
 11
27.971125
 21
5.024479
 31
0.0
  0
LINE
  5
3F7
330
5AE
100
AcDbEntity
  8
HATCH
  6
Continuous
 62
     7
370
    30
100
AcDbLine
 10
28.05951
 20
5.112865
 30
0.0
 11
28.138229
 21
5.191583
 31
0.0
  0
LINE
  5
3F8
330
5AE
100
AcDbEntity
  8
HATCH
  6
Continuous
 62
     7
370
    30
100
AcDbLine
 10
28.05951
 20
4.936083
 30
0.0
 11
28.147896
 21
5.024479
 31
0.0
  0
LINE
  5
3F9
330
5AE
100
AcDbEntity
  8
HATCH
  6
Continuous
 62
     7
370
    30
100
AcDbLine
 10
28.236281
 20
5.112865
 30
0.0
 11
28.296083
 21
5.172667
 31
0.0
  0
LINE
  5
3FA
330
5AE
100
AcDbEntity
  8
HATCH
  6
Continuous
 62
     7
370
    30
100
AcDbLine
 10
28.236281
 20
4.936083
 30
0.0
 11
28.299698
 21
4.9995
 31
0.0
  0
LINE
  5
3FB
330
5AE
100
AcDbEntity
  8
HATCH
  6
Continuous
 62
     7
370
    30
100
AcDbLine
 10
27.385552
 20
4.726167
 30
0.0
 11
27.473937
 21
4.814552
 31
0.0
  0
LINE
  5
3FC
330
5AE
100
AcDbEntity
  8
HATCH
  6
Continuous
 62
     7
370
    30
100
AcDbLine
 10
27.562323
 20
4.902938
 30
0.0
 11
27.650708
 21
4.991333
 31
0.0
  0
LINE
  5
3FD
330
5AE
100
AcDbEntity
  8
HATCH
  6
Continuous
 62
     7
370
    30
100
AcDbLine
 10
27.739104
 20
5.079719
 30
0.0
 11
27.82749
 21
5.168104
 31
0.0
  0
LINE
  5
3FE
330
5AE
100
AcDbEntity
  8
HATCH
  6
Continuous
 62
     7
370
    30
100
AcDbLine
 10
27.286437
 20
4.803833
 30
0.0
 11
27.297156
 21
4.814552
 31
0.0
  0
LINE
  5
3FF
330
5AE
100
AcDbEntity
  8
HATCH
  6
Continuous
 62
     7
370
    30
100
AcDbLine
 10
27.385552
 20
4.902938
 30
0.0
 11
27.473937
 21
4.991333
 31
0.0
  0
LINE
  5
400
330
5AE
100
AcDbEntity
  8
HATCH
  6
Continuous
 62
     7
370
    30
100
AcDbLine
 10
27.562323
 20
5.079719
 30
0.0
 11
27.642469
 21
5.159865
 31
0.0
  0
LINE
  5
401
330
5AE
100
AcDbEntity
  8
HATCH
  6
Continuous
 62
     7
370
    30
100
AcDbLine
 10
27.222458
 20
4.916625
 30
0.0
 11
27.289385
 21
4.983552
 31
0.0
  0
LINE
  5
402
330
5AE
100
AcDbEntity
  8
HATCH
  6
Continuous
 62
     7
370
    30
100
AcDbLine
 10
27.739104
 20
4.902938
 30
0.0
 11
27.82749
 21
4.991333
 31
0.0
  0
LINE
  5
403
330
5AE
100
AcDbEntity
  8
HATCH
  6
Continuous
 62
     7
370
    30
100
AcDbLine
 10
27.915875
 20
5.079719
 30
0.0
 11
28.00426
 21
5.168104
 31
0.0
  0
LINE
  5
404
330
5AE
100
AcDbEntity
  8
HATCH
  6
Continuous
 62
     7
370
    30
100
AcDbLine
 10
27.915875
 20
4.902938
 30
0.0
 11
28.00426
 21
4.991333
 31
0.0
  0
LINE
  5
405
330
5AE
100
AcDbEntity
  8
HATCH
  6
Continuous
 62
     7
370
    30
100
AcDbLine
 10
28.092656
 20
5.079719
 30
0.0
 11
28.181042
 21
5.168104
 31
0.0
  0
LINE
  5
406
330
5AE
100
AcDbEntity
  8
HATCH
  6
Continuous
 62
     7
370
    30
100
AcDbLine
 10
28.093573
 20
4.903865
 30
0.0
 11
28.181042
 21
4.991333
 31
0.0
  0
LINE
  5
407
330
5AE
100
AcDbEntity
  8
HATCH
  6
Continuous
 62
     7
370
    30
100
AcDbLine
 10
28.269427
 20
5.079719
 30
0.0
 11
28.297437
 21
5.107729
 31
0.0
  0
LINE
  5
408
330
5AE
100
AcDbEntity
  8
HATCH
  6
Continuous
 62
     7
370
    30
100
AcDbLine
 10
28.276104
 20
4.909615
 30
0.0
 11
28.301052
 21
4.934563
 31
0.0
  0
LINE
  5
409
330
5AE
100
AcDbEntity
  8
HATCH
  6
Continuous
 62
     7
370
    30
100
AcDbLine
 10
27.430729
 20
4.705062
 30
0.0
 11
27.507083
 21
4.781406
 31
0.0
  0
LINE
  5
40A
330
5AE
100
AcDbEntity
  8
HATCH
  6
Continuous
 62
     7
370
    30
100
AcDbLine
 10
27.595469
 20
4.869792
 30
0.0
 11
27.683854
 21
4.958188
 31
0.0
  0
LINE
  5
40B
330
5AE
100
AcDbEntity
  8
HATCH
  6
Continuous
 62
     7
370
    30
100
AcDbLine
 10
27.77225
 20
5.046573
 30
0.0
 11
27.860635
 21
5.134958
 31
0.0
  0
LINE
  5
40C
330
5AE
100
AcDbEntity
  8
HATCH
  6
Continuous
 62
     7
370
    30
100
AcDbLine
 10
27.310427
 20
4.761531
 30
0.0
 11
27.330302
 21
4.781406
 31
0.0
  0
LINE
  5
40D
330
5AE
100
AcDbEntity
  8
HATCH
  6
Continuous
 62
     7
370
    30
100
AcDbLine
 10
27.418688
 20
4.869792
 30
0.0
 11
27.507083
 21
4.958188
 31
0.0
  0
LINE
  5
40E
330
5AE
100
AcDbEntity
  8
HATCH
  6
Continuous
 62
     7
370
    30
100
AcDbLine
 10
27.595469
 20
5.046573
 30
0.0
 11
27.683854
 21
5.134958
 31
0.0
  0
LINE
  5
40F
330
5AE
100
AcDbEntity
  8
HATCH
  6
Continuous
 62
     7
370
    30
100
AcDbLine
 10
27.246448
 20
4.874333
 30
0.0
 11
27.330302
 21
4.958188
 31
0.0
  0
LINE
  5
410
330
5AE
100
AcDbEntity
  8
HATCH
  6
Continuous
 62
     7
370
    30
100
AcDbLine
 10
27.418688
 20
5.046573
 30
0.0
 11
27.421792
 21
5.049667
 31
0.0
  0
LINE
  5
411
330
5AE
100
AcDbEntity
  8
HATCH
  6
Continuous
 62
     7
370
    30
100
AcDbLine
 10
27.796969
 20
4.894521
 30
0.0
 11
27.860635
 21
4.958188
 31
0.0
  0
LINE
  5
412
330
5AE
100
AcDbEntity
  8
HATCH
  6
Continuous
 62
     7
370
    30
100
AcDbLine
 10
27.949021
 20
5.046573
 30
0.0
 11
28.037406
 21
5.134958
 31
0.0
  0
LINE
  5
413
330
5AE
100
AcDbEntity
  8
HATCH
  6
Continuous
 62
     7
370
    30
100
AcDbLine
 10
27.97949
 20
4.900271
 30
0.0
 11
28.037406
 21
4.958188
 31
0.0
  0
LINE
  5
414
330
5AE
100
AcDbEntity
  8
HATCH
  6
Continuous
 62
     7
370
    30
100
AcDbLine
 10
28.125802
 20
5.046573
 30
0.0
 11
28.214187
 21
5.134958
 31
0.0
  0
LINE
  5
415
330
5AE
100
AcDbEntity
  8
HATCH
  6
Continuous
 62
     7
370
    30
100
AcDbLine
 10
28.162021
 20
4.906021
 30
0.0
 11
28.214187
 21
4.958188
 31
0.0
  0
LINE
  5
416
330
5AE
100
AcDbEntity
  8
HATCH
  6
Continuous
 62
     7
370
    30
100
AcDbLine
 10
29.284885
 20
5.7375
 30
0.0
 11
29.333604
 21
5.709375
 31
0.0
  0
LINE
  5
417
330
5AE
100
AcDbEntity
  8
HATCH
  6
Continuous
 62
     7
370
    30
100
AcDbLine
 10
29.382312
 20
5.68125
 30
0.0
 11
29.431031
 21
5.653125
 31
0.0
  0
LINE
  5
418
330
5AE
100
AcDbEntity
  8
HATCH
  6
Continuous
 62
     7
370
    30
100
AcDbLine
 10
29.47974
 20
5.625
 30
0.0
 11
29.528458
 21
5.596875
 31
0.0
  0
LINE
  5
419
330
5AE
100
AcDbEntity
  8
HATCH
  6
Continuous
 62
     7
370
    30
100
AcDbLine
 10
29.577167
 20
5.56875
 30
0.0
 11
29.604
 21
5.55326
 31
0.0
  0
LINE
  5
41A
330
5AE
100
AcDbEntity
  8
HATCH
  6
Continuous
 62
     7
370
    30
100
AcDbLine
 10
29.382312
 20
5.79375
 30
0.0
 11
29.431031
 21
5.765625
 31
0.0
  0
LINE
  5
41B
330
5AE
100
AcDbEntity
  8
HATCH
  6
Continuous
 62
     7
370
    30
100
AcDbLine
 10
29.47974
 20
5.7375
 30
0.0
 11
29.528458
 21
5.709375
 31
0.0
  0
LINE
  5
41C
330
5AE
100
AcDbEntity
  8
HATCH
  6
Continuous
 62
     7
370
    30
100
AcDbLine
 10
29.577167
 20
5.68125
 30
0.0
 11
29.625885
 21
5.653125
 31
0.0
  0
LINE
  5
41D
330
5AE
100
AcDbEntity
  8
HATCH
  6
Continuous
 62
     7
370
    30
100
AcDbLine
 10
29.674594
 20
5.625
 30
0.0
 11
29.70799
 21
5.605719
 31
0.0
  0
LINE
  5
41E
330
5AE
100
AcDbEntity
  8
HATCH
  6
Continuous
 62
     7
370
    30
100
AcDbLine
 10
29.47974
 20
5.85
 30
0.0
 11
29.528458
 21
5.821875
 31
0.0
  0
LINE
  5
41F
330
5AE
100
AcDbEntity
  8
HATCH
  6
Continuous
 62
     7
370
    30
100
AcDbLine
 10
29.577167
 20
5.79375
 30
0.0
 11
29.625885
 21
5.765625
 31
0.0
  0
LINE
  5
420
330
5AE
100
AcDbEntity
  8
HATCH
  6
Continuous
 62
     7
370
    30
100
AcDbLine
 10
29.674594
 20
5.7375
 30
0.0
 11
29.723312
 21
5.709375
 31
0.0
  0
LINE
  5
421
330
5AE
100
AcDbEntity
  8
HATCH
  6
Continuous
 62
     7
370
    30
100
AcDbLine
 10
29.772021
 20
5.68125
 30
0.0
 11
29.775208
 21
5.679406
 31
0.0
  0
LINE
  5
422
330
5AE
100
AcDbEntity
  8
HATCH
  6
Continuous
 62
     7
370
    30
100
AcDbLine
 10
29.577167
 20
5.90625
 30
0.0
 11
29.625885
 21
5.878125
 31
0.0
  0
LINE
  5
423
330
5AE
100
AcDbEntity
  8
HATCH
  6
Continuous
 62
     7
370
    30
100
AcDbLine
 10
29.674594
 20
5.85
 30
0.0
 11
29.723312
 21
5.821875
 31
0.0
  0
LINE
  5
424
330
5AE
100
AcDbEntity
  8
HATCH
  6
Continuous
 62
     7
370
    30
100
AcDbLine
 10
29.772021
 20
5.79375
 30
0.0
 11
29.775208
 21
5.791906
 31
0.0
  0
LINE
  5
425
330
5AE
100
AcDbEntity
  8
HATCH
  6
Continuous
 62
     7
370
    30
100
AcDbLine
 10
29.772021
 20
5.90625
 30
0.0
 11
29.775208
 21
5.904406
 31
0.0
  0
LINE
  5
426
330
5AE
100
AcDbEntity
  8
HATCH
  6
Continuous
 62
     7
370
    30
100
AcDbLine
 10
29.187458
 20
5.68125
 30
0.0
 11
29.236177
 21
5.653125
 31
0.0
  0
LINE
  5
427
330
5AE
100
AcDbEntity
  8
HATCH
  6
Continuous
 62
     7
370
    30
100
AcDbLine
 10
29.284885
 20
5.625
 30
0.0
 11
29.333604
 21
5.596875
 31
0.0
  0
LINE
  5
428
330
5AE
100
AcDbEntity
  8
HATCH
  6
Continuous
 62
     7
370
    30
100
AcDbLine
 10
29.382312
 20
5.56875
 30
0.0
 11
29.431031
 21
5.540625
 31
0.0
  0
LINE
  5
429
330
5AE
100
AcDbEntity
  8
HATCH
  6
Continuous
 62
     7
370
    30
100
AcDbLine
 10
29.47974
 20
5.5125
 30
0.0
 11
29.500021
 21
5.500792
 31
0.0
  0
LINE
  5
42A
330
5AE
100
AcDbEntity
  8
HATCH
  6
Continuous
 62
     7
370
    30
100
AcDbLine
 10
29.090031
 20
5.625
 30
0.0
 11
29.13874
 21
5.596875
 31
0.0
  0
LINE
  5
42B
330
5AE
100
AcDbEntity
  8
HATCH
  6
Continuous
 62
     7
370
    30
100
AcDbLine
 10
29.187458
 20
5.56875
 30
0.0
 11
29.236177
 21
5.540625
 31
0.0
  0
LINE
  5
42C
330
5AE
100
AcDbEntity
  8
HATCH
  6
Continuous
 62
     7
370
    30
100
AcDbLine
 10
29.284885
 20
5.5125
 30
0.0
 11
29.333604
 21
5.484375
 31
0.0
  0
LINE
  5
42D
330
5AE
100
AcDbEntity
  8
HATCH
  6
Continuous
 62
     7
370
    30
100
AcDbLine
 10
28.992604
 20
5.56875
 30
0.0
 11
29.041313
 21
5.540625
 31
0.0
  0
LINE
  5
42E
330
5AE
100
AcDbEntity
  8
HATCH
  6
Continuous
 62
     7
370
    30
100
AcDbLine
 10
29.090031
 20
5.5125
 30
0.0
 11
29.13874
 21
5.484375
 31
0.0
  0
LINE
  5
42F
330
5AE
100
AcDbEntity
  8
HATCH
  6
Continuous
 62
     7
370
    30
100
AcDbLine
 10
28.840125
 20
5.544281
 30
0.0
 11
28.846458
 21
5.540625
 31
0.0
  0
LINE
  5
430
330
5AE
100
AcDbEntity
  8
HATCH
  6
Continuous
 62
     7
370
    30
100
AcDbLine
 10
28.895177
 20
5.5125
 30
0.0
 11
28.943885
 21
5.484375
 31
0.0
  0
LINE
  5
431
330
5AE
100
AcDbEntity
  8
HATCH
  6
Continuous
 62
     7
370
    30
100
AcDbLine
 10
28.735708
 20
5.492073
 30
0.0
 11
28.749031
 21
5.484375
 31
0.0
  0
LINE
  5
432
330
5AE
100
AcDbEntity
  8
HATCH
  6
Continuous
 62
     7
370
    30
100
AcDbLine
 10
28.801198
 20
5.45824
 30
0.0
 11
28.846458
 21
5.484375
 31
0.0
  0
LINE
  5
433
330
5AE
100
AcDbEntity
  8
HATCH
  6
Continuous
 62
     7
370
    30
100
AcDbLine
 10
28.895177
 20
5.5125
 30
0.0
 11
28.943885
 21
5.540625
 31
0.0
  0
LINE
  5
434
330
5AE
100
AcDbEntity
  8
HATCH
  6
Continuous
 62
     7
370
    30
100
AcDbLine
 10
28.992604
 20
5.56875
 30
0.0
 11
29.041313
 21
5.596875
 31
0.0
  0
LINE
  5
435
330
5AE
100
AcDbEntity
  8
HATCH
  6
Continuous
 62
     7
370
    30
100
AcDbLine
 10
29.090031
 20
5.625
 30
0.0
 11
29.13874
 21
5.653125
 31
0.0
  0
LINE
  5
436
330
5AE
100
AcDbEntity
  8
HATCH
  6
Continuous
 62
     7
370
    30
100
AcDbLine
 10
29.187458
 20
5.68125
 30
0.0
 11
29.236177
 21
5.709375
 31
0.0
  0
LINE
  5
437
330
5AE
100
AcDbEntity
  8
HATCH
  6
Continuous
 62
     7
370
    30
100
AcDbLine
 10
29.284885
 20
5.7375
 30
0.0
 11
29.333604
 21
5.765625
 31
0.0
  0
LINE
  5
438
330
5AE
100
AcDbEntity
  8
HATCH
  6
Continuous
 62
     7
370
    30
100
AcDbLine
 10
29.382312
 20
5.79375
 30
0.0
 11
29.431031
 21
5.821875
 31
0.0
  0
LINE
  5
439
330
5AE
100
AcDbEntity
  8
HATCH
  6
Continuous
 62
     7
370
    30
100
AcDbLine
 10
29.47974
 20
5.85
 30
0.0
 11
29.528458
 21
5.878125
 31
0.0
  0
LINE
  5
43A
330
5AE
100
AcDbEntity
  8
HATCH
  6
Continuous
 62
     7
370
    30
100
AcDbLine
 10
29.577167
 20
5.90625
 30
0.0
 11
29.614271
 21
5.927667
 31
0.0
  0
LINE
  5
43B
330
5AE
100
AcDbEntity
  8
HATCH
  6
Continuous
 62
     7
370
    30
100
AcDbLine
 10
29.003344
 20
5.462448
 30
0.0
 11
29.041313
 21
5.484375
 31
0.0
  0
LINE
  5
43C
330
5AE
100
AcDbEntity
  8
HATCH
  6
Continuous
 62
     7
370
    30
100
AcDbLine
 10
29.090031
 20
5.5125
 30
0.0
 11
29.13874
 21
5.540625
 31
0.0
  0
LINE
  5
43D
330
5AE
100
AcDbEntity
  8
HATCH
  6
Continuous
 62
     7
370
    30
100
AcDbLine
 10
29.187458
 20
5.56875
 30
0.0
 11
29.236177
 21
5.596875
 31
0.0
  0
LINE
  5
43E
330
5AE
100
AcDbEntity
  8
HATCH
  6
Continuous
 62
     7
370
    30
100
AcDbLine
 10
29.284885
 20
5.625
 30
0.0
 11
29.333604
 21
5.653125
 31
0.0
  0
LINE
  5
43F
330
5AE
100
AcDbEntity
  8
HATCH
  6
Continuous
 62
     7
370
    30
100
AcDbLine
 10
29.382312
 20
5.68125
 30
0.0
 11
29.431031
 21
5.709375
 31
0.0
  0
LINE
  5
440
330
5AE
100
AcDbEntity
  8
HATCH
  6
Continuous
 62
     7
370
    30
100
AcDbLine
 10
29.47974
 20
5.7375
 30
0.0
 11
29.528458
 21
5.765625
 31
0.0
  0
LINE
  5
441
330
5AE
100
AcDbEntity
  8
HATCH
  6
Continuous
 62
     7
370
    30
100
AcDbLine
 10
29.577167
 20
5.79375
 30
0.0
 11
29.625885
 21
5.821875
 31
0.0
  0
LINE
  5
442
330
5AE
100
AcDbEntity
  8
HATCH
  6
Continuous
 62
     7
370
    30
100
AcDbLine
 10
29.674594
 20
5.85
 30
0.0
 11
29.723312
 21
5.878125
 31
0.0
  0
LINE
  5
443
330
5AE
100
AcDbEntity
  8
HATCH
  6
Continuous
 62
     7
370
    30
100
AcDbLine
 10
29.772021
 20
5.90625
 30
0.0
 11
29.775208
 21
5.908094
 31
0.0
  0
LINE
  5
444
330
5AE
100
AcDbEntity
  8
HATCH
  6
Continuous
 62
     7
370
    30
100
AcDbLine
 10
29.2055
 20
5.466667
 30
0.0
 11
29.236177
 21
5.484375
 31
0.0
  0
LINE
  5
445
330
5AE
100
AcDbEntity
  8
HATCH
  6
Continuous
 62
     7
370
    30
100
AcDbLine
 10
29.284885
 20
5.5125
 30
0.0
 11
29.333604
 21
5.540625
 31
0.0
  0
LINE
  5
446
330
5AE
100
AcDbEntity
  8
HATCH
  6
Continuous
 62
     7
370
    30
100
AcDbLine
 10
29.382312
 20
5.56875
 30
0.0
 11
29.431031
 21
5.596875
 31
0.0
  0
LINE
  5
447
330
5AE
100
AcDbEntity
  8
HATCH
  6
Continuous
 62
     7
370
    30
100
AcDbLine
 10
29.47974
 20
5.625
 30
0.0
 11
29.528458
 21
5.653125
 31
0.0
  0
LINE
  5
448
330
5AE
100
AcDbEntity
  8
HATCH
  6
Continuous
 62
     7
370
    30
100
AcDbLine
 10
29.577167
 20
5.68125
 30
0.0
 11
29.625885
 21
5.709375
 31
0.0
  0
LINE
  5
449
330
5AE
100
AcDbEntity
  8
HATCH
  6
Continuous
 62
     7
370
    30
100
AcDbLine
 10
29.674594
 20
5.7375
 30
0.0
 11
29.723312
 21
5.765625
 31
0.0
  0
LINE
  5
44A
330
5AE
100
AcDbEntity
  8
HATCH
  6
Continuous
 62
     7
370
    30
100
AcDbLine
 10
29.772021
 20
5.79375
 30
0.0
 11
29.775208
 21
5.795594
 31
0.0
  0
LINE
  5
44B
330
5AE
100
AcDbEntity
  8
HATCH
  6
Continuous
 62
     7
370
    30
100
AcDbLine
 10
29.407646
 20
5.470875
 30
0.0
 11
29.431031
 21
5.484375
 31
0.0
  0
LINE
  5
44C
330
5AE
100
AcDbEntity
  8
HATCH
  6
Continuous
 62
     7
370
    30
100
AcDbLine
 10
29.47974
 20
5.5125
 30
0.0
 11
29.528458
 21
5.540625
 31
0.0
  0
LINE
  5
44D
330
5AE
100
AcDbEntity
  8
HATCH
  6
Continuous
 62
     7
370
    30
100
AcDbLine
 10
29.577167
 20
5.56875
 30
0.0
 11
29.625885
 21
5.596875
 31
0.0
  0
LINE
  5
44E
330
5AE
100
AcDbEntity
  8
HATCH
  6
Continuous
 62
     7
370
    30
100
AcDbLine
 10
29.674594
 20
5.625
 30
0.0
 11
29.723312
 21
5.653125
 31
0.0
  0
LINE
  5
44F
330
5AE
100
AcDbEntity
  8
HATCH
  6
Continuous
 62
     7
370
    30
100
AcDbLine
 10
29.772021
 20
5.68125
 30
0.0
 11
29.775208
 21
5.683094
 31
0.0
  0
LINE
  5
450
330
5AE
100
AcDbEntity
  8
HATCH
  6
Continuous
 62
     7
370
    30
100
AcDbLine
 10
29.13874
 20
5.653125
 30
0.0
 11
29.13874
 21
5.596875
 31
0.0
  0
LINE
  5
451
330
5AE
100
AcDbEntity
  8
HATCH
  6
Continuous
 62
     7
370
    30
100
AcDbLine
 10
29.13874
 20
5.540625
 30
0.0
 11
29.13874
 21
5.484375
 31
0.0
  0
LINE
  5
452
330
5AE
100
AcDbEntity
  8
HATCH
  6
Continuous
 62
     7
370
    30
100
AcDbLine
 10
29.236177
 20
5.709375
 30
0.0
 11
29.236177
 21
5.653125
 31
0.0
  0
LINE
  5
453
330
5AE
100
AcDbEntity
  8
HATCH
  6
Continuous
 62
     7
370
    30
100
AcDbLine
 10
29.236177
 20
5.596875
 30
0.0
 11
29.236177
 21
5.540625
 31
0.0
  0
LINE
  5
454
330
5AE
100
AcDbEntity
  8
HATCH
  6
Continuous
 62
     7
370
    30
100
AcDbLine
 10
29.236177
 20
5.484375
 30
0.0
 11
29.236177
 21
5.467302
 31
0.0
  0
LINE
  5
455
330
5AE
100
AcDbEntity
  8
HATCH
  6
Continuous
 62
     7
370
    30
100
AcDbLine
 10
29.333604
 20
5.765625
 30
0.0
 11
29.333604
 21
5.709375
 31
0.0
  0
LINE
  5
456
330
5AE
100
AcDbEntity
  8
HATCH
  6
Continuous
 62
     7
370
    30
100
AcDbLine
 10
29.333604
 20
5.653125
 30
0.0
 11
29.333604
 21
5.596875
 31
0.0
  0
LINE
  5
457
330
5AE
100
AcDbEntity
  8
HATCH
  6
Continuous
 62
     7
370
    30
100
AcDbLine
 10
29.333604
 20
5.540625
 30
0.0
 11
29.333604
 21
5.484375
 31
0.0
  0
LINE
  5
458
330
5AE
100
AcDbEntity
  8
HATCH
  6
Continuous
 62
     7
370
    30
100
AcDbLine
 10
29.431031
 20
5.821875
 30
0.0
 11
29.431031
 21
5.765625
 31
0.0
  0
LINE
  5
459
330
5AE
100
AcDbEntity
  8
HATCH
  6
Continuous
 62
     7
370
    30
100
AcDbLine
 10
29.431031
 20
5.709375
 30
0.0
 11
29.431031
 21
5.653125
 31
0.0
  0
LINE
  5
45A
330
5AE
100
AcDbEntity
  8
HATCH
  6
Continuous
 62
     7
370
    30
100
AcDbLine
 10
29.431031
 20
5.596875
 30
0.0
 11
29.431031
 21
5.540625
 31
0.0
  0
LINE
  5
45B
330
5AE
100
AcDbEntity
  8
HATCH
  6
Continuous
 62
     7
370
    30
100
AcDbLine
 10
29.431031
 20
5.484375
 30
0.0
 11
29.431031
 21
5.471365
 31
0.0
  0
LINE
  5
45C
330
5AE
100
AcDbEntity
  8
HATCH
  6
Continuous
 62
     7
370
    30
100
AcDbLine
 10
29.528458
 20
5.878125
 30
0.0
 11
29.528458
 21
5.821875
 31
0.0
  0
LINE
  5
45D
330
5AE
100
AcDbEntity
  8
HATCH
  6
Continuous
 62
     7
370
    30
100
AcDbLine
 10
29.528458
 20
5.765625
 30
0.0
 11
29.528458
 21
5.709375
 31
0.0
  0
LINE
  5
45E
330
5AE
100
AcDbEntity
  8
HATCH
  6
Continuous
 62
     7
370
    30
100
AcDbLine
 10
29.528458
 20
5.653125
 30
0.0
 11
29.528458
 21
5.596875
 31
0.0
  0
LINE
  5
45F
330
5AE
100
AcDbEntity
  8
HATCH
  6
Continuous
 62
     7
370
    30
100
AcDbLine
 10
29.528458
 20
5.540625
 30
0.0
 11
29.528458
 21
5.515146
 31
0.0
  0
LINE
  5
460
330
5AE
100
AcDbEntity
  8
HATCH
  6
Continuous
 62
     7
370
    30
100
AcDbLine
 10
29.625885
 20
5.927667
 30
0.0
 11
29.625885
 21
5.878125
 31
0.0
  0
LINE
  5
461
330
5AE
100
AcDbEntity
  8
HATCH
  6
Continuous
 62
     7
370
    30
100
AcDbLine
 10
29.625885
 20
5.821875
 30
0.0
 11
29.625885
 21
5.765625
 31
0.0
  0
LINE
  5
462
330
5AE
100
AcDbEntity
  8
HATCH
  6
Continuous
 62
     7
370
    30
100
AcDbLine
 10
29.625885
 20
5.709375
 30
0.0
 11
29.625885
 21
5.653125
 31
0.0
  0
LINE
  5
463
330
5AE
100
AcDbEntity
  8
HATCH
  6
Continuous
 62
     7
370
    30
100
AcDbLine
 10
29.625885
 20
5.596875
 30
0.0
 11
29.625885
 21
5.564302
 31
0.0
  0
LINE
  5
464
330
5AE
100
AcDbEntity
  8
HATCH
  6
Continuous
 62
     7
370
    30
100
AcDbLine
 10
29.723312
 20
5.878125
 30
0.0
 11
29.723312
 21
5.821875
 31
0.0
  0
LINE
  5
465
330
5AE
100
AcDbEntity
  8
HATCH
  6
Continuous
 62
     7
370
    30
100
AcDbLine
 10
29.723312
 20
5.765625
 30
0.0
 11
29.723312
 21
5.709375
 31
0.0
  0
LINE
  5
466
330
5AE
100
AcDbEntity
  8
HATCH
  6
Continuous
 62
     7
370
    30
100
AcDbLine
 10
29.723312
 20
5.653125
 30
0.0
 11
29.723312
 21
5.613458
 31
0.0
  0
LINE
  5
467
330
5AE
100
AcDbEntity
  8
HATCH
  6
Continuous
 62
     7
370
    30
100
AcDbLine
 10
29.041313
 20
5.596875
 30
0.0
 11
29.041313
 21
5.540625
 31
0.0
  0
LINE
  5
468
330
5AE
100
AcDbEntity
  8
HATCH
  6
Continuous
 62
     7
370
    30
100
AcDbLine
 10
29.041313
 20
5.484375
 30
0.0
 11
29.041313
 21
5.46324
 31
0.0
  0
LINE
  5
469
330
5AE
100
AcDbEntity
  8
HATCH
  6
Continuous
 62
     7
370
    30
100
AcDbLine
 10
28.943885
 20
5.540625
 30
0.0
 11
28.943885
 21
5.484375
 31
0.0
  0
LINE
  5
46A
330
5AE
100
AcDbEntity
  8
HATCH
  6
Continuous
 62
     7
370
    30
100
AcDbLine
 10
28.846458
 20
5.547448
 30
0.0
 11
28.846458
 21
5.540625
 31
0.0
  0
LINE
  5
46B
330
5AE
100
AcDbEntity
  8
HATCH
  6
Continuous
 62
     7
370
    30
100
AcDbLine
 10
28.846458
 20
5.484375
 30
0.0
 11
28.846458
 21
5.459187
 31
0.0
  0
LINE
  5
46C
330
5AE
100
AcDbEntity
  8
HATCH
  6
Continuous
 62
     7
370
    30
100
AcDbLine
 10
28.749031
 20
5.49874
 30
0.0
 11
28.749031
 21
5.484375
 31
0.0
  0
LINE
  5
472
330
5AE
100
AcDbEntity
  8
_0
  6
Continuous
 62
     7
370
    30
100
AcDbLine
 10
34.941646
 20
5.022677
 30
0.0
 11
34.941646
 21
5.165
 31
0.0
  0
LINE
  5
473
330
5AE
100
AcDbEntity
  8
_0
  6
Continuous
 62
     7
370
    30
100
AcDbLine
 10
34.632667
 20
5.165
 30
0.0
 11
34.941646
 21
5.165
 31
0.0
  0
LINE
  5
474
330
5AE
100
AcDbEntity
  8
_0
  6
Continuous
 62
     7
370
    30
100
AcDbLine
 10
35.136854
 20
4.877479
 30
0.0
 11
33.998188
 21
5.446063
 31
0.0
  0
LINE
  5
475
330
5AE
100
AcDbEntity
  8
_0
  6
Continuous
 62
     7
370
    30
100
AcDbLine
 10
29.764802
 20
5.478573
 30
0.0
 11
31.984604
 21
5.478573
 31
0.0
  0
LINE
  5
476
330
5AE
100
AcDbEntity
  8
_0
  6
Continuous
 62
     7
370
    30
100
AcDbLine
 10
28.215583
 20
5.446042
 30
0.0
 11
29.764802
 21
5.478312
 31
0.0
  0
LINE
  5
477
330
5AE
100
AcDbEntity
  8
_0
  6
Continuous
 62
     7
370
    30
100
AcDbLine
 10
33.998188
 20
5.446063
 30
0.0
 11
32.437479
 21
5.478573
 31
0.0
  0
LINE
  5
47B
330
5AE
100
AcDbEntity
  8
_0
  6
Continuous
 62
     7
370
    30
100
AcDbLine
 10
29.764333
 20
5.225719
 30
0.0
 11
32.43701
 21
5.225719
 31
0.0
  0
LINE
  5
47E
330
5AE
100
AcDbEntity
  8
_0
  6
Continuous
 62
     7
370
    30
100
AcDbLine
 10
27.506698
 20
5.162917
 30
0.0
 11
27.506698
 21
5.30524
 31
0.0
  0
LINE
  5
47F
330
5AE
100
AcDbEntity
  8
_0
  6
Continuous
 62
     7
370
    30
100
AcDbLine
 10
27.855354
 20
5.30524
 30
0.0
 11
27.506698
 21
5.30524
 31
0.0
  0
LINE
  5
481
330
5AE
100
AcDbEntity
  8
_0
  6
Continuous
 62
     7
370
    13
100
AcDbLine
 10
32.438604
 20
5.977667
 30
0.0
 11
32.438604
 21
7.004833
 31
0.0
  0
LINE
  5
482
330
5AE
100
AcDbEntity
  8
_0
  6
Continuous
 62
     7
370
    13
100
AcDbLine
 10
32.606906
 20
5.977667
 30
0.0
 11
32.606906
 21
7.004833
 31
0.0
  0
LINE
  5
485
330
5AE
100
AcDbEntity
  8
DIM
  6
Continuous
 62
     7
370
    13
100
AcDbLine
 10
29.775208
 20
5.977667
 30
0.0
 11
29.775208
 21
7.004833
 31
0.0
  0
LINE
  5
486
330
5AE
100
AcDbEntity
  8
DIM
  6
Continuous
 62
     7
370
    13
100
AcDbLine
 10
29.606906
 20
5.977667
 30
0.0
 11
29.606906
 21
7.004833
 31
0.0
  0
LINE
  5
48A
330
5AE
100
AcDbEntity
  8
DIM
  6
Continuous
 62
     7
370
    13
100
AcDbLine
 10
31.869406
 20
6.177667
 30
0.0
 11
31.869406
 21
6.427115
 31
0.0
  0
LINE
  5
48C
330
5AE
100
AcDbEntity
  8
DIM
  6
Continuous
 62
     7
370
    13
100
AcDbLine
 10
30.344406
 20
6.177667
 30
0.0
 11
30.344406
 21
6.427115
 31
0.0
  0
LINE
  5
48D
330
5AE
100
AcDbEntity
  8
_0
  6
Continuous
 62
     7
370
    30
100
AcDbLine
 10
29.775208
 20
5.927667
 30
0.0
 11
29.775208
 21
5.727667
 31
0.0
  0
LINE
  5
492
330
5AE
100
AcDbEntity
  8
_0
  6
Continuous
 62
     7
370
    30
100
AcDbLine
 10
27.681906
 20
5.182073
 30
0.0
 11
29.764333
 21
5.225458
 31
0.0
  0
LINE
  5
493
330
5AE
100
AcDbEntity
  8
_0
  6
Continuous
 62
     7
370
    30
100
AcDbLine
 10
27.076958
 20
4.877479
 30
0.0
 11
28.215583
 21
5.446042
 31
0.0
  0
LINE
  5
494
330
5AE
100
AcDbEntity
  8
_0
  6
Continuous
 62
     7
370
    30
100
AcDbLine
 10
29.606906
 20
5.927667
 30
0.0
 11
28.66225
 21
5.455344
 31
0.0
  0
LINE
  5
495
330
5AE
100
AcDbEntity
  8
_0
  6
Continuous
 62
     7
370
    30
100
AcDbLine
 10
32.438604
 20
5.927667
 30
0.0
 11
32.438604
 21
5.727667
 31
0.0
  0
LINE
  5
496
330
5AE
100
AcDbEntity
  8
_0
  6
Continuous
 62
     7
370
    30
100
AcDbLine
 10
32.606906
 20
5.927667
 30
0.0
 11
33.55151
 21
5.455365
 31
0.0
  0
LINE
  5
497
330
5AE
100
AcDbEntity
  8
_0
  6
Continuous
 62
     7
370
    30
100
AcDbLine
 10
34.526635
 20
5.182187
 30
0.0
 11
32.43701
 21
5.225719
 31
0.0
  0
LINE
  5
498
330
5AE
100
AcDbEntity
  8
_0
  6
Continuous
 62
     7
370
    30
100
AcDbLine
 10
29.775208
 20
5.727667
 30
0.0
 11
32.438604
 21
5.727667
 31
0.0
  0
LINE
  5
499
330
5AE
100
AcDbEntity
  8
_0
  6
Continuous
 62
     7
370
    13
100
AcDbLine
 10
31.106906
 20
6.668417
 30
0.0
 11
31.106906
 21
5.697198
 31
0.0
  0
LINE
  5
49A
330
5AE
100
AcDbEntity
  8
_0
  6
Continuous
 62
     7
370
    30
100
AcDbLine
 10
29.606906
 20
5.927667
 30
0.0
 11
32.606906
 21
5.927667
 31
0.0
  0
LINE
  5
49D
330
5AE
100
AcDbEntity
  8
BORDER
  6
Continuous
 62
     7
370
    30
100
AcDbLine
 10
34.986906
 20
0.625
 30
0.0
 11
34.986906
 21
1.125
 31
0.0
  0
LINE
  5
49F
330
5AE
100
AcDbEntity
  8
BORDER
  6
Continuous
 62
     7
370
    30
100
AcDbLine
 10
33.886906
 20
0.625
 30
0.0
 11
33.886906
 21
1.125
 31
0.0
  0
LINE
  5
4A0
330
5AE
100
AcDbEntity
  8
BORDER
  6
Continuous
 62
     7
370
    30
100
AcDbLine
 10
26.986906
 20
0.625
 30
0.0
 11
36.086906
 21
0.625
 31
0.0
  0
LINE
  5
4A1
330
5AE
100
AcDbEntity
  8
BORDER
  6
Continuous
 62
     7
370
    30
100
AcDbLine
 10
26.986906
 20
1.125
 30
0.0
 11
36.086906
 21
1.125
 31
0.0
  0
LINE
  5
4A2
330
5AE
100
AcDbEntity
  8
BORDER
  6
Continuous
 62
     7
370
    30
100
AcDbLine
 10
36.086906
 20
0.625
 30
0.0
 11
36.086906
 21
7.875
 31
0.0
  0
LINE
  5
4A3
330
5AE
100
AcDbEntity
  8
BORDER
  6
Continuous
 62
     7
370
    30
100
AcDbLine
 10
26.986906
 20
7.875
 30
0.0
 11
36.086906
 21
7.875
 31
0.0
  0
LINE
  5
4A8
330
5AE
100
AcDbEntity
  8
DIM
  6
Continuous
 62
     7
370
    13
100
AcDbLine
 10
28.66225
 20
5.505344
 30
0.0
 11
28.66225
 21
6.079104
 31
0.0
  0
LINE
  5
4A9
330
5AE
100
AcDbEntity
  8
DIM
  6
Continuous
 62
     7
370
    13
100
AcDbLine
 10
28.209583
 20
5.495917
 30
0.0
 11
28.209583
 21
6.079104
 31
0.0
  0
LINE
  5
4AB
330
5AE
100
AcDbEntity
  8
DIM
  6
Continuous
 62
     7
370
    13
100
AcDbLine
 10
28.209583
 20
5.984167
 30
0.0
 11
27.809583
 21
5.984167
 31
0.0
  0
LINE
  5
4AC
330
5AE
100
AcDbEntity
  8
DIM
  6
Continuous
 62
     7
370
    13
100
AcDbLine
 10
28.66225
 20
5.984167
 30
0.0
 11
29.06225
 21
5.984167
 31
0.0
  0
LINE
  5
4AD
330
5AE
100
AcDbEntity
  8
DEFPOINTS
  6
Continuous
 62
     7
370
    30
100
AcDbLine
 10
28.66225
 20
5.984167
 30
0.0
 11
28.66225
 21
5.984167
 31
0.0
  0
LINE
  5
4AF
330
5AE
100
AcDbEntity
  8
TEXT
  6
Continuous
 62
     7
370
    13
100
AcDbLine
 10
28.642812
 20
5.268656
 30
0.0
 11
29.08751
 21
5.268656
 31
0.0
  0
LINE
  5
4B1
330
5AE
100
AcDbEntity
  8
DIM
  6
Continuous
 62
     7
370
    13
100
AcDbLine
 10
29.606906
 20
6.932
 30
0.0
 11
29.206906
 21
6.932
 31
0.0
  0
LINE
  5
4B2
330
5AE
100
AcDbEntity
  8
DIM
  6
Continuous
 62
     7
370
    13
100
AcDbLine
 10
29.775208
 20
6.932
 30
0.0
 11
30.175208
 21
6.932
 31
0.0
  0
LINE
  5
4B3
330
5AE
100
AcDbEntity
  8
DEFPOINTS
  6
Continuous
 62
     7
370
    30
100
AcDbLine
 10
29.775208
 20
6.932
 30
0.0
 11
29.775208
 21
6.932
 31
0.0
  0
LINE
  5
4B5
330
5AE
100
AcDbEntity
  8
_0
  6
Continuous
 62
     7
370
    13
100
AcDbLine
 10
29.961156
 20
5.478573
 30
0.0
 11
29.961156
 21
5.076417
 31
0.0
  0
LINE
  5
4B6
330
5AE
100
AcDbEntity
  8
_0
  6
Continuous
 62
     7
370
    13
100
AcDbLine
 10
29.961156
 20
5.727667
 30
0.0
 11
29.961156
 21
6.126844
 31
0.0
  0
LINE
  5
4BA
330
5AE
100
AcDbEntity
  8
_0
  6
Continuous
 62
     7
370
    13
100
AcDbLine
 10
30.370604
 20
5.478573
 30
0.0
 11
30.370604
 21
5.876417
 31
0.0
  0
LINE
  5
4BB
330
5AE
100
AcDbEntity
  8
_0
  6
Continuous
 62
     7
370
    13
100
AcDbLine
 10
30.370604
 20
5.225719
 30
0.0
 11
30.370604
 21
4.825563
 31
0.0
  0
LINE
  5
4BC
330
5AE
100
AcDbEntity
  8
DIM
  6
Continuous
 62
     7
370
    13
100
AcDbLine
 10
30.344406
 20
6.375104
 30
0.0
 11
31.106906
 21
6.375104
 31
0.0
  0
LINE
  5
4BD
330
5AE
100
AcDbEntity
  8
DIM
  6
Continuous
 62
     7
370
    13
100
AcDbLine
 10
31.106906
 20
6.375104
 30
0.0
 11
31.869406
 21
6.375104
 31
0.0
  0
LINE
  5
4BE
330
5AE
100
AcDbEntity
  8
TEXT
  6
Continuous
 62
     7
370
    13
100
AcDbLine
 10
33.399187
 20
5.256156
 30
0.0
 11
33.10999
 21
5.256156
 31
0.0
  0
LINE
  5
4BF
330
5AE
100
AcDbEntity
  8
DIM
  6
Continuous
 62
     7
370
    13
100
AcDbLine
 10
32.438604
 20
6.931563
 30
0.0
 11
32.038604
 21
6.931563
 31
0.0
  0
LINE
  5
4C0
330
5AE
100
AcDbEntity
  8
DIM
  6
Continuous
 62
     7
370
    13
100
AcDbLine
 10
32.606906
 20
6.931563
 30
0.0
 11
33.006906
 21
6.931563
 31
0.0
  0
LINE
  5
4C1
330
5AE
100
AcDbEntity
  8
DEFPOINTS
  6
Continuous
 62
     7
370
    30
100
AcDbLine
 10
32.606906
 20
6.931563
 30
0.0
 11
32.606906
 21
6.931563
 31
0.0
  0
LINE
  5
4C2
330
5AE
100
AcDbEntity
  8
TEXT
  6
Continuous
 62
     7
370
    13
100
AcDbLine
 10
32.348458
 20
5.926406
 30
0.0
 11
32.883844
 21
6.271229
 31
0.0
  0
LINE
  5
4C3
330
5AE
100
AcDbEntity
  8
TEXT
  6
Continuous
 62
     7
370
    13
100
AcDbLine
 10
32.883844
 20
6.271229
 30
0.0
 11
33.024292
 21
6.271229
 31
0.0
  0
LINE
  5
4C4
330
5AE
100
AcDbEntity
  8
_0
  6
Continuous
 62
     7
370
    13
100
AcDbLine
 10
32.22325
 20
5.727667
 30
0.0
 11
32.22325
 21
6.126844
 31
0.0
  0
LINE
  5
4C5
330
5AE
100
AcDbEntity
  8
_0
  6
Continuous
 62
     7
370
    13
100
AcDbLine
 10
32.22325
 20
5.225719
 30
0.0
 11
32.22325
 21
4.825563
 31
0.0
  0
LINE
  5
4C6
330
5AE
100
AcDbEntity
  8
_0
  6
Continuous
 62
     7
370
    13
100
AcDbLine
 10
37.081542
 20
0.25
 30
0.0
 11
36.875
 21
0.25
 31
0.0
  0
LINE
  5
4C7
330
5AE
100
AcDbEntity
  8
_0
  6
Continuous
 62
     7
370
    13
100
AcDbLine
 10
37.081542
 20
8.25
 30
0.0
 11
36.875
 21
8.25
 31
0.0
  0
LINE
  5
4C8
330
5AE
100
AcDbEntity
  8
_0
  6
Continuous
 62
     7
370
    13
100
AcDbLine
 10
36.875
 20
0.043458
 30
0.0
 11
36.875
 21
0.25
 31
0.0
  0
LINE
  5
4C9
330
5AE
100
AcDbEntity
  8
_0
  6
Continuous
 62
     7
370
    13
100
AcDbLine
 10
26.125
 20
0.043458
 30
0.0
 11
26.125
 21
0.25
 31
0.0
  0
LINE
  5
4CA
330
5AE
100
AcDbEntity
  8
_0
  6
Continuous
 62
     7
370
    13
100
AcDbLine
 10
36.875
 20
8.25
 30
0.0
 11
36.875
 21
8.456542
 31
0.0
  0
LINE
  5
4CB
330
5AE
100
AcDbEntity
  8
_0
  6
Continuous
 62
     7
370
    13
100
AcDbLine
 10
26.125
 20
0.25
 30
0.0
 11
25.918458
 21
0.25
 31
0.0
  0
LINE
  5
4CC
330
5AE
100
AcDbEntity
  8
_0
  6
Continuous
 62
     7
370
    13
100
AcDbLine
 10
26.125
 20
8.25
 30
0.0
 11
25.918458
 21
8.25
 31
0.0
  0
LINE
  5
4CD
330
5AE
100
AcDbEntity
  8
_0
  6
Continuous
 62
     7
370
    13
100
AcDbLine
 10
26.125
 20
8.25
 30
0.0
 11
26.125
 21
8.456542
 31
0.0
  0
LINE
  5
4CF
330
5AE
100
AcDbEntity
  8
DIM
  6
Continuous
 62
     7
370
    30
100
AcDbLine
 10
30.823015
 20
3.986562
 30
0.0
 11
32.099817
 21
3.986562
 31
0.0
  0
INSERT
  5
4D0
330
5AE
100
AcDbEntity
  8
DIM
  6
Continuous
 62
     7
370
    13
100
AcDbBlockReference
  2
LARROW
 10
29.606906
 20
6.932
 30
0.0
 41
12.0
 42
12.0
 43
12.0
  0
INSERT
  5
4D2
330
5AE
100
AcDbEntity
  8
DIM
  6
Continuous
 62
     7
370
    13
100
AcDbBlockReference
  2
LARROW
 10
29.775208
 20
6.932
 30
0.0
 41
12.0
 42
12.0
 43
12.0
 50
180.0
  0
INSERT
  5
4D4
330
5AE
100
AcDbEntity
  8
DIM
  6
Continuous
 62
     7
370
    13
100
AcDbBlockReference
  2
LARROW
 10
28.66225
 20
5.984167
 30
0.0
 41
12.0
 42
12.0
 43
12.0
 50
180.0
  0
INSERT
  5
4D6
330
5AE
100
AcDbEntity
  8
DIM
  6
Continuous
 62
     7
370
    13
100
AcDbBlockReference
  2
LARROW
 10
28.209583
 20
5.984167
 30
0.0
 41
12.0
 42
12.0
 43
12.0
  0
INSERT
  5
4D8
330
5AE
100
AcDbEntity
  8
DIM
  6
Continuous
 62
     7
370
    13
100
AcDbBlockReference
  2
LARROW
 10
28.642812
 20
5.268656
 30
0.0
 41
12.0
 42
12.0
 43
12.0
 50
180.0
  0
INSERT
  5
4DA
330
5AE
100
AcDbEntity
  8
DIM
  6
Continuous
 62
     7
370
    13
100
AcDbBlockReference
  2
LARROW
 10
29.961156
 20
5.47024
 30
0.0
 41
12.0
 42
12.0
 43
12.0
 50
90.0
  0
INSERT
  5
4DC
330
5AE
100
AcDbEntity
  8
DIM
  6
Continuous
 62
     7
370
    13
100
AcDbBlockReference
  2
LARROW
 10
29.961156
 20
5.723135
 30
0.0
 41
12.0
 42
12.0
 43
12.0
 50
270.0
  0
INSERT
  5
4DE
330
5AE
100
AcDbEntity
  8
DIM
  6
Continuous
 62
     7
370
    13
100
AcDbBlockReference
  2
LARROW
 10
32.438604
 20
6.931563
 30
0.0
 41
12.0
 42
12.0
 43
12.0
  0
INSERT
  5
4E0
330
5AE
100
AcDbEntity
  8
DIM
  6
Continuous
 62
     7
370
    13
100
AcDbBlockReference
  2
LARROW
 10
32.606906
 20
6.931563
 30
0.0
 41
12.0
 42
12.0
 43
12.0
 50
180.0
  0
INSERT
  5
4E2
330
5AE
100
AcDbEntity
  8
DIM
  6
Continuous
 62
     7
370
    13
100
AcDbBlockReference
  2
LARROW
 10
32.348458
 20
5.926406
 30
0.0
 41
12.0
 42
12.0
 43
12.0
 50
212.784155
  0
INSERT
  5
4E4
330
5AE
100
AcDbEntity
  8
DIM
  6
Continuous
 62
     7
370
    13
100
AcDbBlockReference
  2
LARROW
 10
32.22325
 20
5.723135
 30
0.0
 41
12.0
 42
12.0
 43
12.0
 50
270.0
  0
INSERT
  5
4E6
330
5AE
100
AcDbEntity
  8
DIM
  6
Continuous
 62
     7
370
    13
100
AcDbBlockReference
  2
LARROW
 10
32.22325
 20
5.225719
 30
0.0
 41
12.0
 42
12.0
 43
12.0
 50
90.0
  0
INSERT
  5
4E8
330
5AE
100
AcDbEntity
  8
DIM
  6
Continuous
 62
     7
370
    13
100
AcDbBlockReference
  2
LARROW
 10
33.399187
 20
5.256156
 30
0.0
 41
12.0
 42
12.0
 43
12.0
  0
INSERT
  5
4EA
330
5AE
100
AcDbEntity
  8
DIM
  6
Continuous
 62
     7
370
    13
100
AcDbBlockReference
  2
LARROW
 10
30.370604
 20
5.225719
 30
0.0
 41
12.0
 42
12.0
 43
12.0
 50
90.0
  0
INSERT
  5
4EC
330
5AE
100
AcDbEntity
  8
DIM
  6
Continuous
 62
     7
370
    13
100
AcDbBlockReference
  2
LARROW
 10
30.370604
 20
5.478573
 30
0.0
 41
12.0
 42
12.0
 43
12.0
 50
270.0
  0
LINE
  5
4EE
330
5AE
100
AcDbEntity
  8
_0
  6
Continuous
 62
     7
370
    30
100
AcDbLine
 10
35.136854
 20
4.877479
 30
0.0
 11
35.48551
 21
4.877479
 31
0.0
  0
LINE
  5
4EF
330
5AE
100
AcDbEntity
  8
_0
  6
Continuous
 62
     7
370
    30
100
AcDbLine
 10
35.48551
 20
4.877479
 30
0.0
 11
35.993031
 21
5.130906
 31
0.0
  0
LINE
  5
4F0
330
5AE
100
AcDbEntity
  8
_0
  6
Continuous
 62
     7
370
    30
100
AcDbLine
 10
35.680729
 20
5.022677
 30
0.0
 11
35.680729
 21
5.165
 31
0.0
  0
LINE
  5
4F1
330
5AE
100
AcDbEntity
  8
_0
  6
Continuous
 62
     7
370
    30
100
AcDbLine
 10
35.989708
 20
5.165
 30
0.0
 11
35.680729
 21
5.165
 31
0.0
  0
LINE
  5
4F5
330
5AE
100
AcDbEntity
  8
TEXT
  6
Continuous
 62
     7
370
    13
100
AcDbLine
 10
35.136854
 20
4.827906
 30
0.0
 11
35.136854
 21
4.530094
 31
0.0
  0
LINE
  5
4F6
330
5AE
100
AcDbEntity
  8
TEXT
  6
Continuous
 62
     7
370
    13
100
AcDbLine
 10
35.48551
 20
4.827906
 30
0.0
 11
35.48551
 21
4.530094
 31
0.0
  0
LINE
  5
4F7
330
5AE
100
AcDbEntity
  8
_0
  6
Continuous
 62
     7
370
    13
100
AcDbLine
 10
35.136854
 20
4.593333
 30
0.0
 11
35.48551
 21
4.593333
 31
0.0
  0
LINE
  5
4F8
330
5AE
100
AcDbEntity
  8
_0
  6
Continuous
 62
     7
370
    13
100
AcDbLine
 10
35.48551
 20
4.593333
 30
0.0
 11
35.834167
 21
4.593333
 31
0.0
  0
LINE
  5
4F9
330
5AE
100
AcDbEntity
  8
_0
  6
Continuous
 62
     7
370
    13
100
AcDbLine
 10
34.788198
 20
4.593333
 30
0.0
 11
35.136854
 21
4.593333
 31
0.0
  0
INSERT
  5
4FA
330
5AE
100
AcDbEntity
  8
TEXT
  6
Continuous
 62
     7
370
    13
100
AcDbBlockReference
  2
LARROW_1
 10
35.136854
 20
4.593333
 30
0.0
 41
12.0
 42
12.0
 43
12.0
  0
INSERT
  5
505
330
5AE
100
AcDbEntity
  8
TEXT
  6
Continuous
 62
     7
370
    13
100
AcDbBlockReference
  2
LARROW_1
 10
35.48551
 20
4.593333
 30
0.0
 41
12.0
 42
12.0
 43
12.0
 50
180.0
  0
INSERT
  5
51C
330
5AE
100
AcDbEntity
  8
TEXT
  6
Continuous
 62
     7
370
    13
100
AcDbBlockReference
  2
LARROW_1
 10
30.344406
 20
6.375104
 30
0.0
 41
12.0
 42
12.0
 43
12.0
 50
180.0
  0
INSERT
  5
527
330
5AE
100
AcDbEntity
  8
TEXT
  6
Continuous
 62
     7
370
    13
100
AcDbBlockReference
  2
LARROW_1
 10
31.106906
 20
6.375104
 30
0.0
 41
12.0
 42
12.0
 43
12.0
 50
180.0
  0
INSERT
  5
532
330
5AE
100
AcDbEntity
  8
TEXT
  6
Continuous
 62
     7
370
    13
100
AcDbBlockReference
  2
LARROW_1
 10
31.106906
 20
6.375104
 30
0.0
 41
12.0
 42
12.0
 43
12.0
  0
INSERT
  5
53D
330
5AE
100
AcDbEntity
  8
TEXT
  6
Continuous
 62
     7
370
    13
100
AcDbBlockReference
  2
LARROW_1
 10
31.869406
 20
6.375104
 30
0.0
 41
12.0
 42
12.0
 43
12.0
  0
TEXT
  5
1BB
330
5AE
100
AcDbEntity
  8
DIM
  6
Continuous
 62
     7
370
    30
100
AcDbText
 10
29.958656
 20
6.21151
 30
0.0
 40
0.12
  1
4"
 50
90.0
 41
0.833333
  7
Style-Arial
100
AcDbText
  0
TEXT
  5
46D
330
5AE
100
AcDbEntity
  8
NOTES
  6
Continuous
 62
     7
370
    30
100
AcDbText
 10
28.565403
 20
2.204177
 30
0.0
 40
0.12
  1
THICKNESSS REQUIREMENTS.
 41
0.833333
  7
Style-Arial
100
AcDbText
  0
TEXT
  5
46E
330
5AE
100
AcDbEntity
  8
NOTES
  6
Continuous
 62
     7
370
    30
100
AcDbText
 10
28.551405
 20
2.405373
 30
0.0
 40
0.12
  1
BEST STUCTURAL AND ECONOMIC DESIGN WHILE MEETING MINIMUM
 41
0.833333
  7
Style-Arial
100
AcDbText
  0
TEXT
  5
46F
330
5AE
100
AcDbEntity
  8
_0
  6
Continuous
 62
     7
370
    30
100
AcDbText
 10
33.066354
 20
6.209562
 30
0.0
 40
0.12
  1
TOP OF TIE
 41
0.833333
  7
Style-Arial
100
AcDbText
  0
TEXT
  5
470
330
5AE
100
AcDbEntity
  8
TITLE
  6
Continuous
 62
     7
370
    30
100
AcDbText
 10
28.838832
 20
0.859294
 30
0.0
 40
0.12
  1
TYPICAL BALLAST SECTION - TANGENT TRACK
 41
0.833333
  7
Style-Arial
100
AcDbText
  0
TEXT
  5
471
330
5AE
100
AcDbEntity
  8
TEXT
  6
Continuous
 62
     7
370
    30
100
AcDbText
 10
30.951004
 20
5.537708
 30
0.0
 40
0.12
  1
TOP BALLAST
 41
0.833333
  7
Style-Arial
100
AcDbText
  0
TEXT
  5
478
330
5AE
100
AcDbEntity
  8
_0
  6
Continuous
 62
     7
370
    30
100
AcDbText
 10
29.124448
 20
5.260031
 30
0.0
 40
0.12
  1
SLOPE
 50
1.169172
 41
0.833333
  7
Style-Arial
100
AcDbText
  0
TEXT
  5
479
330
5AE
100
AcDbEntity
  8
TEXT
  6
Continuous
 62
     7
370
    30
100
AcDbText
 10
30.918153
 20
4.888667
 30
0.0
 40
0.12
  1
COMPACTED
 41
0.833333
  7
Style-Arial
100
AcDbText
  0
TEXT
  5
47A
330
5AE
100
AcDbEntity
  8
TEXT
  6
Continuous
 62
     7
370
    30
100
AcDbText
 10
30.959361
 20
5.280781
 30
0.0
 40
0.12
  1
SUB BALLAST
 41
0.833333
  7
Style-Arial
100
AcDbText
  0
TEXT
  5
47C
330
5AE
100
AcDbEntity
  8
_0
  6
Continuous
 62
     7
370
    30
100
AcDbText
 10
27.365073
 20
5.174083
 30
0.0
 40
0.12
  1
1
 41
0.833333
  7
Style-Arial
100
AcDbText
  0
TEXT
  5
47D
330
5AE
100
AcDbEntity
  8
_0
  6
Continuous
 62
     7
370
    30
100
AcDbText
 10
27.663573
 20
5.333448
 30
0.0
 40
0.12
  1
3
 41
0.833333
  7
Style-Arial
100
AcDbText
  0
TEXT
  5
480
330
5AE
100
AcDbEntity
  8
_0
  6
Continuous
 62
     7
370
    30
100
AcDbText
 10
28.805921
 20
5.581445
 30
0.0
 40
0.12
  1
SLOPE 2:1
 50
26.56505
 41
0.833333
  7
Style-Arial
100
AcDbText
  0
TEXT
  5
483
330
5AE
100
AcDbEntity
  8
DIM
  6
Continuous
 62
     7
370
    30
100
AcDbText
 10
33.06875
 20
6.871156
 30
0.0
 40
0.12
  1
6" MIN
 41
0.833333
  7
Style-Arial
100
AcDbText
  0
TEXT
  5
484
330
5AE
100
AcDbEntity
  8
DIM
  6
Continuous
 62
     7
370
    30
100
AcDbText
 10
28.72017
 20
6.870719
 30
0.0
 40
0.12
  1
6" MIN
 41
0.833333
  7
Style-Arial
100
AcDbText
  0
TEXT
  5
487
330
5AE
100
AcDbEntity
  8
_0
  6
Continuous
 62
     7
370
    30
100
AcDbText
 10
31.072405
 20
6.746594
 30
0.0
 40
0.12
  1
L
 41
0.833333
  7
Style-Arial
100
AcDbText
  0
TEXT
  5
488
330
5AE
100
AcDbEntity
  8
_0
  6
Continuous
 62
     7
370
    30
100
AcDbText
 10
31.047388
 20
6.784167
 30
0.0
 40
0.12
  1
C
 41
0.833333
  7
Style-Arial
100
AcDbText
  0
TEXT
  5
489
330
5AE
100
AcDbEntity
  8
DIM
  6
Continuous
 62
     7
370
    30
100
AcDbText
 10
31.253054
 20
6.455446
 30
0.0
 40
0.12
  1
2'-4-1/4"
 41
0.833333
  7
Style-Arial
100
AcDbText
  0
TEXT
  5
48B
330
5AE
100
AcDbEntity
  8
DIM
  6
Continuous
 62
     7
370
    30
100
AcDbText
 10
30.463929
 20
6.44989
 30
0.0
 40
0.12
  1
2'-4-1/4"
 41
0.833333
  7
Style-Arial
100
AcDbText
  0
TEXT
  5
48E
330
5AE
100
AcDbEntity
  8
_0
  6
Continuous
 62
     7
370
    30
100
AcDbText
 10
32.71551
 20
5.930802
 30
0.0
 40
0.12
  1
SLOPE 2:1
 50
333.43495
 41
0.833333
  7
Style-Arial
100
AcDbText
  0
TEXT
  5
48F
330
5AE
100
AcDbEntity
  8
_0
  6
Continuous
 62
     7
370
    30
100
AcDbText
 10
34.758979
 20
5.206927
 30
0.0
 40
0.12
  1
3
 41
0.833333
  7
Style-Arial
100
AcDbText
  0
TEXT
  5
490
330
5AE
100
AcDbEntity
  8
_0
  6
Continuous
 62
     7
370
    30
100
AcDbText
 10
34.971604
 20
5.018802
 30
0.0
 40
0.12
  1
1
 41
0.833333
  7
Style-Arial
100
AcDbText
  0
TEXT
  5
491
330
5AE
100
AcDbEntity
  8
_0
  6
Continuous
 62
     7
370
    30
100
AcDbText
 10
32.527542
 20
5.270229
 30
0.0
 40
0.12
  1
SLOPE
 50
358.806511
 41
0.833333
  7
Style-Arial
100
AcDbText
  0
TEXT
  5
49B
330
5AE
100
AcDbEntity
  8
BORDER
  6
Continuous
 62
     7
370
    30
100
AcDbText
 10
35.405296
 20
0.749457
 30
0.0
 40
0.12
  1
2-36b
 41
0.833333
  7
Style-Arial
100
AcDbText
  0
TEXT
  5
49C
330
5AE
100
AcDbEntity
  8
BORDER
  6
Continuous
 62
     7
370
    30
100
AcDbText
 10
35.307098
 20
0.958333
 30
0.0
 40
0.12
  1
FIGURE
 41
0.833333
  7
Style-Arial
100
AcDbText
  0
TEXT
  5
49E
330
5AE
100
AcDbEntity
  8
BORDER
  6
Continuous
 62
     7
370
    30
100
AcDbText
 10
34.280186
 20
0.958333
 30
0.0
 40
0.12
  1
DATE
 41
0.833333
  7
Style-Arial
100
AcDbText
  0
TEXT
  5
4A4
330
5AE
100
AcDbEntity
  8
BORDER
  6
Continuous
 62
     7
370
    30
100
AcDbText
 10
34.138431
 20
0.751348
 30
0.0
 40
0.12
  1
AUG 1992
 41
0.833333
  7
Style-Arial
100
AcDbText
  0
TEXT
  5
4A5
330
5AE
100
AcDbEntity
  8
REF
  6
Continuous
 62
     7
370
    30
100
AcDbText
 10
28.742204
 20
1.329354
 30
0.0
 40
0.12
  1
CONSTRUCTION OF ARMY AND AIRFORCE INSTALLATIONS.
 41
0.833333
  7
Style-Arial
100
AcDbText
  0
TEXT
  5
4A6
330
5AE
100
AcDbEntity
  8
REF
  6
Continuous
 62
     7
370
    30
100
AcDbText
 10
27.797304
 20
1.532917
 30
0.0
 40
0.12
  1
REFERENCE: TM 5-850-2/AFM 88-7, CHAPTER 2, RAILROAD DESIGN AND
 41
0.833333
  7
Style-Arial
100
AcDbText
  0
TEXT
  5
4A7
330
5AE
100
AcDbEntity
  8
DIM
  6
Continuous
 62
     7
370
    30
100
AcDbText
 10
28.303331
 20
5.796562
 30
0.0
 40
0.12
  1
TYP.
 41
0.833333
  7
Style-Arial
100
AcDbText
  0
TEXT
  5
4AA
330
5AE
100
AcDbEntity
  8
DIM
  6
Continuous
 62
     7
370
    30
100
AcDbText
 10
32.166927
 20
5.369704
 30
0.0
 40
0.12
  1
10"
 50
90.0
 41
0.833333
  7
Style-Arial
100
AcDbText
  0
TEXT
  5
4AE
330
5AE
100
AcDbEntity
  8
DIM
  6
Continuous
 62
     7
370
    30
100
AcDbText
 10
28.341268
 20
5.977125
 30
0.0
 40
0.12
  1
18"
 41
0.833333
  7
Style-Arial
100
AcDbText
  0
TEXT
  5
4B0
330
5AE
100
AcDbEntity
  8
DIM
  6
Continuous
 62
     7
370
    30
100
AcDbText
 10
32.362719
 20
5.315854
 30
0.0
 40
0.12
  1
MIN
 50
90.0
 41
0.833333
  7
Style-Arial
100
AcDbText
  0
TEXT
  5
4B4
330
5AE
100
AcDbEntity
  8
DIM
  6
Continuous
 62
     7
370
    30
100
AcDbText
 10
30.136
 20
6.145417
 30
0.0
 40
0.12
  1
MIN
 50
90.0
 41
0.833333
  7
Style-Arial
100
AcDbText
  0
TEXT
  5
4B7
330
5AE
100
AcDbEntity
  8
TEXT
  6
Continuous
 62
     7
370
    30
100
AcDbText
 10
30.920473
 20
4.723583
 30
0.0
 40
0.12
  1
SUBGRADE
 41
0.833333
  7
Style-Arial
100
AcDbText
  0
TEXT
  5
4B8
330
5AE
100
AcDbEntity
  8
DIM
  6
Continuous
 62
     7
370
    30
100
AcDbText
 10
30.33775
 20
4.576708
 30
0.0
 40
0.12
  1
6"
 50
90.0
 41
0.833333
  7
Style-Arial
100
AcDbText
  0
TEXT
  5
4B9
330
5AE
100
AcDbEntity
  8
DIM
  6
Continuous
 62
     7
370
    30
100
AcDbText
 10
30.515094
 20
4.496969
 30
0.0
 40
0.12
  1
MIN
 50
90.0
 41
0.833333
  7
Style-Arial
100
AcDbText
  0
TEXT
  5
4CE
330
5AE
100
AcDbEntity
  8
TITLE
  6
Continuous
 62
     7
370
    30
100
AcDbText
 10
30.842876
 20
4.038364
 30
0.0
 40
0.12
  1
TYPICAL SECTION
 41
0.833333
  7
Style-Arial
100
AcDbText
  0
TEXT
  5
4F2
330
5AE
100
AcDbEntity
  8
_0
  6
Continuous
 62
     7
370
    30
100
AcDbText
 10
35.795375
 20
5.206927
 30
0.0
 40
0.12
  1
3
 41
0.833333
  7
Style-Arial
100
AcDbText
  0
TEXT
  5
4F3
330
5AE
100
AcDbEntity
  8
_0
  6
Continuous
 62
     7
370
    30
100
AcDbText
 10
35.568875
 20
5.008948
 30
0.0
 40
0.12
  1
1
 41
0.833333
  7
Style-Arial
100
AcDbText
  0
TEXT
  5
4F4
330
5AE
100
AcDbEntity
  8
_0
  6
Continuous
 62
     7
370
    30
100
AcDbText
 10
34.123354
 20
4.673104
 30
0.0
 40
0.12
  1
CUT
 41
0.833333
  7
Style-Arial
100
AcDbText
  0
TEXT
  5
510
330
5AE
100
AcDbEntity
  8
_0
  6
Continuous
 62
     7
370
    30
100
AcDbText
 10
35.244833
 20
4.628156
 30
0.0
 40
0.12
  1
1'
 41
0.833333
  7
Style-Arial
100
AcDbText
  0
TEXT
  5
511
330
5AE
100
AcDbEntity
  8
_0
  6
Continuous
 62
     7
370
    30
100
AcDbText
 10
32.481833
 20
5.070906
 30
0.0
 40
0.12
  1
2% TYP.
 50
358.806511
 41
0.833333
  7
Style-Arial
100
AcDbText
  0
TEXT
  5
512
330
5AE
100
AcDbEntity
  8
_0
  6
Continuous
 62
     7
370
    30
100
AcDbText
 10
31.229948
 20
5.774469
 30
0.0
 40
0.12
  1
TIE
 50
358.806511
 41
0.833333
  7
Style-Arial
100
AcDbText
  0
TEXT
  5
513
330
5AE
100
AcDbEntity
  8
_0
  6
Continuous
 62
     7
370
    30
100
AcDbText
 10
29.072323
 20
5.044521
 30
0.0
 40
0.12
  1
2% TYP.
 50
1.169172
 41
0.833333
  7
Style-Arial
100
AcDbText
  0
TEXT
  5
514
330
5AE
100
AcDbEntity
  8
DIM
  6
Continuous
 62
     7
370
    30
100
AcDbText
 10
27.872229
 20
4.672229
 30
0.0
 40
0.12
  1
FILL
 41
0.833333
  7
Style-Arial
100
AcDbText
  0
TEXT
  5
515
330
5AE
100
AcDbEntity
  8
NOTES
  6
Continuous
 62
     7
370
    30
100
AcDbText
 10
28.559401
 20
3.217312
 30
0.0
 40
0.12
  1
TRAFFIC DENSITY, AND WHEEL LOADS.
 41
0.833333
  7
Style-Arial
100
AcDbText
  0
TEXT
  5
516
330
5AE
100
AcDbEntity
  8
NOTES
  6
Continuous
 62
     7
370
    30
100
AcDbText
 10
28.553434
 20
2.834812
 30
0.0
 40
0.12
  1
BOTTOM OF TIE.
 41
0.833333
  7
Style-Arial
100
AcDbText
  0
TEXT
  5
517
330
5AE
100
AcDbEntity
  8
NOTES
  6
Continuous
 62
     7
370
    30
100
AcDbText
 10
27.797337
 20
3.406406
 30
0.0
 40
0.12
  1
NOTES: 1.  DEPTH OF BALLAST SECTION WILL DEPEND ON SUBGRADE STRENGTH,
 41
0.833333
  7
Style-Arial
100
AcDbText
  0
TEXT
  5
518
330
5AE
100
AcDbEntity
  8
NOTES
  6
Continuous
 62
     7
370
    30
100
AcDbText
 10
28.356354
 20
3.007073
 30
0.0
 40
0.12
  1
2.  MINIMUM DEPTH OF BALLAST/SUBBALLAST IS 10 INCHES BELOW
 41
0.833333
  7
Style-Arial
100
AcDbText
  0
TEXT
  5
519
330
5AE
100
AcDbEntity
  8
NOTES
  6
Continuous
 62
     7
370
    30
100
AcDbText
 10
28.35475
 20
2.581083
 30
0.0
 40
0.12
  1
3.  THICKNESS OF BALLAST AND SUBBALLAST MAY BE VARIED TO OBTAIN
 41
0.833333
  7
Style-Arial
100
AcDbText
  0
TEXT
  5
51A
330
5AE
100
AcDbEntity
  8
NOTES
  6
Continuous
 62
     7
370
    30
100
AcDbText
 10
28.357802
 20
1.949104
 30
0.0
 40
0.12
  1
4.  CUT OR FILL ACCORDING TO LOCAL CONDITIONS.
 41
0.833333
  7
Style-Arial
100
AcDbText
  0
TEXT
  5
51B
330
5AE
100
AcDbEntity
  8
TEXT
  6
Continuous
 62
     7
370
    30
100
AcDbText
 10
30.970292
 20
3.835062
 30
0.0
 40
0.12
  1
NOT TO SCALE
 41
0.833333
  7
Style-Arial
100
AcDbText
  0
ENDSEC
  0
SECTION
  2
OBJECTS
  0
DICTIONARY
  5
5A2
330
0
100
AcDbDictionary
281
     1
  3
ACAD_COLOR
350
5C1
  3
ACAD_GROUP
350
5BE
  3
ACAD_LAYOUT
350
5B2
  3
ACAD_MATERIAL
350
5C0
  3
ACAD_MLINESTYLE
350
5AC
  3
ACAD_PLOTSETTINGS
350
5BF
  3
ACAD_PLOTSTYLENAME
350
5A1
  3
ACAD_TABLESTYLE
350
5DB
  3
AcadDim
350
5CE
  3
MicroStation
350
5C6
  0
DICTIONARY
  5
59E
330
59D
100
AcDbDictionary
280
     1
281
     1
  3
ACAD_LAYERFILTERS
360
5C5
  3
ACAD_LAYERSTATES
360
59F
  0
DICTIONARY
  5
5D7
330
5AE
100
AcDbDictionary
280
     1
281
     1
  3
ACAD_SORTENTS
360
5D8
  0
DICTIONARY
  5
5C1
102
{ACAD_REACTORS
330
5A2
102
}
330
5A2
100
AcDbDictionary
281
     1
  0
DICTIONARY
  5
5BE
102
{ACAD_REACTORS
330
5A2
102
}
330
5A2
100
AcDbDictionary
281
     1
  0
DICTIONARY
  5
5B2
102
{ACAD_REACTORS
330
5A2
102
}
330
5A2
100
AcDbDictionary
281
     1
  3
Layout1
350
5B6
  3
Model
350
5B1
  0
DICTIONARY
  5
5C0
102
{ACAD_REACTORS
330
5A2
102
}
330
5A2
100
AcDbDictionary
281
     1
  0
DICTIONARY
  5
5AC
102
{ACAD_REACTORS
330
5A2
102
}
330
5A2
100
AcDbDictionary
281
     1
  3
Standard
350
5AB
  0
DICTIONARY
  5
5BF
102
{ACAD_REACTORS
330
5A2
102
}
330
5A2
100
AcDbDictionary
281
     1
  0
ACDBDICTIONARYWDFLT
  5
5A1
102
{ACAD_REACTORS
330
5A2
102
}
330
5A2
100
AcDbDictionary
281
     1
  3
Normal
350
5A0
100
AcDbDictionaryWithDefault
340
5A0
  0
DICTIONARY
  5
5DB
102
{ACAD_REACTORS
330
5A2
102
}
330
5A2
100
AcDbDictionary
281
     1
  0
XRECORD
  5
5CE
102
{ACAD_REACTORS
330
5A2
102
}
330
5A2
100
AcDbXrecord
280
     1
 90
   990106
  3
 
 60
     0
 61
     0
 62
     1
 63
     1
 64
     0
 65
     0
 66
     0
 67
     3
 68
     1
 69
     1
 70
     0
 71
     0
 72
     0
 40
0.0
170
     0
  0
DICTIONARY
  5
5C6
102
{ACAD_REACTORS
330
5A2
102
}
330
5A2
100
AcDbDictionary
281
     1
  3
ApplicationElement 1426
350
592
  3
ApplicationElement 1433
350
599
  3
ApplicationElement 1434
350
59A
  3
ModelApplicationElement 0 1425
350
591
  0
DICTIONARY
  5
5C5
102
{ACAD_REACTORS
330
59E
102
}
330
59E
100
AcDbDictionary
281
     1
  0
DICTIONARY
  5
59F
102
{ACAD_REACTORS
330
59E
102
}
330
59E
100
AcDbDictionary
281
     1
  0
SORTENTSTABLE
  5
5D8
102
{ACAD_REACTORS
330
5D7
102
}
330
5D7
100
AcDbSortentsTable
330
5AE
331
1BB
  5
4C9
331
1BC
  5
1BB
331
1BD
  5
1BC
331
1BE
  5
1BD
331
1BF
  5
1BE
331
1C0
  5
1BF
331
1C1
  5
1C0
331
1C2
  5
1C1
331
1C3
  5
1C2
331
1C4
  5
1C3
331
1C5
  5
1C4
331
1C6
  5
1C5
331
1C7
  5
1C6
331
1C8
  5
1C7
331
1C9
  5
1C8
331
1CA
  5
1C9
331
1CB
  5
1CA
331
1CC
  5
1CB
331
1CD
  5
1CC
331
1CE
  5
1CD
331
1CF
  5
1CE
331
1D0
  5
1CF
331
1D1
  5
1D0
331
1D2
  5
1D1
331
1D3
  5
1D2
331
1D4
  5
1D3
331
1D5
  5
1D4
331
1D6
  5
1D5
331
1D7
  5
1D6
331
1D8
  5
1D7
331
1D9
  5
1D8
331
1DA
  5
1D9
331
1DB
  5
1DA
331
1DC
  5
1DB
331
1DD
  5
1DC
331
1DE
  5
1DD
331
1DF
  5
1DE
331
1E0
  5
1DF
331
1E1
  5
1E0
331
1E2
  5
1E1
331
1E3
  5
1E2
331
1E4
  5
1E3
331
1E5
  5
1E4
331
1E6
  5
1E5
331
1E7
  5
1E6
331
1E8
  5
1E7
331
1E9
  5
1E8
331
1EA
  5
1E9
331
1EB
  5
1EA
331
1EC
  5
1EB
331
1ED
  5
1EC
331
1EE
  5
1ED
331
1EF
  5
1EE
331
1F0
  5
1EF
331
1F1
  5
1F0
331
1F2
  5
1F1
331
1F3
  5
1F2
331
1F4
  5
1F3
331
1F5
  5
1F4
331
1F6
  5
1F5
331
1F7
  5
1F6
331
1F8
  5
1F7
331
1F9
  5
1F8
331
1FA
  5
1F9
331
1FB
  5
1FA
331
1FC
  5
1FB
331
1FD
  5
1FC
331
1FE
  5
1FD
331
1FF
  5
1FE
331
200
  5
1FF
331
201
  5
200
331
202
  5
201
331
203
  5
202
331
204
  5
203
331
205
  5
204
331
206
  5
205
331
207
  5
206
331
208
  5
207
331
209
  5
208
331
20A
  5
209
331
20B
  5
20A
331
20C
  5
20B
331
20D
  5
20C
331
20E
  5
20D
331
20F
  5
20E
331
210
  5
20F
331
211
  5
210
331
212
  5
211
331
213
  5
212
331
214
  5
213
331
215
  5
214
331
216
  5
215
331
217
  5
216
331
218
  5
217
331
219
  5
218
331
21A
  5
219
331
21B
  5
21A
331
21C
  5
21B
331
21D
  5
21C
331
21E
  5
21D
331
21F
  5
21E
331
220
  5
21F
331
221
  5
220
331
222
  5
221
331
223
  5
222
331
224
  5
223
331
225
  5
224
331
226
  5
225
331
227
  5
226
331
228
  5
227
331
229
  5
228
331
22A
  5
229
331
22B
  5
22A
331
22C
  5
22B
331
22D
  5
22C
331
22E
  5
22D
331
22F
  5
22E
331
230
  5
22F
331
231
  5
230
331
232
  5
231
331
233
  5
232
331
234
  5
233
331
235
  5
234
331
236
  5
235
331
237
  5
236
331
238
  5
237
331
239
  5
238
331
23A
  5
239
331
23B
  5
23A
331
23C
  5
23B
331
23D
  5
23C
331
23E
  5
23D
331
23F
  5
23E
331
240
  5
23F
331
241
  5
240
331
242
  5
241
331
243
  5
242
331
244
  5
243
331
245
  5
244
331
246
  5
245
331
247
  5
246
331
248
  5
247
331
249
  5
248
331
24A
  5
249
331
24B
  5
24A
331
24C
  5
24B
331
24D
  5
24C
331
24E
  5
24D
331
24F
  5
24E
331
250
  5
24F
331
251
  5
250
331
252
  5
251
331
253
  5
252
331
254
  5
253
331
255
  5
254
331
256
  5
255
331
257
  5
256
331
258
  5
257
331
259
  5
258
331
25A
  5
259
331
25B
  5
25A
331
25C
  5
25B
331
25D
  5
25C
331
25E
  5
25D
331
25F
  5
25E
331
260
  5
25F
331
261
  5
260
331
262
  5
261
331
263
  5
262
331
264
  5
263
331
265
  5
264
331
266
  5
265
331
267
  5
266
331
268
  5
267
331
269
  5
268
331
26A
  5
269
331
26B
  5
26A
331
26C
  5
26B
331
26D
  5
26C
331
26E
  5
26D
331
26F
  5
26E
331
270
  5
26F
331
271
  5
270
331
272
  5
271
331
273
  5
272
331
274
  5
273
331
275
  5
274
331
276
  5
275
331
277
  5
276
331
278
  5
277
331
279
  5
278
331
27A
  5
279
331
27B
  5
27A
331
27C
  5
27B
331
27D
  5
27C
331
27E
  5
27D
331
27F
  5
27E
331
280
  5
27F
331
281
  5
280
331
282
  5
281
331
283
  5
282
331
284
  5
283
331
285
  5
284
331
286
  5
285
331
287
  5
286
331
288
  5
287
331
289
  5
288
331
28A
  5
289
331
28B
  5
28A
331
28C
  5
28B
331
28D
  5
28C
331
28E
  5
28D
331
28F
  5
28E
331
290
  5
28F
331
291
  5
290
331
292
  5
291
331
293
  5
292
331
294
  5
293
331
295
  5
294
331
296
  5
295
331
297
  5
296
331
298
  5
297
331
299
  5
298
331
29A
  5
299
331
29B
  5
29A
331
29C
  5
29B
331
29D
  5
29C
331
29E
  5
29D
331
29F
  5
29E
331
2A0
  5
29F
331
2A1
  5
2A0
331
2A2
  5
2A1
331
2A3
  5
2A2
331
2A4
  5
2A3
331
2A5
  5
2A4
331
2A6
  5
2A5
331
2A7
  5
2A6
331
2A8
  5
2A7
331
2A9
  5
2A8
331
2AA
  5
2A9
331
2AB
  5
2AA
331
2AC
  5
2AB
331
2AD
  5
2AC
331
2AE
  5
2AD
331
2AF
  5
2AE
331
2B0
  5
2AF
331
2B1
  5
2B0
331
2B2
  5
2B1
331
2B3
  5
2B2
331
2B4
  5
2B3
331
2B5
  5
2B4
331
2B6
  5
2B5
331
2B7
  5
2B6
331
2B8
  5
2B7
331
2B9
  5
2B8
331
2BA
  5
2B9
331
2BB
  5
2BA
331
2BC
  5
2BB
331
2BD
  5
2BC
331
2BE
  5
2BD
331
2BF
  5
2BE
331
2C0
  5
2BF
331
2C1
  5
2C0
331
2C2
  5
2C1
331
2C3
  5
2C2
331
2C4
  5
2C3
331
2C5
  5
2C4
331
2C6
  5
2C5
331
2C7
  5
2C6
331
2C8
  5
2C7
331
2C9
  5
2C8
331
2CA
  5
2C9
331
2CB
  5
2CA
331
2CC
  5
2CB
331
2CD
  5
2CC
331
2CE
  5
2CD
331
2CF
  5
2CE
331
2D0
  5
2CF
331
2D1
  5
2D0
331
2D2
  5
2D1
331
2D3
  5
2D2
331
2D4
  5
2D3
331
2D5
  5
2D4
331
2D6
  5
2D5
331
2D7
  5
2D6
331
2D8
  5
2D7
331
2D9
  5
2D8
331
2DA
  5
2D9
331
2DB
  5
2DA
331
2DC
  5
2DB
331
2DD
  5
2DC
331
2DE
  5
2DD
331
2DF
  5
2DE
331
2E0
  5
2DF
331
2E1
  5
2E0
331
2E2
  5
2E1
331
2E3
  5
2E2
331
2E4
  5
2E3
331
2E5
  5
2E4
331
2E6
  5
2E5
331
2E7
  5
2E6
331
2E8
  5
2E7
331
2E9
  5
2E8
331
2EA
  5
2E9
331
2EB
  5
2EA
331
2EC
  5
2EB
331
2ED
  5
2EC
331
2EE
  5
2ED
331
2EF
  5
2EE
331
2F0
  5
2EF
331
2F1
  5
2F0
331
2F2
  5
2F1
331
2F3
  5
2F2
331
2F4
  5
2F3
331
2F5
  5
2F4
331
2F6
  5
2F5
331
2F7
  5
2F6
331
2F8
  5
2F7
331
2F9
  5
2F8
331
2FA
  5
2F9
331
2FB
  5
2FA
331
2FC
  5
2FB
331
2FD
  5
2FC
331
2FE
  5
2FD
331
2FF
  5
2FE
331
300
  5
2FF
331
301
  5
300
331
302
  5
301
331
303
  5
302
331
304
  5
303
331
305
  5
304
331
306
  5
305
331
307
  5
306
331
308
  5
307
331
309
  5
308
331
30A
  5
309
331
30B
  5
30A
331
30C
  5
30B
331
30D
  5
30C
331
30E
  5
30D
331
30F
  5
30E
331
310
  5
30F
331
311
  5
310
331
312
  5
311
331
313
  5
312
331
314
  5
313
331
315
  5
314
331
316
  5
315
331
317
  5
316
331
318
  5
317
331
319
  5
318
331
31A
  5
319
331
31B
  5
31A
331
31C
  5
31B
331
31D
  5
31C
331
31E
  5
31D
331
31F
  5
31E
331
320
  5
31F
331
321
  5
320
331
322
  5
321
331
323
  5
322
331
324
  5
323
331
325
  5
324
331
326
  5
325
331
327
  5
326
331
328
  5
327
331
329
  5
328
331
32A
  5
329
331
32B
  5
32A
331
32C
  5
32B
331
32D
  5
32C
331
32E
  5
32D
331
32F
  5
32E
331
330
  5
32F
331
331
  5
330
331
332
  5
331
331
333
  5
332
331
334
  5
333
331
335
  5
334
331
336
  5
335
331
337
  5
336
331
338
  5
337
331
339
  5
338
331
33A
  5
339
331
33B
  5
33A
331
33C
  5
33B
331
33D
  5
33C
331
33E
  5
33D
331
33F
  5
33E
331
340
  5
33F
331
341
  5
340
331
342
  5
341
331
343
  5
342
331
344
  5
343
331
345
  5
344
331
346
  5
345
331
347
  5
346
331
348
  5
347
331
349
  5
348
331
34A
  5
349
331
34B
  5
34A
331
34C
  5
34B
331
34D
  5
34C
331
34E
  5
34D
331
34F
  5
34E
331
350
  5
34F
331
351
  5
350
331
352
  5
351
331
353
  5
352
331
354
  5
353
331
355
  5
354
331
356
  5
355
331
357
  5
356
331
358
  5
357
331
359
  5
358
331
35A
  5
359
331
35B
  5
35A
331
35C
  5
35B
331
35D
  5
35C
331
35E
  5
35D
331
35F
  5
35E
331
360
  5
35F
331
361
  5
360
331
362
  5
361
331
363
  5
362
331
364
  5
363
331
365
  5
364
331
366
  5
365
331
367
  5
366
331
368
  5
367
331
369
  5
368
331
36A
  5
369
331
36B
  5
36A
331
36C
  5
36B
331
36D
  5
36C
331
36E
  5
36D
331
36F
  5
36E
331
370
  5
36F
331
371
  5
370
331
372
  5
371
331
373
  5
372
331
374
  5
373
331
375
  5
374
331
376
  5
375
331
377
  5
376
331
378
  5
377
331
379
  5
378
331
37A
  5
379
331
37B
  5
37A
331
37C
  5
37B
331
37D
  5
37C
331
37E
  5
37D
331
37F
  5
37E
331
380
  5
37F
331
381
  5
380
331
382
  5
381
331
383
  5
382
331
384
  5
383
331
385
  5
384
331
386
  5
385
331
387
  5
386
331
388
  5
387
331
389
  5
388
331
38A
  5
389
331
38B
  5
38A
331
38C
  5
38B
331
38D
  5
38C
331
38E
  5
38D
331
38F
  5
38E
331
390
  5
38F
331
391
  5
390
331
392
  5
391
331
393
  5
392
331
394
  5
393
331
395
  5
394
331
396
  5
395
331
397
  5
396
331
398
  5
397
331
399
  5
398
331
39A
  5
399
331
39B
  5
39A
331
39C
  5
39B
331
39D
  5
39C
331
39E
  5
39D
331
39F
  5
39E
331
3A0
  5
39F
331
3A1
  5
3A0
331
3A2
  5
3A1
331
3A3
  5
3A2
331
3A4
  5
3A3
331
3A5
  5
3A4
331
3A6
  5
3A5
331
3A7
  5
3A6
331
3A8
  5
3A7
331
3A9
  5
3A8
331
3AA
  5
3A9
331
3AB
  5
3AA
331
3AC
  5
3AB
331
3AD
  5
3AC
331
3AE
  5
3AD
331
3AF
  5
3AE
331
3B0
  5
3AF
331
3B1
  5
3B0
331
3B2
  5
3B1
331
3B3
  5
3B2
331
3B4
  5
3B3
331
3B5
  5
3B4
331
3B6
  5
3B5
331
3B7
  5
3B6
331
3B8
  5
3B7
331
3B9
  5
3B8
331
3BA
  5
3B9
331
3BB
  5
3BA
331
3BC
  5
3BB
331
3BD
  5
3BC
331
3BE
  5
3BD
331
3BF
  5
3BE
331
3C0
  5
3BF
331
3C1
  5
3C0
331
3C2
  5
3C1
331
3C3
  5
3C2
331
3C4
  5
3C3
331
3C5
  5
3C4
331
3C6
  5
3C5
331
3C7
  5
3C6
331
3C8
  5
3C7
331
3C9
  5
3C8
331
3CA
  5
3C9
331
3CB
  5
3CA
331
3CC
  5
3CB
331
3CD
  5
3CC
331
3CE
  5
3CD
331
3CF
  5
3CE
331
3D0
  5
3CF
331
3D1
  5
3D0
331
3D2
  5
3D1
331
3D3
  5
3D2
331
3D4
  5
3D3
331
3D5
  5
3D4
331
3D6
  5
3D5
331
3D7
  5
3D6
331
3D8
  5
3D7
331
3D9
  5
3D8
331
3DA
  5
3D9
331
3DB
  5
3DA
331
3DC
  5
3DB
331
3DD
  5
3DC
331
3DE
  5
3DD
331
3DF
  5
3DE
331
3E0
  5
3DF
331
3E1
  5
3E0
331
3E2
  5
3E1
331
3E3
  5
3E2
331
3E4
  5
3E3
331
3E5
  5
3E4
331
3E6
  5
3E5
331
3E7
  5
3E6
331
3E8
  5
3E7
331
3E9
  5
3E8
331
3EA
  5
3E9
331
3EB
  5
3EA
331
3EC
  5
3EB
331
3ED
  5
3EC
331
3EE
  5
3ED
331
3EF
  5
3EE
331
3F0
  5
3EF
331
3F1
  5
3F0
331
3F2
  5
3F1
331
3F3
  5
3F2
331
3F4
  5
3F3
331
3F5
  5
3F4
331
3F6
  5
3F5
331
3F7
  5
3F6
331
3F8
  5
3F7
331
3F9
  5
3F8
331
3FA
  5
3F9
331
3FB
  5
3FA
331
3FC
  5
3FB
331
3FD
  5
3FC
331
3FE
  5
3FD
331
3FF
  5
3FE
331
400
  5
3FF
331
401
  5
400
331
402
  5
401
331
403
  5
402
331
404
  5
403
331
405
  5
404
331
406
  5
405
331
407
  5
406
331
408
  5
407
331
409
  5
408
331
40A
  5
409
331
40B
  5
40A
331
40C
  5
40B
331
40D
  5
40C
331
40E
  5
40D
331
40F
  5
40E
331
410
  5
40F
331
411
  5
410
331
412
  5
411
331
413
  5
412
331
414
  5
413
331
415
  5
414
331
416
  5
415
331
417
  5
416
331
418
  5
417
331
419
  5
418
331
41A
  5
419
331
41B
  5
41A
331
41C
  5
41B
331
41D
  5
41C
331
41E
  5
41D
331
41F
  5
41E
331
420
  5
41F
331
421
  5
420
331
422
  5
421
331
423
  5
422
331
424
  5
423
331
425
  5
424
331
426
  5
425
331
427
  5
426
331
428
  5
427
331
429
  5
428
331
42A
  5
429
331
42B
  5
42A
331
42C
  5
42B
331
42D
  5
42C
331
42E
  5
42D
331
42F
  5
42E
331
430
  5
42F
331
431
  5
430
331
432
  5
431
331
433
  5
432
331
434
  5
433
331
435
  5
434
331
436
  5
435
331
437
  5
436
331
438
  5
437
331
439
  5
438
331
43A
  5
439
331
43B
  5
43A
331
43C
  5
43B
331
43D
  5
43C
331
43E
  5
43D
331
43F
  5
43E
331
440
  5
43F
331
441
  5
440
331
442
  5
441
331
443
  5
442
331
444
  5
443
331
445
  5
444
331
446
  5
445
331
447
  5
446
331
448
  5
447
331
449
  5
448
331
44A
  5
449
331
44B
  5
44A
331
44C
  5
44B
331
44D
  5
44C
331
44E
  5
44D
331
44F
  5
44E
331
450
  5
44F
331
451
  5
450
331
452
  5
451
331
453
  5
452
331
454
  5
453
331
455
  5
454
331
456
  5
455
331
457
  5
456
331
458
  5
457
331
459
  5
458
331
45A
  5
459
331
45B
  5
45A
331
45C
  5
45B
331
45D
  5
45C
331
45E
  5
45D
331
45F
  5
45E
331
460
  5
45F
331
461
  5
460
331
462
  5
461
331
463
  5
462
331
464
  5
463
331
465
  5
464
331
466
  5
465
331
467
  5
466
331
468
  5
467
331
469
  5
468
331
46A
  5
469
331
46B
  5
46A
331
46C
  5
46B
331
46D
  5
4CA
331
46E
  5
4CB
331
46F
  5
4CC
331
470
  5
4CD
331
471
  5
4CE
331
472
  5
46C
331
473
  5
46D
331
474
  5
46E
331
475
  5
46F
331
476
  5
470
331
477
  5
471
331
478
  5
4CF
331
479
  5
4D0
331
47A
  5
4D2
331
47B
  5
472
331
47C
  5
4D4
331
47D
  5
4D6
331
47E
  5
473
331
47F
  5
474
331
480
  5
4D8
331
481
  5
475
331
482
  5
476
331
483
  5
4DA
331
484
  5
4DC
331
485
  5
477
331
486
  5
478
331
487
  5
4DE
331
488
  5
4E0
331
489
  5
4E2
331
48A
  5
479
331
48B
  5
4E4
331
48C
  5
47A
331
48D
  5
47B
331
48E
  5
4E6
331
48F
  5
4E8
331
490
  5
4EA
331
491
  5
4EC
331
492
  5
47C
331
493
  5
47D
331
494
  5
47E
331
495
  5
47F
331
496
  5
480
331
497
  5
481
331
498
  5
482
331
499
  5
483
331
49A
  5
484
331
49B
  5
4EE
331
49C
  5
4EF
331
49D
  5
485
331
49E
  5
4F0
331
49F
  5
486
331
4A0
  5
487
331
4A1
  5
488
331
4A2
  5
489
331
4A3
  5
48A
331
4A4
  5
4F1
331
4A5
  5
4F2
331
4A6
  5
4F3
331
4A7
  5
4F4
331
4A8
  5
48B
331
4A9
  5
48C
331
4AA
  5
4F5
331
4AB
  5
48D
331
4AC
  5
48E
331
4AD
  5
48F
331
4AE
  5
4F6
331
4AF
  5
490
331
4B0
  5
4F7
331
4B1
  5
491
331
4B2
  5
492
331
4B3
  5
493
331
4B4
  5
4F8
331
4B5
  5
494
331
4B6
  5
495
331
4B7
  5
4F9
331
4B8
  5
4FA
331
4B9
  5
505
331
4BA
  5
496
331
4BB
  5
497
331
4BC
  5
498
331
4BD
  5
499
331
4BE
  5
49A
331
4BF
  5
49B
331
4C0
  5
49C
331
4C1
  5
49D
331
4C2
  5
49E
331
4C3
  5
49F
331
4C4
  5
4A0
331
4C5
  5
4A1
331
4C6
  5
4A2
331
4C7
  5
4A3
331
4C8
  5
4A4
331
4C9
  5
4A5
331
4CA
  5
4A6
331
4CB
  5
4A7
331
4CC
  5
4A8
331
4CD
  5
4A9
331
4CE
  5
510
331
4CF
  5
4AA
331
4D0
  5
4AB
331
4D2
  5
4AC
331
4D4
  5
4AD
331
4D6
  5
4AE
331
4D8
  5
4AF
331
4DA
  5
4B0
331
4DC
  5
4B1
331
4DE
  5
4B2
331
4E0
  5
4B3
331
4E2
  5
4B4
331
4E4
  5
4B5
331
4E6
  5
4B6
331
4E8
  5
4B7
331
4EA
  5
4B8
331
4EC
  5
4B9
331
4EE
  5
4BA
331
4EF
  5
4BB
331
4F0
  5
4BC
331
4F1
  5
4BD
331
4F2
  5
511
331
4F3
  5
512
331
4F4
  5
513
331
4F5
  5
4BE
331
4F6
  5
4BF
331
4F7
  5
4C0
331
4F8
  5
4C1
331
4F9
  5
4C2
331
4FA
  5
4C3
331
505
  5
4C4
331
510
  5
514
331
511
  5
515
331
512
  5
516
331
513
  5
517
331
514
  5
518
331
515
  5
519
331
516
  5
51A
331
517
  5
51B
331
518
  5
51C
331
519
  5
527
331
51A
  5
532
331
51B
  5
53D
331
51C
  5
4C5
331
527
  5
4C6
331
532
  5
4C7
331
53D
  5
4C8
  0
LAYOUT
  5
5B6
102
{ACAD_REACTORS
330
5B2
330
5B2
102
}
102
{ACAD_XDICTIONARY
360
5B7
102
}
330
5B2
100
AcDbPlotSettings
  1

  2
none_device
  4
Letter_(8.50_x_11.00_Inches)
  6

 40
6.35
 41
6.35
 42
6.350006
 43
6.350006
 44
215.899994
 45
279.399994
 46
0.0
 47
0.0
 48
0.0
 49
0.0
140
0.0
141
0.0
142
1.0
143
1.0
 70
   688
 72
     0
 73
     1
 74
     5
  7

 75
    16
 76
     0
 77
     2
 78
   300
147
1.0
148
0.0
149
0.0
100
AcDbLayout
  1
Layout1
 70
     1
 71
     1
 10
-0.25
 20
-0.25
 11
10.75
 21
8.25
 12
0.0
 22
0.0
 32
0.0
 14
1.049744
 24
0.799667
 34
-0.001526
 15
9.450623
 25
7.200577
 35
0.0
146
0.0
 13
0.0
 23
0.0
 33
0.0
 16
1.0
 26
0.0
 36
0.0
 17
0.0
 27
1.0
 37
0.0
 76
     0
330
5B3
1001
ACAD_PSEXT
1000
None
1000
None
1000
Not applicable
1000
The layout will not be plotted unless a new plotter configuration name is selected.
1070
     0
  0
LAYOUT
  5
5B1
102
{ACAD_REACTORS
330
5B2
330
5B2
102
}
330
5B2
100
AcDbPlotSettings
  1

  2
none_device
  4
ANSI_A_(8.50_x_11.00_Inches)
  6

 40
6.35
 41
19.049999
 42
6.350006
 43
19.049988
 44
215.899994
 45
279.399994
 46
0.0
 47
0.0
 48
0.0
 49
0.0
140
0.0
141
0.0
142
1.0
143
2.584895
 70
 11952
 72
     0
 73
     1
 74
     0
  7

 75
     0
 76
     0
 77
     2
 78
   300
147
0.386863
148
0.0
149
0.0
100
AcDbLayout
  1
Model
 70
     1
 71
     0
 10
0.0
 20
0.0
 11
12.0
 21
9.0
 12
0.0
 22
0.0
 32
0.0
 14
0.0
 24
0.0
 34
0.0
 15
0.0
 25
0.0
 35
0.0
146
0.0
 13
0.0
 23
0.0
 33
0.0
 16
1.0
 26
0.0
 36
0.0
 17
0.0
 27
1.0
 37
0.0
 76
     0
330
5AE
331
49
  0
MLINESTYLE
  5
5AB
102
{ACAD_REACTORS
330
5AC
102
}
330
5AC
100
AcDbMlineStyle
  2
STANDARD
 70
     0
  3

 62
   256
 51
90.0
 52
90.0
 71
     2
 49
0.5
 62
   256
  6
BYLAYER
 49
-0.5
 62
   256
  6
BYLAYER
  0
ACDBPLACEHOLDER
  5
5A0
102
{ACAD_REACTORS
330
5A1
102
}
330
5A1
  0
XRECORD
  5
592
102
{ACAD_REACTORS
330
5C6
102
}
330
5C6
100
AcDbXrecord
280
     1
310
3E4F020000004D6F64656C6572000000000000000000000000000000000000000000000000000000000000000000000000000000000000000000000000000000000000000000000000000000000000000000000000000000000000000000000000000000000000000000000000000000000000000000000000000000000000
310
00000000000000000000000000000000000000000000000000000000000000000000000000000000000000000000000000000000000000000000000000000000000000000000000000000000000000000000000000000000000000000000000000000000000000000000000000000000000000000000000000000000000000
310
00
310
00000000000000000000000000000000000000000000000000000000000000000000000000000000000000000000000000000000000000000000000000000000000000000000000000000000000000000000000000000000000000000000000000000000000000000000000000000000000000000000000000000000000000
310
00000000000000000000000000000000000000000000000000000000000000000000000000000000000000000000000000000000000000000000000000000000000000000000000000000000000000000000000000000000000000000000000000000000000000000000000000000000000000000000000000000000000000
310
00
310
00000000000000000000000000000000000000000000000000000000000000000000000000000000000000000000000000000000000000000000000000000000000000000000000000000000000000000000000000000000000000000000000000000000000000000000000000000000000000000000000000000000000000
310
00000000000000000000000000000000000000000000000000000000000000000000000000000000000000000000000000000000000000000000000000000000000000000000000000000000000000000000000000000000000000000000000000000000000000000000000000000000000000000000000000000000000000
310
00
310
00000000000000000000000000000000000000000000000000000000000000000000000000000000000000000000000000000000000000000000000000000000000000000000000000000000000000000000000000000000000000000000000000000000000000000000000000000000000000000000000000000000000000
310
00000000000000000000000000000000000000000000000000000000000000000000000000000000000000000000000000000000000000000000000000000000000000000000000000000000000000000000000000000000000000000000000000000000000000000000000000000000000000000000000000000000000000
310
00
310
00000000000000000000000000000000000000000000000000000000000000000000000000000000000000000000000000000000000000000000000000000000000000000000000000000000000000000000000000000000000000000000000000000000000000000000000000000000000000000000000000000000000000
310
00000000000000000000000000000000000000000000000000000000000000000000000000000000000000000000000000000000000000000000000000000000000000000000000000000000000000000000000000000000000000000000000000000000000000000000000000000000000000000000000000000000000000
310
00
310
00000000000000000000000000000000000000000000000000000000000000000000000000000000000000000000000000000000000000000000000000000000000000000000000000000000000000000000000000000000000000000000000000000000000000000000000000000000000000000000000000000000000000
310
00000000000000000000000000000000000000000000000000000000000000000000000000000000000000000000000000000000000000000000000000000000000000000000000000000000000000000000000000000000000000000000000000000000000000000000000000000000000000000000000000000000000000
310
00
310
00000000000000000000000000000000000000000000000000000000000000000000000000000000000000000000000000000000000000000000000000000000000000000000000000000000000000000000000000000000000000000000000000000000000000000000000000000000000000000000000000000000000000
310
00000000000000000000000000000000000000000000000000000000000000000000000000000000000000000000000000000000000000000000000000000000000000000000000000000000000000000000000000000000000000000000000000000000000000000000000000000000000000000000000000000000000000
310
00
310
00000000000000000000000000000000000000000000000000000000000000000000000000000000000000000000000000000000000000000000000000000000000000000000000000000000000000000000000000000000000000000000000000000000000000000000000000000000000000000000000000000000000000
310
00000000000000000000000000000000000000000000000000000000000000000000000000000000000000000000000000000000000000000000000000000000000000000000000000000000000000000000000000000000000000000000000000000000000000000000000000000000000000000000000000000000000000
310
00
310
00000000000000000000000000000000000000000000000000000000000000000000000000000000000000000000000000000000000000000000000000000000000000000000000000000000000000000000000000000000000000000000000000000000000000000000000000000000000000000000000000000000000000
310
00000000000000000000000000000000000000000000000000000000000000000000000000000000000000000000000000000000000000000000000000000000000000000000000000000000000000000000000000000000000000000000000000000000000000000000000000000000000000000000000000000000000000
310
00
310
00000000000000000000000000000000000000000000000000000000000000000000000000000000000000000000000000000000000000000000000000000000000000000000000000000000000000000000000000000000000000000000000000000000000000000000000000000000000000000000000000000000000000
310
00000000000000000000000000000000000000000000000000000000000000000000000000000000000000000000000000000000000000000000000000000000000000000000000000000000000000000000000000000000000000000000000000000000000000000000000000000000000000000000000000000000000000
310
00
310
00000000000000000000000000000000000000000000000000000000000000000000000000000000000000000000000000000000000000000000000000000000000000000000000000000000000000000000000000000000000000000000000000000000000000000000000000000000000000000000000000000000000000
310
00000000000000000000000000000000000000000000000000000000000000000000000000000000000000000000000000000000000000000000000000000000000000000000000000000000000000000000000000000000000000000000000000000000000000000000000000000000000000000000000000000000000000
310
00
310
00000000000000000000000000000000000000000000000000000000000000000000000000000000000000000000000000000000000000000000000000000000000000000000000000000000000000000000000000000000000000000000000000000000000000000000000000000000000000000000000000000000000000
310
00000000000000000000000000000000000000000000000000000000000000000000000000000000000000000000000000000000000000000000000000000000000000000000000000000000000000000000000000000000000000000000000000000000000000000000000000000000000000000000000000000000000000
310
00
310
00000000000000000000000000000000000000000000000000000000000000000000000000000000000000000000000000000000000000000000000000000000000000000000000000000000000000000000000000000000000000000000000000000000000000000000000000000000000000000000000000000000000000
310
00000000000000000000000000000000000000000000000000000000000000000000000000000000000000000000000000000000000000000000000000000000000000000000000000000000000000000000000000000000000000000000000000000000000000000000000000000000000000000000000000000000000000
310
00
310
00000000000000000000000000000000000000000000000000000000000000000000000000000000000000000000000000000000000000000000000000000000000000000000000000000000000000000000000000000000000000000000000000000000000000000000000000000000000000
  0
XRECORD
  5
599
102
{ACAD_REACTORS
330
5C6
102
}
330
5C6
100
AcDbXrecord
280
     1
310
3E4F020000004D6F64656C6572000000000000000000000000000000000000000000000000000000000000000000000000000000000000000000000000000000000000000000000000000000000000000000000000000000000000000000000000000000000000000000000000000000000000000000000000000000000000
310
00000000000000000000000000000000000000000000000000000000000000000000000000000000000000000000000000000000000000000000000000000000000000000000000000000000000000000000000000000000000000000000000000000000000000000000000000000000000000000000000000000000000000
310
00
310
00000000000000000000000000000000000000000000000000000000000000000000000000000000000000000000000000000000000000000000000000000000000000000000000000000000000000000000000000000000000000000000000000000000000000000000000000000000000000000000000000000000000000
310
00000000000000000000000000000000000000000000000000000000000000000000000000000000000000000000000000000000000000000000000000000000000000000000000000000000000000000000000000000000000000000000000000000000000000000000000000000000000000000000000000000000000000
310
00
310
00000000000000000000000000000000000000000000000000000000000000000000000000000000000000000000000000000000000000000000000000000000000000000000000000000000000000000000000000000000000000000000000000000000000000000000000000000000000000000000000000000000000000
310
00000000000000000000000000000000000000000000000000000000000000000000000000000000000000000000000000000000000000000000000000000000000000000000000000000000000000000000000000000000000000000000000000000000000000000000000000000000000000000000000000000000000000
310
00
310
00000000000000000000000000000000000000000000000000000000000000000000000000000000000000000000000000000000000000000000000000000000000000000000000000000000000000000000000000000000000000000000000000000000000000000000000000000000000000000000000000000000000000
310
00000000000000000000000000000000000000000000000000000000000000000000000000000000000000000000000000000000000000000000000000000000000000000000000000000000000000000000000000000000000000000000000000000000000000000000000000000000000000000000000000000000000000
310
00
310
00000000000000000000000000000000000000000000000000000000000000000000000000000000000000000000000000000000000000000000000000000000000000000000000000000000000000000000000000000000000000000000000000000000000000000000000000000000000000000000000000000000000000
310
00000000000000000000000000000000000000000000000000000000000000000000000000000000000000000000000000000000000000000000000000000000000000000000000000000000000000000000000000000000000000000000000000000000000000000000000000000000000000000000000000000000000000
310
00
310
00000000000000000000000000000000000000000000000000000000000000000000000000000000000000000000000000000000000000000000000000000000000000000000000000000000000000000000000000000000000000000000000000000000000000000000000000000000000000000000000000000000000000
310
00000000000000000000000000000000000000000000000000000000000000000000000000000000000000000000000000000000000000000000000000000000000000000000000000000000000000000000000000000000000000000000000000000000000000000000000000000000000000000000000000000000000000
310
00
310
00000000000000000000000000000000000000000000000000000000000000000000000000000000000000000000000000000000000000000000000000000000000000000000000000000000000000000000000000000000000000000000000000000000000000000000000000000000000000000000000000000000000000
310
00000000000000000000000000000000000000000000000000000000000000000000000000000000000000000000000000000000000000000000000000000000000000000000000000000000000000000000000000000000000000000000000000000000000000000000000000000000000000000000000000000000000000
310
00
310
00000000000000000000000000000000000000000000000000000000000000000000000000000000000000000000000000000000000000000000000000000000000000000000000000000000000000000000000000000000000000000000000000000000000000000000000000000000000000000000000000000000000000
310
00000000000000000000000000000000000000000000000000000000000000000000000000000000000000000000000000000000000000000000000000000000000000000000000000000000000000000000000000000000000000000000000000000000000000000000000000000000000000000000000000000000000000
310
00
310
00000000000000000000000000000000000000000000000000000000000000000000000000000000000000000000000000000000000000000000000000000000000000000000000000000000000000000000000000000000000000000000000000000000000000000000000000000000000000000000000000000000000000
310
00000000000000000000000000000000000000000000000000000000000000000000000000000000000000000000000000000000000000000000000000000000000000000000000000000000000000000000000000000000000000000000000000000000000000000000000000000000000000000000000000000000000000
310
00
310
00000000000000000000000000000000000000000000000000000000000000000000000000000000000000000000000000000000000000000000000000000000000000000000000000000000000000000000000000000000000000000000000000000000000000000000000000000000000000000000000000000000000000
310
00000000000000000000000000000000000000000000000000000000000000000000000000000000000000000000000000000000000000000000000000000000000000000000000000000000000000000000000000000000000000000000000000000000000000000000000000000000000000000000000000000000000000
310
00
310
00000000000000000000000000000000000000000000000000000000000000000000000000000000000000000000000000000000000000000000000000000000000000000000000000000000000000000000000000000000000000000000000000000000000000000000000000000000000000000000000000000000000000
310
00000000000000000000000000000000000000000000000000000000000000000000000000000000000000000000000000000000000000000000000000000000000000000000000000000000000000000000000000000000000000000000000000000000000000000000000000000000000000000000000000000000000000
310
00
310
00000000000000000000000000000000000000000000000000000000000000000000000000000000000000000000000000000000000000000000000000000000000000000000000000000000000000000000000000000000000000000000000000000000000000000000000000000000000000000000000000000000000000
310
00000000000000000000000000000000000000000000000000000000000000000000000000000000000000000000000000000000000000000000000000000000000000000000000000000000000000000000000000000000000000000000000000000000000000000000000000000000000000000000000000000000000000
310
00
310
00000000000000000000000000000000000000000000000000000000000000000000000000000000000000000000000000000000000000000000000000000000000000000000000000000000000000000000000000000000000000000000000000000000000000000000000000000000000000000000000000000000000000
310
00000000000000000000000000000000000000000000000000000000000000000000000000000000000000000000000000000000000000000000000000000000000000000000000000000000000000000000000000000000000000000000000000000000000000000000000000000000000000000000000000000000000000
310
00
310
00000000000000000000000000000000000000000000000000000000000000000000000000000000000000000000000000000000000000000000000000000000000000000000000000000000000000000000000000000000000000000000000000000000000000000000000000000000000000
  0
XRECORD
  5
59A
102
{ACAD_REACTORS
330
5C6
102
}
330
5C6
100
AcDbXrecord
280
     1
310
3E4F020000004D6F64656C6572000000000000000000000000000000000000000000000000000000000000000000000000000000000000000000000000000000000000000000000000000000000000000000000000000000000000000000000000000000000000000000000000000000000000000000000000000000000000
310
00000000000000000000000000000000000000000000000000000000000000000000000000000000000000000000000000000000000000000000000000000000000000000000000000000000000000000000000000000000000000000000000000000000000000000000000000000000000000000000000000000000000000
310
00
310
00000000000000000000000000000000000000000000000000000000000000000000000000000000000000000000000000000000000000000000000000000000000000000000000000000000000000000000000000000000000000000000000000000000000000000000000000000000000000000000000000000000000000
310
00000000000000000000000000000000000000000000000000000000000000000000000000000000000000000000000000000000000000000000000000000000000000000000000000000000000000000000000000000000000000000000000000000000000000000000000000000000000000000000000000000000000000
310
00
310
00000000000000000000000000000000000000000000000000000000000000000000000000000000000000000000000000000000000000000000000000000000000000000000000000000000000000000000000000000000000000000000000000000000000000000000000000000000000000000000000000000000000000
310
00000000000000000000000000000000000000000000000000000000000000000000000000000000000000000000000000000000000000000000000000000000000000000000000000000000000000000000000000000000000000000000000000000000000000000000000000000000000000000000000000000000000000
310
00
310
00000000000000000000000000000000000000000000000000000000000000000000000000000000000000000000000000000000000000000000000000000000000000000000000000000000000000000000000000000000000000000000000000000000000000000000000000000000000000000000000000000000000000
310
00000000000000000000000000000000000000000000000000000000000000000000000000000000000000000000000000000000000000000000000000000000000000000000000000000000000000000000000000000000000000000000000000000000000000000000000000000000000000000000000000000000000000
310
00
310
00000000000000000000000000000000000000000000000000000000000000000000000000000000000000000000000000000000000000000000000000000000000000000000000000000000000000000000000000000000000000000000000000000000000000000000000000000000000000000000000000000000000000
310
00000000000000000000000000000000000000000000000000000000000000000000000000000000000000000000000000000000000000000000000000000000000000000000000000000000000000000000000000000000000000000000000000000000000000000000000000000000000000000000000000000000000000
310
00
310
00000000000000000000000000000000000000000000000000000000000000000000000000000000000000000000000000000000000000000000000000000000000000000000000000000000000000000000000000000000000000000000000000000000000000000000000000000000000000000000000000000000000000
310
00000000000000000000000000000000000000000000000000000000000000000000000000000000000000000000000000000000000000000000000000000000000000000000000000000000000000000000000000000000000000000000000000000000000000000000000000000000000000000000000000000000000000
310
00
310
00000000000000000000000000000000000000000000000000000000000000000000000000000000000000000000000000000000000000000000000000000000000000000000000000000000000000000000000000000000000000000000000000000000000000000000000000000000000000000000000000000000000000
310
00000000000000000000000000000000000000000000000000000000000000000000000000000000000000000000000000000000000000000000000000000000000000000000000000000000000000000000000000000000000000000000000000000000000000000000000000000000000000000000000000000000000000
310
00
310
00000000000000000000000000000000000000000000000000000000000000000000000000000000000000000000000000000000000000000000000000000000000000000000000000000000000000000000000000000000000000000000000000000000000000000000000000000000000000000000000000000000000000
310
00000000000000000000000000000000000000000000000000000000000000000000000000000000000000000000000000000000000000000000000000000000000000000000000000000000000000000000000000000000000000000000000000000000000000000000000000000000000000000000000000000000000000
310
00
310
00000000000000000000000000000000000000000000000000000000000000000000000000000000000000000000000000000000000000000000000000000000000000000000000000000000000000000000000000000000000000000000000000000000000000000000000000000000000000000000000000000000000000
310
00000000000000000000000000000000000000000000000000000000000000000000000000000000000000000000000000000000000000000000000000000000000000000000000000000000000000000000000000000000000000000000000000000000000000000000000000000000000000000000000000000000000000
310
00
310
00000000000000000000000000000000000000000000000000000000000000000000000000000000000000000000000000000000000000000000000000000000000000000000000000000000000000000000000000000000000000000000000000000000000000000000000000000000000000000000000000000000000000
310
00000000000000000000000000000000000000000000000000000000000000000000000000000000000000000000000000000000000000000000000000000000000000000000000000000000000000000000000000000000000000000000000000000000000000000000000000000000000000000000000000000000000000
310
00
310
00000000000000000000000000000000000000000000000000000000000000000000000000000000000000000000000000000000000000000000000000000000000000000000000000000000000000000000000000000000000000000000000000000000000000000000000000000000000000000000000000000000000000
310
00000000000000000000000000000000000000000000000000000000000000000000000000000000000000000000000000000000000000000000000000000000000000000000000000000000000000000000000000000000000000000000000000000000000000000000000000000000000000000000000000000000000000
310
00
310
00000000000000000000000000000000000000000000000000000000000000000000000000000000000000000000000000000000000000000000000000000000000000000000000000000000000000000000000000000000000000000000000000000000000000000000000000000000000000000000000000000000000000
310
00000000000000000000000000000000000000000000000000000000000000000000000000000000000000000000000000000000000000000000000000000000000000000000000000000000000000000000000000000000000000000000000000000000000000000000000000000000000000000000000000000000000000
310
00
310
00000000000000000000000000000000000000000000000000000000000000000000000000000000000000000000000000000000000000000000000000000000000000000000000000000000000000000000000000000000000000000000000000000000000000000000000000000000000000000000000000000000000000
310
00000000000000000000000000000000000000000000000000000000000000000000000000000000000000000000000000000000000000000000000000000000000000000000000000000000000000000000000000000000000000000000000000000000000000000000000000000000000000000000000000000000000000
310
00
310
00000000000000000000000000000000000000000000000000000000000000000000000000000000000000000000000000000000000000000000000000000000000000000000000000000000000000000000000000000000000000000000000000000000000000000000000000000000000000
  0
XRECORD
  5
591
102
{ACAD_REACTORS
330
5C6
102
}
330
5C6
100
AcDbXrecord
280
     1
310
DF56060034040701D0009A9999999999B93F000000000000000000000000000000000400000009000000000000000200000064000000640000000100000001000000190000007B14AE47E17A843F00000000004060409A9999999999B93F00000000004C2D41000000000070F7400000000000942141000000000000000000
310
0000000000000000000000000000000AD482040000000000000000000000000000F03F000000000000000000000000000030402D431CEBE2362A3F00000000000008400000000000000000009807C000000000000000007C1A61B9A711364020000000050000000A000000200000002000000020000000000000000000F03F
310
00
310
0000000000F03F000000000000F03F333333333333D33F333333333333D33F333333333333D33F000000000000F43F000000000000F43F000000000000F03F0200000064000000000000000000000000000840000000000000F83F00000000000000000000000000000000008056409A9999999999B93F0000000000000000
310
00000000000000000000000000000000000000000000000000000000000000000000000000000000000000000000000000000000000000000000000000000000000000000000000000000000000000000000000000000000000000000000000000000000000000000000000000000000000000000000000000000000000000
310
00
310
0000000000000000000000000000000000000000000000000000000000000000000000000000000000000000000000000000000000000000000000000000000000000000000000000000000000000000000000000000000000000000000000000000000000000000000000000000000000000000000000009A9999999999A9
310
3F9100000000000000000000000000000035A781D547960F40000000000000F03F000000000000F03F666666666666164000000000104068F200000000000000000000000000000000000000000000000000000000000000000000000000000000000000000000000000000000000000000000000000000000000000000000
310
00
310
00000000000000000000000000000000000000000000000000000000000000000000000000000000000000000000000000000000000000000000000000000000000000000000000000000000000000000000000000000000000000000000000000000000000000000000000000000000000000000000000000000000000000
310
000000000000000000000000000000000000000000000000000000000000000000000000000000000000000000000000000000000000000000000000FF000000000000000000000000000000000000000000000000000000000000000000000000000000000000000000000000000000000000000000000000000000000000
310
00
310
0000000000000000000000000000000000000000000000000000000000000000000000000000000000000000000000000000000000000000000000000000000000000000
  0
DICTIONARY
  5
5B7
330
5B6
100
AcDbDictionary
280
     1
281
     1
  3
ADSK_XREC_LAYOUTTHUMBNAIL
360
5B8
  0
XRECORD
  5
5B8
102
{ACAD_REACTORS
330
5B7
102
}
330
5B7
100
AcDbXrecord
280
     1
310
28000000B40000008B0000000100080000000000BC61000000000000000000000001000000000000FFFFFF0000000000FFFFFF000000000000000000000000000000000000000000000000000000000000000000330000006600000099000000CC000000FF00000000330000333300006633000099330000CC330000FF3300
310
0000660000336600006666000099660000CC660000FF66000000990000339900006699000099990000CC990000FF99000000CC000033CC000066CC000099CC0000CCCC0000FFCC000000FF000033FF000066FF000099FF0000CCFF0000FFFF000000003300330033006600330099003300CC003300FF003300003333003333
310
33006633330099333300CC333300FF33330000663300336633006666330099663300CC663300FF66330000993300339933006699330099993300CC993300FF99330000CC330033CC330066CC330099CC3300CCCC3300FFCC330000FF330033FF330066FF330099FF3300CCFF3300FFFF330000006600330066006600660099
310
006600CC006600FF00660000336600333366006633660099336600CC336600FF33660000666600336666006666660099666600CC666600FF66660000996600339966006699660099996600CC996600FF99660000CC660033CC660066CC660099CC6600CCCC6600FFCC660000FF660033FF660066FF660099FF6600CCFF6600
310
FFFF660000009900330099006600990099009900CC009900FF00990000339900333399006633990099339900CC339900FF33990000669900336699006666990099669900CC669900FF66990000999900339999006699990099999900CC999900FF99990000CC990033CC990066CC990099CC9900CCCC9900FFCC990000FF99
310
0033FF990066FF990099FF9900CCFF9900FFFF99000000CC003300CC006600CC009900CC00CC00CC00FF00CC000033CC003333CC006633CC009933CC00CC33CC00FF33CC000066CC003366CC006666CC009966CC00CC66CC00FF66CC000099CC003399CC006699CC009999CC00CC99CC00FF99CC0000CCCC0033CCCC0066CC
310
CC0099CCCC00CCCCCC00FFCCCC0000FFCC0033FFCC0066FFCC0099FFCC00CCFFCC00FFFFCC000000FF003300FF006600FF009900FF00CC00FF00FF00FF000033FF003333FF006633FF009933FF00CC33FF00FF33FF000066FF003366FF006666FF009966FF00CC66FF00FF66FF000099FF003399FF006699FF009999FF00CC
310
99FF00FF99FF0000CCFF0033CCFF0066CCFF0099CCFF00CCCCFF00FFCCFF0000FFFF0033FFFF0066FFFF0099FFFF00CCFFFF00FFFFFF00000000000D0D0D001A1A1A00282828003535350043434300505050005D5D5D006B6B6B00787878008686860093939300A1A1A100AEAEAE00BBBBBB00C9C9C900D6D6D600E4E4E400
310
F1F1F100FFFFFF0000000000000000000000000000000000000000000000000000000000000000000000000000000000E2E2E2E2E2E2E2E2E2E2E2E2E2E2E2E2E2E2E2E2E2E2E2E2E2E2E2E2E2E2E2E2E2E2E2E2E2E2E2E2E2E2E2E2E2E2E2E2E2E2E2E2E2E2E2E2E2E2E2E2E2E2E2E2E2E2E2E2E2E2E2E2E2E2E2E2E2E2E2
310
E2E2E2E2E2E2E2E2E2E2E2E2E2E2E2E2E2E2E2E2E2E2E2E2E2E2E2E2E2E2E2E2E2E2E2E2E2E2E2E2E2E2E2E2E2E2E2E2E2E2E2E2E2E2E2E2E2E2E2E2E2E2E2E2E2E2E2E2E2E2E2E2E2E2E2E2E2E2E2E2E2E2E2E2E2E2E2E2E2E2E2E2E2E2E2E2E2E2E2E2EFF5F5F5F5F5F5F5F5F5F5F5F5F5F5F5F5F5F5F5F5F5F5F5F5F5F5
310
F5F5F5F5F5F5F5F5F5F5F5F5F5F5F5F5F5F5F5F5F5F5F5F5F5F5F5F5F5F5F5F5F5F5F5F5F5F5F5F5F5F5F5F5F5F5F5F5F5F5F5F5F5F5F5F5F5F5F5F5F5F5F5F5F5F5F5F5F5F5F5F5F5F5F5F5F5F5F5F5F5F5F5F5F5F5F5F5F5F5F5F5F5F5F5F5F5F5F5F5F5F5F5F5F5F5F5F5F5F5F5F5F5F5F5F5F5F5F5F5F5F5F5F5F5F5F5
310
F5F5F5F5F5F5F5F5F5F5F5F5F5F5F5F5F5F5F5F5F5F5F5F5E2E2EFF5F5F5F5F5F5F5F5F5F5F5F5F5F5F5F5F5F5F5F5F5F5F5F5F5F5F5F5F5F5F5F5F5F5F5F5F5F5F5F5F5F5F5F5F5F5F5F5F5F5F5F5F5F5F5F5F5F5F5F5F5F5F5F5F5F5F5F5F5F5F5F5F5F5F5F5F5F5F5F5F5F5F5F5F5F5F5F5F5F5F5F5F5F5F5F5F5F5F5F5
310
F5F5F5F5F5F5F5F5F5F5F5F5F5F5F5F5F5F5F5F5F5F5F5F5F5F5F5F5F5F5F5F5F5F5F5F5F5F5F5F5F5F5F5F5F5F5F5F5F5F5F5F5F5F5F5F5F5F5F5F5F5F5F5F5F5F5F5F5F5F5F5F5F5F5F5F5F5E2E2EFF5F5F5F5F5F5F5F5F5F5F5F5F5F5F5F5F5F5F5F5F5F5F5F5F5F5F5F5F5F5F5F5F5F5F5F5F5F5F5F5F5F5F5F5F5F5F5
310
F5F5F5F5F5F5F5F5F5F5F5F5F5F5F5F5F5F5F5F5F5F5F5F5F5F5F5F5F5F5F5F5F5F5F5F5F5F5F5F5F5F5F5F5F5F5F5F5F5F5F5F5F5F5F5F5F5F5F5F5F5F5F5F5F5F5F5F5F5F5F5F5F5F5F5F5F5F5F5F5F5F5F5F5F5F5F5F5F5F5F5F5F5F5F5F5F5F5F5F5F5F5F5F5F5F5F5F5F5F5F5F5F5F5F5F5F5F5F5F5F5F5F5F5F5F5F5
310
F5F5F5E2E2EFF5F5F5E2E2E2E2E2E2E2E2F5F5F5F5F5F5F5F5F5E2E2E2E2E2E2E2E2E2E2E2E2E2E2E2E2F5F5F5F5F5F5F5F5E2E2E2E2E2E2E2E2E2E2E2E2E2E2E2E2F5F5F5F5F5F5F5F5F5E2E2E2E2E2E2E2E2E2E2E2E2E2E2E2F5F5F5F5F5F5F5F5F5E2E2E2E2E2E2E2E2E2E2E2E2E2E2E2F5F5F5F5F5F5F5F5F5E2E2E2E2
310
E2E2E2E2E2E2E2E2E2E2E2E2F5F5F5F5F5F5F5F5E2E2E2E2E2E2E2E2E2E2E2E2E2E2E2E2F5F5F5F5F5F5F5F5F5E2E2E2E2E2E2E2E2F5F5F5E2E2EFF5F5F5E2F5F5F5F5F5F5F5F5F5F5F5F5F5F5F5F5F5F5F5F5F5F5F5F5F5F5F5F5F5F5F5F5F5F5F5F5F5F5F5F5F5F5F5F5F5F5F5F5F5F5F5F5F5F5F5F5F5F5F5F5F5F5F5F5
310
F5F5F5F5F5F5F5F5F5F5F5F5F5F5F5F5F5F5F5F5F5F5F5F5F5F5F5F5F5F5F5F5F5F5F5F5F5F5F5F5F5F5F5F5F5F5F5F5F5F5F5F5F5F5F5F5F5F5F5F5F5F5F5F5F5F5F5F5F5F5F5F5F5F5F5F5F5F5F5F5F5F5F5F5F5F5F5F5F5F5F5F5F5F5F5F5F5F5F5F5F5F5F5F5F5E2F5F5F5E2E2EFF5F5F5E2F5F5F5F5F5F5F5F5F5F5F5
310
F5F5F5F5F5F5F5F5F5F5F5F5F5F5F5F5F5F5F5F5F5F5F5F5F5F5F5F5F5F5F5F5F5F5F5F5F5F5F5F5F5F5F5F5F5F5F5F5F5F5F5F5F5F5F5F5F5F5F5F5F5F5F5F5F5F5F5F5F5F5F5F5F5F5F5F5F5F5F5F5F5F5F5F5F5F5F5F5F5F5F5F5F5F5F5F5F5F5F5F5F5F5F5F5F5F5F5F5F5F5F5F5F5F5F5F5F5F5F5F5F5F5F5F5F5F5F5
310
F5F5F5F5F5F5F5F5F5F5F5F5F5F5F5F5F5F5F5F5F5F5F5F5F5F5F5F5F5F5F5E2F5F5F5E2E2EFF5F5F5E2F5F5F5F5F5F5F5F5F5F5F5F5F5F5F5F5F5F5F5F5F5F5F5F5F5F5F5F5F5F5F5F5F5F5F5F5F5F5F5F5F5F5F5F5F5F5F5F5F5F5F5F5F5F5F5F5F5F5F5F5F5F5F5F5F5F5F5F5F5F5F5F5F5F5F5F5F5F5F5F5F5F5F5F5F5
310
F5F5F5F5F5F5F5F5F5F5F5F5F5F5F5F5F5F5F5F5F5F5F5F5F5F5F5F5F5F5F5F5F5F5F5F5F5F5F5F5F5F5F5F5F5F5F5F5F5F5F5F5F5F5F5F5F5F5F5F5F5F5F5F5F5F5F5F5F5F5F5F5F5F5F5F5F5F5F5F5F5F5F5F5E2F5F5F5E2E2EFF5F5F5E2F5F5F5F5F5F5F5F5F5F5F5F5F5F5F5F5F5F5F5F5F5F5F5F5F5F5F5F5F5F5F5F5
310
F5F5F5F5F5F5F5F5F5F5F5F5F5F5F5F5F5F5F5F5F5F5F5F5F5F5F5F5F5F5F5F5F5F5F5F5F5F5F5F5F5F5F5F5F5F5F5F5F5F5F5F5F5F5F5F5F5F5F5F5F5F5F5F5F5F5F5F5F5F5F5F5F5F5F5F5F5F5F5F5F5F5F5F5F5F5F5F5F5F5F5F5F5F5F5F5F5F5F5F5F5F5F5F5F5F5F5F5F5F5F5F5F5F5F5F5F5F5F5F5F5F5F5F5F5F5F5
310
F5F5F5F5F5F5F5F5F5F5E2F5F5F5E2E2EFF5F5F5E2F5F5F5F5F5F5F5F5F5F5F5F5F5F5F5F5F5F5F5F5F5F5F5F5F5F5F5F5F5F5F5F5F5F5F5F5F5F5F5F5F5F5F5F5F5F5F5F5F5F5F5F5F5F5F5F5F5F5F5F5F5F5F5F5F5F5F5F5F5F5F5F5F5F5F5F5F5F5F5F5F5F5F5F5F5F5F5F5F5F5F5F5F5F5F5F5F5F5F5F5F5F5F5F5F5F5
310
F5F5F5F5F5F5F5F5F5F5F5F5F5F5F5F5F5F5F5F5F5F5F5F5F5F5F5F5F5F5F5F5F5F5F5F5F5F5F5F5F5F5F5F5F5F5F5F5F5F5F5F5F5F5F5F5F5F5F5F5F5F5F5E2F5F5F5E2E2EFF5F5F5E2F5F5F5F5F5F5F5F5F5F5F5F5F5F5F5F5F5F5F5F5F5F5F5F5F5F5F5F5F5F5F5F5F5F5F5F5F5F5F5F5F5F5F5F5F5F5F5F5F5F5F5F5F5
310
F5F5F5F5F5F5F5F5F5F5F5F5F5F5F5F5F5F5F5F5F5F5F5F5F5F5F5F5F5F5F5F5F5F5F5F5F5F5F5F5F5F5F5F5F5F5F5F5F5F5F5F5F5F5F5F5F5F5F5F5F5F5F5F5F5F5F5F5F5F5F5F5F5F5F5F5F5F5F5F5F5F5F5F5F5F5F5F5F5F5F5F5F5F5F5F5F5F5F5F5F5F5F5F5F5F5F5F5F5F5F5F5F5F5F5F5E2F5F5F5E2E2EFF5F5F5E2
310
F5F5F5F5F5F5F5F5F5F5F5F5F5F5F5F5F5F5F5F5F5F5F5F5F5F5F5F5F5F5F5F5F5F5F5F5F5F5F5F5F5F5F5F5F5F5F5F5F5F5F5F5F5F5F5F5F5F5F5F5F5F5F5F5F5F5F5F5F5F5F5F5F5F5F5F5F5F5F5F5F5F5F5F5F5F5F5F5F5F5F5F5F5F5F5F5F5F5F5F5F5F5F5F5F5F5F5F5F5F5F5F5F5F5F5F5F5F5F5F5F5F5F5F5F5F5F5
310
F5F5F5F5F5F5F5F5F5F5F5F5F5F5F5F5F5F5F5F5F5F5F5F5F5F5F5F5F5F5F5F5F5F5F5F5F5F5F5F5F5F5E2F5F5F5E2E2EFF5F5F5E2F5F5F5F5F5F5F5F5F5F5F5F5F5F5F5F5F5F5F5F5F5F5F5F5F5F5F5F5F5F5F5F5F5F5F5F5F5F5F5F5F5F5F5F5F5F5F5F5F5F5F5F5F5F5F5F5F5F5F5F5F5F5F5F5F5F5F5F5F5F5F5F5F5F5
310
F5F5F5F5F5F5F5F5F5F5F5F5F5F5F5F5F5F5F5F5F5F5F5F5F5F5F5F5F5F5F5F5F5F5F5F5F5F5F5F5F5F5F5F5F5F5F5F5F5F5F5F5F5F5F5F5F5F5F5F5F5F5F5F5F5F5F5F5F5F5F5F5F5F5F5F5F5F5F5F5F5F5F5F5F5F5F5F5F5F5F5F5F5F5F5E2F5F5F5E2E2EFF5F5F5F5F5F5F5F5F5F5F5F5F5F5F5F5F5F5F5F5F5F5F5F5F5
310
F5F5F5F5F5F5F5F5F5F5F5F5F5F5F5F5F5F5F5F5F5F5F5F5F5F5F5F5F5F5F5F5F5F5F5F5F5F5F5F5F5F5F5F5F5F5F5F5F5F5F5F5F5F5F5F5F5F5F5F5F5F5F5F5F5F5F5F5F5F5F5F5F5F5F5F5F5F5F5F5F5F5F5F5F5F5F5F5F5F5F5F5F5F5F5F5F5F5F5F5F5F5F5F5F5F5F5F5F5F5F5F5F5F5F5F5F5F5F5F5F5F5F5F5F5F5F5
310
F5F5F5F5F5F5F5F5F5F5F5F5F5F5F5F5F5F5F5F5F5F5F5F5F5E2E2EFF5F5F5F5F5F5F5F5F5F5F5F5F5F5F5F5F5F5F5F5F5F5F5F5F5F5F5F5F5F5F5F5F5F5F5F5F5F5F5F5F5F5F5F5F5F5F5F5F5F5F5F5F5F5F5F5F5F5F5F5F5F5F5F5F5F5F5F5F5F5F5F5F5F5F5F5F5F5F5F5F5F5F5F5F5F5F5F5F5F5F5F5F5F5F5F5F5F5F5
310
F5F5F5F5F5F5F5F5F5F5F5F5F5F5F5F5F5F5F5F5F5F5F5F5F5F5F5F5F5F5F5F5F5F5F5F5F5F5F5F5F5F5F5F5F5F5F5F5F5F5F5F5F5F5F5F5F5F5F5F5F5F5F5F5F5F5F5F5F5F5F5F5F5F5F5F5F5F5E2E2EFF5F5F5F5F5F5F5F5F5F5F5F5F5F5F5F5F5F5F5F5F5F5F5F5F5F5F5F5F5F5F5F5F5F5F5F5F5F5F5F5F5F5F5F5F5F5
310
F5F5F5F5F5F5F5F5F5F5F5F5F5F5F5F5F5F5F5F5F5F5F5F5F5F5F5F5F5F5F5F5F5F5F5F5F5F5F5F5F5F5F5F5F5F5F5F5F5F5F5F5F5F5F5F5F5F5F5F5F5F5F5F5F5F5F5F5F5F5F5F5F5F5F5F5F5F5F5F5F5F5F5F5F5F5F5F5F5F5F5F5F5F5F5F5F5F5F5F5F5F5F5F5F5F5F5F5F5F5F5F5F5F5F5F5F5F5F5F5F5F5F5F5F5F5F5
310
F5F5F5F5E2E2EFF5F5F5F5F5F5F5F5F5F5F5F5F5F5F5F5F5F5F5F5F5F5F5F5F5F5F5F5F5F5F5F5F5F5F5F5F5F5F5F5F5F5F5F5F5F5F5F5F5F5F5F5F5F5F5F5F5F5F5F5F5F5F5F5F5F5F5F5F5F5F5F5F5F5F5F5F5F5F5F5F5F5F5F5F5F5F5F5F5F5F5F5F5F5F5F5F5F5F5F5F5F5F5F5F5F5F5F5F5F5F5F5F5F5F5F5F5F5F5F5
310
F5F5F5F5F5F5F5F5F5F5F5F5F5F5F5F5F5F5F5F5F5F5F5F5F5F5F5F5F5F5F5F5F5F5F5F5F5F5F5F5F5F5F5F5F5F5F5F5F5F5F5F5F5F5F5F5F5E2E2EFF5F5F5F5F5F5F5F5F5F5F5F5F5F5F5F5F5F5F5F5E2E2E2E2E2E2E2E2E2E2E2E2E2E2E2E2E2E2E2E2E2E2E2E2E2E2E2E2E2E2E2E2E2E2E2E2E2E2E2E2E2E2E2E2E2E2E2
310
E2E2E2E2E2E2E2E2E2E2E2E2E2E2E2E2E2E2E2E2E2E2E2E2E2E2E2E2E2E2E2E2E2E2E2E2E2E2E2E2E2E2E2E2E2E2E2E2E2E2E2E2E2E2E2E2E2E2E2E2E2E2E2E2E2E2E2E2E2E2E2E2E2E2E2E2E2E2E2E2E2E2E2E2E2E2E2E2E2E2F5F5F5F5F5F5F5F5F5F5F5F5F5F5F5F5F5F5F5F5E2E2EFF5F5F5F5F5F5F5F5F5F5F5F5F5F5
310
F5F5F5F5F5F5E2F5F5F5F5F5F5F5F5F5F5F5F5F5F5F5F5F5F5F5F5F5F5F5F5F5F5F5F5F5F5F5F5F5F5F5F5F5F5F5F5F5F5F5F5F5F5F5F5F5F5F5F5F5F5F5F5F5F5F5F5F5F5F5F5F5F5F5F5F5F5F5F5F5F5F5F5F5F5F5F5F5F5F5F5F5F5F5F5F5F5F5F5F5F5F5F5F5F5F5F5F5F5F5F5F5F5F5F5F5F5F5F5F5F5F5F5F5F5F5F5
310
F5F5F5F5F5F5F5F5F5F5F5F5F5F5F5E2F5F5F5F5F5F5F5F5F5F5F5F5F5F5F5F5F5F5F5F5E2E2EFF5F5F5F5F5F5F5F5F5F5F5F5F5F5F5F5F5F5F5F5E2F5F5F5F5F5F5F5F5F5F5F5F5F5F5F5F5F5F5F5F5F5F5F5F5F5F5F5F5F5F5F5F5F5F5F5F5F5F5F5F5F5F5F5F5F5F5F5F5F5F5F5F5F5F5F5F5F5F5F5F5F5F5F5F5F5F5F5
310
F5F5F5F5F5F5F5F5F5F5F5F5F5F5F5F5F5F5F5F5F5F5F5F5F5F5F5F5F5F5F5F5F5F5F5F5F5F5F5F5F5F5F5F5F5F5F5F5F5F5F5F5F5F5F5F5F5F5F5F5F5F5F5F5F5F5F5F5E2F5F5F5F5F5F5F5F5F5F5F5F5F5F5F5F5F5F5F5F5E2E2EFF5F5F5F5F5F5F5F5F5F5F5F5F5F5F5F5F5F5F5F5E2F5F5F5F5F5F5F5F5F5F5F5F5F5F5
310
F5F5F5F5F5F5F5F5F5F5F5F5F5F5F5F5F5F5F5F5F5F5F5F5F5F5F5F5F5F5F5F5F5F5F5F5F5F5F5F5F5F5F5F5F5F5F5F5F5F5F5F5F5F5F5F5F5F5F5F5F5F5F5F5F5F5F5F5F5F5F5F5F5F5F5F5F5F5F5F5F5F5F5F5F5F5F5F5F5F5F5F5F5F5F5F5F5F5F5F5F5F5F5F5F5F5F5F5F5F5F5F5F5F5F5F5F5F5F5F5F5E2F5F5F5F5F5
310
F5F5F5F5F5F5F5F5F5F5F5F5F5F5F5E2E2EFF5F5F5F5F5F5F5F5F5F5F5F5F5F5F5F5F5F5F5F5E2F5F5F5F5F5F5F5F5F5F5F5F5F5F5F5F5F5F5F5F5F5F5F5F5F5F5F5F5F5F5F5F5F5F5F5F5F5F5F5F5F5F5F5F5F5F5F5F5F5F5F5F5F5F5F5F5F5F5F5F5F5F5F5F5F5F5F5F5F5F5F5F5F5F5F5F5F5F5F5F5F5F5F5F5F5F5F5F5
310
F5F5F5F5F5F5F5F5F5F5F5F5F5F5F5F5F5F5F5F5F5F5F5F5F5F5F5F5F5F5F5F5F5F5F5F5F5F5F5F5F5F5F5F5F5F5F5E2F5F5F5F5F5F5F5F5F5F5F5F5F5F5F5F5F5F5F5F5E2E2EFF5F5F5E2F5F5F5F5F5F5F5F5F5F5F5F5F5F5F5F5E2F5F5F5F5F5F5F5F5F5F5F5F5F5F5F5F5F5F5F5F5F5F5F5F5F5F5F5F5F5F5F5F5F5F5F5
310
F5F5F5F5F5F5F5F5F5F5F5F5F5F5F5F5F5F5F5F5F5F5F5F5F5F5F5F5F5F5F5F5F5F5F5F5F5F5F5F5F5F5F5F5F5F5F5F5F5F5F5F5F5F5F5F5F5F5F5F5F5F5F5F5F5F5F5F5F5F5F5F5F5F5F5F5F5F5F5F5F5F5F5F5F5F5F5F5F5F5F5F5F5F5F5F5F5F5F5F5E2F5F5F5F5F5F5F5F5F5F5F5F5F5F5F5F5E2F5F5F5E2E2EFF5F5F5
310
E2F5F5F5F5F5F5F5F5F5F5F5F5F5F5F5F5E2F5F5F5F5F5F5F5F5F5F5F5F5F5F5F5F5F5F5F5F5F5F5F5F5F5F5F5F5F5F5F5F5F5F5F5F5F5F5F5F5F5F5F5F5F5F5F5F5F5F5F5F5F5F5F5F5F5F5F5F5F5F5F5F5F5F5F5F5F5F5F5F5F5F5F5F5F5F5F5F5F5F5F5F5F5F5F5F5F5F5F5F5F5F5F5F5F5F5F5F5F5F5F5F5F5F5F5F5F5
310
F5F5F5F5F5F5F5F5F5F5F5F5F5F5F5F5F5F5F5F5F5F5F5F5F5F5E2F5F5F5F5F5F5F5F5F5F5F5F5F5F5F5F5E2F5F5F5E2E2EFF5F5F5E2F5F5F5F5F5F5F5F5F5F5F5F5F5F5F5F5E2F5F5F5F5F5F5F5F5F5F5F5F5F5F5F5F5F5F5F5F5F5F5F5F5F5F5F5F5F5F5F5F5F5F5F5F5F5F5F5F5F5F5F5F5F5F5F5F5F5F5F5F5F5F5F5F5
310
F5F5F5F5F5F5F5F5F5F5F5F5F5F5F5F5F5F5F5F5F5F5F5F5F5F5F5F5F5F5F5F5F5F5F5F5F5F5F5F5F5F5F5F5F5F5F5F5F5F5F5F5F5F5F5F5F5F5F5F5F5F5F5F5F5F5F5F5F5F5F5F5F5F5F5F5F5F5F5E2F5F5F5F5F5F5F5F5F5F5F5F5F5F5F5F5E2F5F5F5E2E2EFF5F5F5E2F5F5F5F5F5F5F5F5F5F5F5F5F5F5F5F5E2F5F5F5
310
F5F5F5F5F5F5F5F5F5F5F5F5F5F5F5F5F5F5F5F5F5F5F5F5F5F5F5F5F5F5F5F5F5F5F5F5F5F5F5F5F5F5F5F5F5F5F5F5F5F5F5F5F5F5F5F5F5F5F5F5F5F5F5F5F5F5F5F5F5F5F5F5F5F5F5F5F5F5F5F5F5F5F5F5F5F5F5F5F5F5F5F5F5F5F5F5F5F5F5F5F5F5F5F5F5F5F5F5F5F5F5F5F5F5F5F5F5F5F5F5F5F5F5F5F5F5F5
310
F5F5F5F5F5E2F5F5F5F5F5F5F5F5F5F5F5F5F5F5F5F5E2F5F5F5E2E2EFF5F5F5E2F5F5F5F5F5F5F5F5F5F5F5F5F5F5F5F5E2F5F5F5F5F5F5F5F5F5F5F5F5F5F5F5F5F5F5F5F5F5F5F5F5F5F5F5F5F5F5F5F5F5F5F5F5F5F5F5F5F5F5F5F5F5F5F5F5F5F5F5F5F5F5F5F5F5F5F5F5F5F5F5F5F5F5F5F5F5F5F5F5F5F5F5F5F5
310
F5F5F5F5F5F5F5F5F5F5F5F5F5F5F5F5F5F5F5F5F5F5F5F5F5F5F5F5F5F5F5F5F5F5F5F5F5F5F5F5F5F5F5F5F5F5F5F5F5F5F5F5F5F5F5F5F5F5E2F5F5F5F5F5F5F5F5F5F5F5F5F5F5F5F5E2F5F5F5E2E2EFF5F5F5E2F5F5F5F5F5F5F5F5F5F5F5F5F5F5F5F5E2F5F5F5F5F5F5F5F5F5F5F5F5F5F5F5F5F5F5F5F5F5F5F5F5
310
F5F5F5F5F5F5F5F5F5F5F5F5F5F5F5F5F5F5F5F5F5F5F5F5F5F5F5F5F5F5F5F5F5F5F5F5F5F5F5F5F5F5F5F5F5F5F5F5F5F5F5F5F5F5F5F5F5F5F5F5F5F5F5F5F5F5F5F5F5F5F5F5F5F5F5F5F5F5F5F5F5F5F5F5F5F5F5F5F5F5F5F5F5F5F5F5F5F5F5F5F5F5F5F5F5F5F5F5F5F5F5E2F5F5F5F5F5F5F5F5F5F5F5F5F5F5F5
310
F5E2F5F5F5E2E2EFF5F5F5E2F5F5F5F5F5F5F5F5F5F5F5F5F5F5F5F5E2F5F5F5F5F5F5F5F5F5F5F5F5F5F5F5F5F5F5F5F5F5F5F5F5F5F5F5F5F5F5F5F5F5F5F5F5F5F5F5F5F5F5F5F5F5F5F5F5F5F5F5F5F5F5F5F5F5F5F5F5F5F5F5F5F5F5F5F5F5F5F5F5F5F5F5F5F5F5F5F5F5F5F5F5F5F5F5F5F5F5F5F5F5F5F5F5F5F5
310
F5F5F5F5F5F5F5F5F5F5F5F5F5F5F5F5F5F5F5F5F5F5F5F5F5F5F5F5F5F5F5F5F5F5F5F5F5E2F5F5F5F5F5F5F5F5F5F5F5F5F5F5F5F5E2F5F5F5E2E2EFF5F5F5E2F5F5F5F5F5F5F5F5F5F5F5F5F5F5F5F5E2F5F5F5F5F5F5F5F5F5F5F5F5F5F5F5F5F5F5F5F5F5F5F5F5F5F5F5F5F5F5F5F5F5F5F5F5F5F5F5F5F5F5F5F5F5
310
F5F5F5F5F5F5F5F5F5F5F5F5F5F5F5F5F5F5F5F5F5F5F5F5F5F5F5F5F5F5F5F5F5F5F5F5F5F5F5F5F5F5F5F5F5F5F5F5F5F5F5F5F5F5F5F5F5F5F5F5F5F5F5F5F5F5F5F5F5F5F5F5F5F5F5F5F5F5F5F5F5F5F5F5F5F5F5F5F5F5E2F5F5F5F5F5F5F5F5F5F5F5F5F5F5F5F5E2F5F5F5E2E2EFF5F5F5E2F5F5F5F5F5F5F5F5F5
310
F5F5F5F5F5F5F5E2F5F5F5F5F5F5F5F5F5F5F5F5F5F5F5F5F5F5F5F5F5F5F5F5F5F5F5F5F5F5F5F5F5F5F5F5F5F5F5F5F5F5F5F5F5F5F5F5F5F5F5F5F5F5F5F5F5F5F5F5F5F5F5F5F5F5F5F5F5F5F5F5F5F5F5F5F5F5F5F5F5F5F5F5F5F5F5F5F5F5F5F5F5F5F5F5F5F5F5F5F5F5F5F5F5F5F5F5F5F5F5F5F5F5F5F5F5F5F5
310
F5F5F5F5F5F5F5F5F5F5F5F5F5F5F5F5E2F5F5F5F5F5F5F5F5F5F5F5F5F5F5F5F5E2F5F5F5E2E2EFF5F5F5E2F5F5F5F5F5F5F5F5F5F5F5F5F5F5F5F5E2F5F5F5F5F5F5F5F5F5F5F5F5F5F5F5F5F5F5F5F5F5F5F5F5F5F5F5F5F5F5F5F5F5F5F5F5F5F5F5F5F5F5F5F5F5F5F5F5F5F5F5F5F5F5F5F5F5F5F5F5F5F5F5F5F5F5
310
F5F5F5F5F5F5F5F5F5F5F5F5F5F5F5F5F5F5F5F5F5F5F5F5F5F5F5F5F5F5F5F5F5F5F5F5F5F5F5F5F5F5F5F5F5F5F5F5F5F5F5F5F5F5F5F5F5F5F5F5F5F5F5F5F5F5F5F5F5E2F5F5F5F5F5F5F5F5F5F5F5F5F5F5F5F5E2F5F5F5E2E2EFF5F5F5E2F5F5F5F5F5F5F5F5F5F5F5F5F5F5F5F5E2F5F5F5F5F5F5F5F5F5F5F5F5F5
310
F5F5F5F5F5F5F5F5F5F5F5F5F5F5F5F5F5F5F5F5F5F5F5F5F5F5F5F5F5F5F5F5F5F5F5F5F5F5F5F5F5F5F5F5F5F5F5F5F5F5F5F5F5F5F5F5F5F5F5F5F5F5F5F5F5F5F5F5F5F5F5F5F5F5F5F5F5F5F5F5F5F5F5F5F5F5F5F5F5F5F5F5F5F5F5F5F5F5F5F5F5F5F5F5F5F5F5F5F5F5F5F5F5F5F5F5F5F5F5F5F5F5E2F5F5F5F5
310
F5F5F5F5F5F5F5F5F5F5F5F5E2F5F5F5E2E2EFF5F5F5E2F5F5F5F5F5F5F5F5F5F5F5F5F5F5F5F5E2F5F5F5F5F5F5F5F5F5F5F5F5F5F5F5F5F5F5F5F5F5F5F5F5F5F5F5F5F5F5F5F5F5F5F5F5F5F5F5F5F5F5F5F5F5F5F5F5F5F5F5F5F5F5F5F5F5F5F5F5F5F5F5F5F5F5F5F5F5F5F5F5F5F5F5F5F5F5F5F5F5F5F5F5F5F5F5
310
F5F5F5F5F5F5F5F5F5F5F5F5F5F5F5F5F5F5F5F5F5F5F5F5F5F5F5F5F5F5F5F5F5F5F5F5F5F5F5F5F5F5F5F5F5F5F5F5E2F5F5F5F5F5F5F5F5F5F5F5F5F5F5F5F5E2F5F5F5E2E2EFF5F5F5E2F5F5F5F5F5F5F5F5F5F5F5F5F5F5F5F5E2F5F5F5F5F5F5F5F5F5F5F5F5F5F5F5F5F5F5F5F5F5F5F5F5F5F5F5F5F5F5F5F5F5F5
310
F5F5F5F5F5F5F5F5F5F5F5F5F5F5F5F5F5F5F5F5F5F5F5F5F5F5F5F5F5F5F5F5F5F5F5F5F5F5F5F5F5F5F5F5F5F5F5F5F5F5F5F5F5F5F5F5F5F5F5F5F5F5F5F5F5F5F5F5F5F5F5F5F5F5F5F5F5F5F5F5F5F5F5F5F5F5F5F5F5F5F5F5F5F5F5F5F5F5F5F5F5E2F5F5F5F5F5F5F5F5F5F5F5F5F5F5F5F5E2F5F5F5E2E2EFF5F5
310
F5E2F5F5F5F5F5F5F5F5F5F5F5F5F5F5F5F5E2F5F5F5F5F5F5F5F5F5F5F5F5F5F5F5F5F5F5F5F5F5F5F5F5F5F5F5F5F5F5F5F5F5F5F5F5F5F5F5F5F5F5F5F5F5F5F5F5F5F5F5F5F5F5F5F5F5F5F5F5F5F5F5F5F5F5F5F5F5F5F5F5F5F5F5F5F5F5F5F5F5F5F5F5F5F5F5F5F5F5F5F5F5F5F5F5F5F5F5F5F5F5F5F5F5F5F5F5
310
F5F5F5F5F5F5F5F5F5F5F5F5F5F5F5F5F5F5F5F5F5F5F5F5F5F5F5E2F5F5F5F5F5F5F5F5F5F5F5F5F5F5F5F5E2F5F5F5E2E2EFF5F5F5E2F5F5F5F5F5F5F5F5F5F5F5F5F5F5F5F5E2F5F5F5F5F5F5F5F5F5F5F5F5F5F5F5F5F5F5F5F5F5F5F5F5F5F5F5F5F5F5F5F5F5F5F5F5F5F5F5F5F5F5F5F5F5F5F5F5F5F5F5F5F5F5F5
310
F5F5F5F5F5F5F5F5F5F5F5F5F5F5F5F5F5F5F5F5F5F5F5F5F5F5F5F5F5F5F5F5F5F5F5F5F5F5F5F5F5F5F5F5F5F5F5F5F5F5F5F5F5F5F5F5F5F5F5F5F5F5F5F5F5F5F5F5F5F5F5F5F5F5F5F5F5F5F5F5E2F5F5F5F5F5F5F5F5F5F5F5F5F5F5F5F5E2F5F5F5E2E2EFF5F5F5E2F5F5F5F5F5F5F5F5F5F5F5F5F5F5F5F5E2F5F5
310
F5F5F5F5F5F5F5F5F5F5F5F5F5F5F5F5F5F5F5F5F5F5F5F5F5F5F5F5F5F5F5F5F5F5F5F5F5F5F5F5F5F5F5F5F5F5F5F5F5F5F5F5F5F5F5F5F5F5F5F5F5F5F5F5F5F5F5F5F5F5F5F5F5F5F5F5F5F5F5F5F5F5F5F5F5F5F5F5F5F5F5F5F5F5F5F5F5F5F5F5F5F5F5F5F5F5F5F5F5F5F5F5F5F5F5F5F5F5F5F5F5F5F5F5F5F5F5
310
F5F5F5F5F5F5E2F5F5F5F5F5F5F5F5F5F5F5F5F5F5F5F5E2F5F5F5E2E2EFF5F5F5E2F5F5F5F5F5F5F5F5F5F5F5F5F5F5F5F5E2F5F5F5F5F5F5F5F5F5F5F5F5F5F5F5F5F5F5F5F5F5F5F5F5F5F5F5F5F5F5F5F5F5F5F5F5F5F5F5F5F5F5F5F5F5F5F5F5F5F5F5F5F5F5F5F5F5F5F5F5F5F5F5F5F5F5F5F5F5F5F5F5F5F5F5F5
310
F5F5F5F5F5F5F5F5F5F5F5F5F5F5F5F5F5F5F5F5F5F5F5F5F5F5F5F5F5F5F5F5F5F5F5F5F5F5F5F5F5F5F5F5F5F5F5F5F5F5F5F5F5F5F5F5F5F5F5E2F5F5F5F5F5F5F5F5F5F5F5F5F5F5F5F5E2F5F5F5E2E2EFF5F5F5F5F5F5F5F5F5F5F5F5F5F5F5F5F5F5F5F5E2F5F5F5F5F5F5F5F5F5F5F5F5F5F5F5F5F5F5F5F5F5F5F5
310
F5F5F5F5F5F5F5F5F5F5F5F5F5F5F5F5F5F5F5F5F5F5F5F5F5F5F5F5F5F5F5F5F5F5F5F5F5F5F5F5F5F5F5F5F5F5F5F5F5F5F5F5F5F5F5F5F5F5F5F5F5F5F5F5F5F5F5F5F5F5F5F5F5F5F5F5F5F5F5F5F5F5F5F5F5F5F5F5F5F5F5F5F5F5F5F5F5F5F5F5F5F5F5F5F5F5F5F5F5F5F5F5E2F5F5F5F5F5F5F5F5F5F5F5F5F5F5
310
F5F5F5F5F5F5E2E2EFF5F5F5F5F5F5F5F5F5F5F5F5F5F5F5F5F5F5F5F5E2F5F5F5F5F5F5F5F5F5F5F5F5F5F5F5F5F5F5F5F5F5F5F5F5F5F5F5F5F5F5F5F5F5F5F5F5F5F5F5F5F5F5F5F5F5F5F5F5F5F5F5F5F5F5F5F5F5F5F5F5F5F5F5F5F5F5F5F5F5F5F5F5F5F5F5F5F5F5F5F5F5F5F5F5F5F5F5F5F5F5F5F5F5F5F5F5F5
310
F5F5F5F5F5F5F5F5F5F5F5F5F5F5F5F5F5F5F5F5F5F5F5F5F5F5F5F5F5F5F5F5F5F5F5F5F5F5E2F5F5F5F5F5F5F5F5F5F5F5F5F5F5F5F5F5F5F5F5E2E2EFF5F5F5F5F5F5F5F5F5F5F5F5F5F5F5F5F5F5F5F5E2F5F5F5F5F5F5F5F5F5F5F5F5F5F5F5F5F5F5F5F5F5F5F5F5F5F5F5F5F5F5F5F5F5F5F5F5F5F5F5F5F5F5F5F5
310
F5F5F5F5F5F5F5F5F5F5F5F5F5F5F5F5F5F5F5F5F5F5F5F5F5F5F5F5F5F5F5F5F5F5F5F5F5F5F5F5F5F5F5F5F5F5F5F5F5F5F5F5F5F5F5F5F5F5F5F5F5F5F5F5F5F5F5F5F5F5F5F5F5F5F5F5F5F5F5F5F5F5F5F5F5F5F5F5F5F5F5E2F5F5F5F5F5F5F5F5F5F5F5F5F5F5F5F5F5F5F5F5E2E2EFF5F5F5F5F5F5F5F5F5F5F5F5
310
F5F5F5F5F5F5F5F5E2F5F5F5F5F5F5F5F5F5F5F5F5F5F5F5F5F5F5F5F5F5F5F5F5F5F5F5F5F5F5F5F5F5F5F5F5F5F5F5F5F5F5F5F5F5F5F5F5F5F5F5F5F5F5F5F5F5F5F5F5F5F5F5F5F5F5F5F5F5F5F5F5F5F5F5F5F5F5F5F5F5F5F5F5F5F5F5F5F5F5F5F5F5F5F5F5F5F5F5F5F5F5F5F5F5F5F5F5F5F5F5F5F5F5F5F5F5F5
310
F5F5F5F5F5F5F5F5F5F5F5F5F5F5F5F5F5E2F5F5F5F5F5F5F5F5F5F5F5F5F5F5F5F5F5F5F5F5E2E2EFF5F5F5F5F5F5F5F5F5F5F5F5F5F5F5F5F5F5F5F5E2F5F5F5F5F5F5F5F5F5F5F5F5F5F5F5F5F5F5F5F5F5F5F5F5F5F5F5F5F5F5F5F5F5F5F5F5F5F5F5F5F5F5F5F5F5F5F5F5F5F5F5F5F5F5F5F5F5F5F5F5F5F5F5F5F5
310
F5F5F5F5F5F5F5F5F5F5F5F5F5F5F5F5F5F5F5F5F5F5F5F5F5F5F5F5F5F5F5F5F5F5F5F5F5F5F5F5F5F5F5F5F5F5F5F5F5F5F5F5F5F5F5F5F5F5F5F5F5F5F5F5F5F5F5F5F5F5E2F5F5F5F5F5F5F5F5F5F5F5F5F5F5F5F5F5F5F5F5E2E2EFF5F5F5F5F5F5F5F5F5F5F5F5F5F5F5F5F5F5F5F5E2F5F5F5F5F5F5F5F5F5F5F5F5
310
F5F5F5F5F5F5F5F5F5F5F5F5F5F5F5F5F5F5F5F5F5F5F5F5F5F5F5F5F5F5F5F5F5F5F5F5F5F5F5F5F5F5F5F5F5F5F5F5F5F5F5F5F5F5F5F5F5F5F5F5F5F5F5F5F5F5F5F5F5F5F5F5F5F5F5F5F5F5F5F5F5F5F5F5F5F5F5F5F5F5F5F5F5F5F5F5F5F5F5F5F5F5F5F5F5F5F5F5F5F5F5F5F5F5F5F5F5F5F5F5F5F5F5E2F5F5F5
310
F5F5F5F5F5F5F5F5F5F5F5F5F5F5F5F5F5E2E2EFF5F5F5F5F5F5F5F5F5F5F5F5F5F5F5F5F5F5F5F5E2F5F5F5F5F5F5F5F5F5F5F5F5F5F5F5F5F5F5F5F5F5F5F5F5F5F5F5F5F5F5F5F5F5F5F5F5F5F5F5F5F5F5F5F5F5F5F5F5F5F5F5F5F5F5F5F5F5F5F5F5F5F5F5F5F5F5F5F5F5F5F5F5F5F5F5F5F5F5F5F5F5F5F5F5F5F5
310
F5F5F5F5F5F5F5F5F5F5F5F5F5F5F5F5F5F5F5F5F5F5F5F5F5F5F5F5F5F5F5F5F5F5F5F5F5F5F5F5F5F5F5F5F5F5F5F5F5E2F5F5F5F5F5F5F5F5F5F5F5F5F5F5F5F5F5F5F5F5E2E2EFF5F5F5F5F5F5F5F5F5F5F5F5F5F5F5F5F5F5F5F5E2F5F5F5F5F5F5F5F5F5F5F5F5F5F5F5F5F5F5F5F5F5F5F5F5F5F5F5F5F5F5F5F5F5
310
F5F5F5F5F5F5F5F5F5F5F5F5F5F5F5F5F5F5F5F5F5F5F5F5F5F5F5F5F5F5F5F5F5F5F5F5F5F5F5F5F5F5F5F5F5F5F5F5F5F5F5F5F5F5F5F5F5F5F5F5F5F5F5F5F5F5F5F5F5F5F5F5F5F5F5F5F5F5F5F5F5F5F5F5F5F5F5F5F5F5F5F5F5F5F5F5F5F5F5F5F5F5E2F5F5F5F5F5F5F5F5F5F5F5F5F5F5F5F5F5F5F5F5E2E2EFF5
310
F5F5F5F5F5F5F5F5F5F5F5F5F5F5F5F5F5F5F5E2F5F5F5F5F5F5F5F5F5F5F5F5F5F5F5F5F5F5F5F5F5F5F5F5F5F5F5F5F5F5F5F5F5F5F5F5F5F5F5F5F5F5F5F5F5F5F5F5F5F5F5F5F5F5F5F5F5F5F5F5F5F5F5F5F5F5F5F5F5F5F5F5F5F5F5F5F5F5F5F5F5F5F5F5F5F5F5F5F5F5F5F5F5F5F5F5F5F5F5F5F5F5F5F5F5F5F5
310
F5F5F5F5F5F5F5F5F5F5F5F5F5F5F5F5F5F5F5F5F5F5F5F5F5F5F5F5E2F5F5F5F5F5F5F5F5F5F5F5F5F5F5F5F5F5F5F5F5E2E2EFF5F5F5E2F5F5F5F5F5F5F5F5F5F5F5F5F5F5F5F5E2F5F5F5F5F5F5F5F5F5F5F5F5F5F5F5F5F5F5F5F5F5F5F5F5F5F5F5F5F5F5F5F5F5F5F5F5F5F5F5F5F5F5F5F5F5F5F5F5F5F5F5F5F5F5
310
F5F5F5F5F5F5F5F5F5F5F5F5F5F5F5F5F5F5F5F5F5F5F5F5F5F5F5F5F5F5F5F5F5F5F5F5F5F5F5F5F5F5F5F5F5F5F5F5F5F5F5F5F5F5F5F5F5F5F5F5F5F5F5F5F5F5F5F5F5F5F5F5F5F5F5F5F5F5F5F5F5E2F5F5F5F5F5F5F5F5F5F5F5F5F5F5F5F5E2F5F5F5E2E2EFF5F5F5E2F5F5F5F5F5F5F5F5F5F5F5F5F5F5F5F5E2F5
310
F5F5F5F5F5F5F5F5F5F5F5F5F5F5F5F5F5F5F5F5F5F5F5F5F5F5F5F5F5F5F5F5F5F5F5F5F5F5F5F5F5F5F5F5F5F5F5F5F5F5F5F5F5F5F5F5F5F5F5F5F5F5F5F5F5F5F5F5F5F5F5F5F5F5F5F5F5F5F5F5F5F5F5F5F5F5F5F5F5F5F5F5F5F5F5F5F5F5F5F5F5F5F5F5F5F5F5F5F5F5F5F5F5F5F5F5F5F5F5F5F5F5F5F5F5F5F5
310
F5F5F5F5F5F5F5E2F5F5F5F5F5F5F5F5F5F5F5F5F5F5F5F5E2F5F5F5E2E2EFF5F5F5E2F5F5F5F5F5F5F5F5F5F5F5F5F5F5F5F5E2F5F5F5F5F5F5F5F5F5F5F5F5F5F5F5F5F5F5F5F5F5F5F5F5F5F5F5F5F5F5F5F5F5F5F5F5F5F5F5F5F5F5F5F5F5F5F5F5F5F5F5F5F5F5F5F5F5F5F5F5F5F5F5F5F5F5F5F5F5F5F5F5F5F5F5
310
F5F5F5F5F5F5F5F5F5F5F5F5F5F5F5F5F5F5F5F5F5F5F5F5F5F5F5F5F5F5F5F5F5F5F5F5F5F5F5F5F5F5F5F5F5F5F5F5F5F5F5F5F5F5F5F5F5F5F5F5E2F5F5F5F5F5F5F5F5F5F5F5F5F5F5F5F5E2F5F5F5E2E2EFF5F5F5E2F5F5F5F5F5F5F5F5F5F5F5F5F5F5F5F5E2F5F5F5F5F5F5F5F5F5F5F5F5F5F5F5F5F5F5F5F5F5F5
310
F5F5F5F5F5F5F5F5F5F5F5F5F5F5F5F5F5F5F5F5F5F5F5F5F5F5F5F5F5F5F5F5F5F5F5F5F5F5F5F5F5F5F5F5F5F5F5F5F5F5F5F5F5F5F5F5F5F5F5F5F5F5F5F5F5F5F5F5F5F5F5F5F5F5F5F5F5F5F5F5F5F5F5F5F5F5F5F5F5F5F5F5F5F5F5F5F5F5F5F5F5F5F5F5F5F5F5F5F5F5F5F5F5E2F5F5F5F5F5F5F5F5F5F5F5F5F5
310
F5F5F5E2F5F5F5E2E2EFF5F5F5E2F5F5F5F5F5F5F5F5F5F5F5F5F5F5F5F5E2F5F5F5F5F5F5F5F5F5F5F5F5F5F5F5F5F5F5F5F5F5F5F5F5F5F5F5F5F5F5F5F5F5F5F5F5F5F5F5F5F5F5F5F5F5F5F5F5F5F5F5F5F5F5F5F5F5F5F5F5F5F5F5F5F5F5F5F5F5F5F5F5F5F5F5F5F5F5F5F5F5F5F5F5F5F5F5F5F5F5F5F5F5F5F5F5
310
F5F5F5F5F5F5F5F5F5F5F5F5F5F5F5F5F5F5F5F5F5F5F5F5F5F5F5F5F5F5F5F5F5F5F5F5F5F5F5E2F5F5F5F5F5F5F5F5F5F5F5F5F5F5F5F5E2F5F5F5E2E2EFF5F5F5E2F5F5F5F5F5F5F5F5F5F5F5F5F5F5F5F5E2F5F5F5F5F5F5F5F5F5F5F5F5F5F5F5F5F5F5F5F5F5F5F5F5F5F5F5F5F5F5F5F5F5F5F5F5F5F5F5F5F5F5F5
310
F5F5F5F5F5F5F5F5F5F5F5F5F5F5F5F5F5F5F5F5F5F5F5F5F5F5F5F5F5F5F5F5F5F5F5F5F5F5F5F5F5F5F5F5F5F5F5F5F5F5F5F5F5F5F5F5F5F5F5F5F5F5F5F5F5F5F5F5F5F5F5F5F5F5F5F5F5F5F5F5F5F5F5F5F5F5F5F5F5F5F5F5E2F5F5F5F5F5F5F5F5F5F5F5F5F5F5F5F5E2F5F5F5E2E2EFF5F5F5E2F5F5F5F5F5F5F5
310
F5F5F5F5F5F5F5F5F5E2F5F5F5F5F5F5F5F5F5F5F5F5F5F5F5F5F5F5F5F5F5F5F5F5F5F5F5F5F5F5F5F5F5F5F5F5F5F5F5F5F5F5F5F5F5F5F5F5F5F5F5F5F5F5F5F5F5F5F5F5F5F5F5F5F5F5F5F5F5F5F5F5F5F5F5F5F5F5F5F5F5F5F5F5F5F5F5F5F5F5F5F5F5F5F5F5F5F5F5F5F5F5F5F5F5F5F5F5F5F5F5F5F5F5F5F5F5
310
F5F5F5F5F5F5F5F5F5F5F5F5F5F5F5F5F5F5E2F5F5F5F5F5F5F5F5F5F5F5F5F5F5F5F5E2F5F5F5E2E2EFF5F5F5E2F5F5F5F5F5F5F5F5F5F5F5F5F5F5F5F5E2F5F5F5F5F5F5F5F5F5F5F5F5F5F5F5F5F5F5F5F5F5F5F5F5F5F5F5F5F5F5F5F5F5F5F5F5F5F5F5F5F5F5F5F5F5F5F5F5F5F5F5F5F5F5F5F5F5F5F5F5F5F5F5F5
310
F5F5F5F5F5F5F5F5F5F5F5F5F5F5F5F5F5F5F5F5F5F5F5F5F5F5F5F5F5F5F5F5F5F5F5F5F5F5F5F5F5F5F5F5F5F5F5F5F5F5F5F5F5F5F5F5F5F5F5F5F5F5F5F5F5F5F5F5F5F5F5E2F5F5F5F5F5F5F5F5F5F5F5F5F5F5F5F5E2F5F5F5E2E2EFF5F5F5E2F5F5F5F5F5F5F5F5F5F5F5F5F5F5F5F5E2F5F5F5F5F5F5F5F5F5F5F5
310
F5F5F5F5F5F5F5F5F5F5F5F5F5F5F5F5F5F5F5F5F5F5F5F5F5F5F5F5F5F5F5F5F5F5F5F5F5F5F5F5F5F5F5F5F5F5F5F5F5F5F5F5F5F5F5F5F5F5F5F5F5F5F5F5F5F5F5F5F5F5F5F5F5F5F5F5F5F5F5F5F5F5F5F5F5F5F5F5F5F5F5F5F5F5F5F5F5F5F5F5F5F5F5F5F5F5F5F5F5F5F5F5F5F5F5F5F5F5F5F5F5F5F5F5E2F5F5
310
F5F5F5F5F5F5F5F5F5F5F5F5F5F5E2F5F5F5E2E2EFF5F5F5E2F5F5F5F5F5F5F5F5F5F5F5F5F5F5F5F5E2F5F5F5F5F5F5F5F5F5F5F5F5F5F5F5F5F5F5F5F5F5F5F5F5F5F5F5F5F5F5F5F5F5F5F5F5F5F5F5F5F5F5F5F5F5F5F5F5F5F5F5F5F5F5F5F5F5F5F5F5F5F5F5F5F5F5F5F5F5F5F5F5F5F5F5F5F5F5F5F5F5F5F5F5F5
310
F5F5F5F5F5F5F5F5F5F5F5F5F5F5F5F5F5F5F5F5F5F5F5F5F5F5F5F5F5F5F5F5F5F5F5F5F5F5F5F5F5F5F5F5F5F5F5F5F5F5E2F5F5F5F5F5F5F5F5F5F5F5F5F5F5F5F5E2F5F5F5E2E2EFF5F5F5E2F5F5F5F5F5F5F5F5F5F5F5F5F5F5F5F5E2F5F5F5F5F5F5F5F5F5F5F5F5F5F5F5F5F5F5F5F5F5F5F5F5F5F5F5F5F5F5F5F5
310
F5F5F5F5F5F5F5F5F5F5F5F5F5F5F5F5F5F5F5F5F5F5F5F5F5F5F5F5F5F5F5F5F5F5F5F5F5F5F5F5F5F5F5F5F5F5F5F5F5F5F5F5F5F5F5F5F5F5F5F5F5F5F5F5F5F5F5F5F5F5F5F5F5F5F5F5F5F5F5F5F5F5F5F5F5F5F5F5F5F5F5F5F5F5F5F5F5F5F5F5F5F5F5E2F5F5F5F5F5F5F5F5F5F5F5F5F5F5F5F5E2F5F5F5E2E2EF
310
F5F5F5E2F5F5F5F5F5F5F5F5F5F5F5F5F5F5F5F5E2F5F5F5F5F5F5F5F5F5F5F5F5F5F5F5F5F5F5F5F5F5F5F5F5F5F5F5F5F5F5F5F5F5F5F5F5F5F5F5F5F5F5F5F5F5F5F5F5F5F5F5F5F5F5F5F5F5F5F5F5F5F5F5F5F5F5F5F5F5F5F5F5F5F5F5F5F5F5F5F5F5F5F5F5F5F5F5F5F5F5F5F5F5F5F5F5F5F5F5F5F5F5F5F5F5F5
310
F5F5F5F5F5F5F5F5F5F5F5F5F5F5F5F5F5F5F5F5F5F5F5F5F5F5F5F5F5E2F5F5F5F5F5F5F5F5F5F5F5F5F5F5F5F5E2F5F5F5E2E2EFF5F5F5E2F5F5F5F5F5F5F5F5F5F5F5F5F5F5F5F5E2F5F5F5F5F5F5F5F5F5F5F5F5F5F5F5F5F5F5F5F5F5F5F5F5F5F5F5F5F5F5F5F5F5F5F5F5F5F5F5F5F5F5F5F5F5F5F5F5F5F5F5F5F5
310
F5F5F5F5F5F5F5F5F5F5F5F5F5F5F5F5F5F5F5F5F5F5F5F5F5F5F5F5F5F5F5F5F5F5F5F5F5F5F5F5F5F5F5F5F5F5F5F5F5F5F5F5F5F5F5F5F5F5F5F5F5F5F5F5F5F5F5F5F5F5F5F5F5F5F5F5F5F5F5F5F5F5E2F5F5F5F5F5F5F5F5F5F5F5F5F5F5F5F5E2F5F5F5E2E2EFF5F5F5E2F5F5F5F5F5F5F5F5F5F5F5F5F5F5F5F5E2
310
F5F5F5F5F5F5F5F5F5F5F5F5F5F5F5F5F5F5F5F5F5F5F5F5F5F5F5F5F5F5F5F5F5F5F5F5F5F5F5F5F5F5F5F5F5F5F5F5F5F5F5F5F5F5F5F5F5F5F5F5F5F5F5F5F5F5F5F5F5F5F5F5F5F5F5F5F5F5F5F5F5F5F5F5F5F5F5F5F5F5F5F5F5F5F5F5F5F5F5F5F5F5F5F5F5F5F5F5F5F5F5F5F5F5F5F5F5F5F5F5F5F5F5F5F5F5F5
310
F5F5F5F5F5F5F5F5E2F5F5F5F5F5F5F5F5F5F5F5F5F5F5F5F5E2F5F5F5E2E2EFF5F5F5E2F5F5F5F5F5F5F5F5F5F5F5F5F5F5F5F5E2F5F5F5F5F5F5F5F5F5F5F5F5F5F5F5F5F5F5F5F5F5F5F5F5F5F5F5F5F5F5F5F5F5F5F5F5F5F5F5F5F5F5F5F5F5F5F5F5F5F5F5F5F5F5F5F5F5F5F5F5F5F5F5F5F5F5F5F5F5F5F5F5F5F5
310
F5F5F5F5F5F5F5F5F5F5F5F5F5F5F5F5F5F5F5F5F5F5F5F5F5F5F5F5F5F5F5F5F5F5F5F5F5F5F5F5F5F5F5F5F5F5F5F5F5F5F5F5F5F5F5F5F5F5F5F5F5E2F5F5F5F5F5F5F5F5F5F5F5F5F5F5F5F5E2F5F5F5E2E2EFF5F5F5E2F5F5F5F5F5F5F5F5F5F5F5F5F5F5F5F5E2F5F5F5F5F5F5F5F5F5F5F5F5F5F5F5F5F5F5F5F5F5
310
F5F5F5F5F5F5F5F5F5F5F5F5F5F5F5F5F5F5F5F5F5F5F5F5F5F5F5F5F5F5F5F5F5F5F5F5F5F5F5F5F5F5F5F5F5F5F5F5F5F5F5F5F5F5F5F5F5F5F5F5F5F5F5F5F5F5F5F5F5F5F5F5F5F5F5F5F5F5F5F5F5F5F5F5F5F5F5F5F5F5F5F5F5F5F5F5F5F5F5F5F5F5F5F5F5F5F5F5F5F5F5F5F5F5E2F5F5F5F5F5F5F5F5F5F5F5F5
310
F5F5F5F5E2F5F5F5E2E2EFF5F5F5E2F5F5F5F5F5F5F5F5F5F5F5F5F5F5F5F5E2F5F5F5F5F5F5F5F5F5F5F5F5F5F5F5F5F5F5F5F5F5F5F5F5F5F5F5F5F5F5F5F5F5F5F5F5F5F5F5F5F5F5F5F5F5F5F5F5F5F5F5F5F5F5F5F5F5F5F5F5F5F5F5F5F5F5F5F5F5F5F5F5F5F5F5F5F5F5F5F5F5F5F5F5F5F5F5F5F5F5F5F5F5F5F5
310
F5F5F5F5F5F5F5F5F5F5F5F5F5F5F5F5F5F5F5F5F5F5F5F5F5F5F5F5F5F5F5F5F5F5F5F5F5F5F5F5E2F5F5F5F5F5F5F5F5F5F5F5F5F5F5F5F5E2F5F5F5E2E2EFF5F5F5F5F5F5F5F5F5F5F5F5F5F5F5F5F5F5F5F5E2F5F5F5F5F5F5F5F5F5F5F5F5F5F5F5F5F5F5F5F5F5F5F5F5F5F5F5F5F5F5F5F5F5F5F5F5F5F5F5F5F5F5
310
F5F5F5F5F5F5F5F5F5F5F5F5F5F5F5F5F5F5F5F5F5F5F5F5F5F5F5F5F5F5F5F5F5F5F5F5F5F5F5F5F5F5F5F5F5F5F5F5F5F5F5F5F5F5F5F5F5F5F5F5F5F5F5F5F5F5F5F5F5F5F5F5F5F5F5F5F5F5F5F5F5F5F5F5F5F5F5F5F5F5F5F5F5E2F5F5F5F5F5F5F5F5F5F5F5F5F5F5F5F5F5F5F5F5E2E2EFF5F5F5F5F5F5F5F5F5F5
310
F5F5F5F5F5F5F5F5F5F5E2F5F5F5F5F5F5F5F5F5F5F5F5F5F5F5F5F5F5F5F5F5F5F5F5F5F5F5F5F5F5F5F5F5F5F5F5F5F5F5F5F5F5F5F5F5F5F5F5F5F5F5F5F5F5F5F5F5F5F5F5F5F5F5F5F5F5F5F5F5F5F5F5F5F5F5F5F5F5F5F5F5F5F5F5F5F5F5F5F5F5F5F5F5F5F5F5F5F5F5F5F5F5F5F5F5F5F5F5F5F5F5F5F5F5F5F5
310
F5F5F5F5F5F5F5F5F5F5F5F5F5F5F5F5F5F5F5E2F5F5F5F5F5F5F5F5F5F5F5F5F5F5F5F5F5F5F5F5E2E2EFF5F5F5F5F5F5F5F5F5F5F5F5F5F5F5F5F5F5F5F5E2F5F5F5F5F5F5F5F5F5F5F5F5F5F5F5F5F5F5F5F5F5F5F5F5F5F5F5F5F5F5F5F5F5F5F5F5F5F5F5F5F5F5F5F5F5F5F5F5F5F5F5F5F5F5F5F5F5F5F5F5F5F5F5
310
F5F5F5F5F5F5F5F5F5F5F5F5F5F5F5F5F5F5F5F5F5F5F5F5F5F5F5F5F5F5F5F5F5F5F5F5F5F5F5F5F5F5F5F5F5F5F5F5F5F5F5F5F5F5F5F5F5F5F5F5F5F5F5F5F5F5F5F5F5F5F5F5E2F5F5F5F5F5F5F5F5F5F5F5F5F5F5F5F5F5F5F5F5E2E2EFF5F5F5F5F5F5F5F5F5F5F5F5F5F5F5F5F5F5F5F5E2F5F5F5F5F5F5F5F5F5F5
310
F5F5F5F5F5F5F5F5F5F5F5F5F5F5F5F5F5F5F5F5F5F5F5F5F5F5F5F5F5F5F5F5F5F5F5F5F5F5F5F5F5F5F5F5F5F5F5F5F5F5F5F5F5F5F5F5F5F5F5F5F5F5F5F5F5F5F5F5F5F5F5F5F5F5F5F5F5F5F5F5F5F5F5F5F5F5F5F5F5F5F5F5F5F5F5F5F5F5F5F5F5F5F5F5F5F5F5F5F5F5F5F5F5F5F5F5F5F5F5F5F5F5F5F5F5E2F5
310
F5F5F5F5F5F5F5F5F5F5F5F5F5F5F5F5F5F5F5E2E2EFF5F5F5F5F5F5F5F5F5F5F5F5F5F5F5F5F5F5F5F5E2F5F5F5F5F5F5F5F5F5F5F5F5F5F5F5F5F5F5F5F5F5F5F5F5F5F5F5F5F5F5F5F5F5F5F5F5F5F5F5F5F5F5F5F5F5F5F5F5F5F5F5F5F5F5F5F5F5F5F5F5F5F5F5F5F5F5F5F5F5F5F5F5F5F5F5F5F5F5F5F5F5F5F5F5
310
F5F5F5F5F5F5F5F5F5F5F5F5F5F5F5F5F5F5F5F5F5F5F5F5F5F5F5F5F5F5F5F5F5F5F5F5F5F5F5F5F5F5F5F5F5F5F5F5F5F5F5E2F5F5F5F5F5F5F5F5F5F5F5F5F5F5F5F5F5F5F5F5E2E2EFF5F5F5F5F5F5F5F5F5F5F5F5F5F5F5F5F5F5F5F5E2F5F5F5F5F5F5F5F5F5F5F5F5F5F5F5F5F5F5F5F5F5F5F5F5F5F5F5F5F5F5F5
310
F5F5F5F5F5F5F5F5F5F5F5F5F5F5F5F5F5F5F5F5F5F5F5F5F5F5F5F5F5F5F5F5F5F5F5F5F5F5F5F5F5F5F5F5F5F5F5F5F5F5F5F5F5F5F5F5F5F5F5F5F5F5F5F5F5F5F5F5F5F5F5F5F5F5F5F5F5F5F5F5F5F5F5F5F5F5F5F5F5F5F5F5F5F5F5F5F5F5F5F5F5F5F5F5E2F5F5F5F5F5F5F5F5F5F5F5F5F5F5F5F5F5F5F5F5E2E2
310
EFF5F5F5F5F5F5F5F5F5F5F5F5F5F5F5F5F5F5F5F5E2F5F5F5F5F5F5F5F5F5F5F5F5F5F5F5F5F5F5F5F5F5F5F5F5F5F5F5F5F5F5F5F5F5F5F5F5F5F5F5F5F5F5F5F5F5F5F5F5F5F5F5F5F5F5F5F5F5F5F5F5F5F5F5F5F5F5F5F5F5F5F5F5F5F5F5F5F5F5F5F5F5F5F5F5F5F5F5F5F5F5F5F5F5F5F5F5F5F5F5F5F5F5F5F5F5
310
F5F5F5F5F5F5F5F5F5F5F5F5F5F5F5F5F5F5F5F5F5F5F5F5F5F5F5F5F5F5E2F5F5F5F5F5F5F5F5F5F5F5F5F5F5F5F5F5F5F5F5E2E2EFF5F5F5F5F5F5F5F5F5F5F5F5F5F5F5F5F5F5F5F5E2F5F5F5F5F5F5F5F5F5F5F5F5F5F5F5F5F5F5F5F5F5F5F5F5F5F5F5F5F5F5F5F5F5F5F5F5F5F5F5F5F5F5F5F5F5F5F5F5F5F5F5F5
310
F5F5F5F5F5F5F5F5F5F5F5F5F5F5F5F5F5F5F5F5F5F5F5F5F5F5F5F5F5F5F5F5F5F5F5F5F5F5F5F5F5F5F5F5F5F5F5F5F5F5F5F5F5F5F5F5F5F5F5F5F5F5F5F5F5F5F5F5F5F5F5F5F5F5F5F5F5F5F5F5F5F5F5E2F5F5F5F5F5F5F5F5F5F5F5F5F5F5F5F5F5F5F5F5E2E2EFF5F5F5F5F5F5F5F5F5F5F5F5F5F5F5F5F5F5F5F5
310
E2F5F5F5F5F5F5F5F5F5F5F5F5F5F5F5F5F5F5F5F5F5F5F5F5F5F5F5F5F5F5F5F5F5F5F5F5F5F5F5F5F5F5F5F5F5F5F5F5F5F5F5F5F5F5F5F5F5F5F5F5F5F5F5F5F5F5F5F5F5F5F5F5F5F5F5F5F5F5F5F5F5F5F5F5F5F5F5F5F5F5F5F5F5F5F5F5F5F5F5F5F5F5F5F5F5F5F5F5F5F5F5F5F5F5F5F5F5F5F5F5F5F5F5F5F5F5
310
F5F5F5F5F5F5F5F5F5E2F5F5F5F5F5F5F5F5F5F5F5F5F5F5F5F5F5F5F5F5E2E2EFF5F5F5E2F5F5F5F5F5F5F5F5F5F5F5F5F5F5F5F5E2F5F5F5F5F5F5F5F5F5F5F5F5F5F5F5F5F5F5F5F5F5F5F5F5F5F5F5F5F5F5F5F5F5F5F5F5F5F5F5F5F5F5F5F5F5F5F5F5F5F5F5F5F5F5F5F5F5F5F5F5F5F5F5F5F5F5F5F5F5F5F5F5F5
310
F5F5F5F5F5F5F5F5F5F5F5F5F5F5F5F5F5F5F5F5F5F5F5F5F5F5F5F5F5F5F5F5F5F5F5F5F5F5F5F5F5F5F5F5F5F5F5F5F5F5F5F5F5F5F5F5F5F5F5F5F5F5E2F5F5F5F5F5F5F5F5F5F5F5F5F5F5F5F5E2F5F5F5E2E2EFF5F5F5E2F5F5F5F5F5F5F5F5F5F5F5F5F5F5F5F5E2F5F5F5F5F5F5F5F5F5F5F5F5F5F5F5F5F5F5F5F5
310
F5F5F5F5F5F5F5F5F5F5F5F5F5F5F5F5F5F5F5F5F5F5F5F5F5F5F5F5F5F5F5F5F5F5F5F5F5F5F5F5F5F5F5F5F5F5F5F5F5F5F5F5F5F5F5F5F5F5F5F5F5F5F5F5F5F5F5F5F5F5F5F5F5F5F5F5F5F5F5F5F5F5F5F5F5F5F5F5F5F5F5F5F5F5F5F5F5F5F5F5F5F5F5F5F5F5F5F5F5F5F5F5F5F5F5E2F5F5F5F5F5F5F5F5F5F5F5
310
F5F5F5F5F5E2F5F5F5E2E2EFF5F5F5E2F5F5F5F5F5F5F5F5F5F5F5F5F5F5F5F5E2F5F5F5F5F5F5F5F5F5F5F5F5F5F5F5F5F5F5F5F5F5F5F5F5F5F5F5F5F5F5F5F5F5F5F5F5F5F5F5F5F5F5F5F5F5F5F5F5F5F5F5F5F5F5F5F5F5F5F5F5F5F5F5F5F5F5F5F5F5F5F5F5F5F5F5F5F5F5F5F5F5F5F5F5F5F5F5F5F5F5F5F5F5F5
310
F5F5F5F5F5F5F5F5F5F5F5F5F5F5F5F5F5F5F5F5F5F5F5F5F5F5F5F5F5F5F5F5F5F5F5F5F5F5F5F5F5E2F5F5F5F5F5F5F5F5F5F5F5F5F5F5F5F5E2F5F5F5E2E2EFF5F5F5E2F5F5F5F5F5F5F5F5F5F5F5F5F5F5F5F5E2F5F5F5F5F5F5F5F5F5F5F5F5F5F5F5F5F5F5F5F5F5F5F5F5F5F5F5F5F5F5F5F5F5F5F5F5F5F5F5F5F5
310
F5F5F5F5F5F5F5F5F5F5F5F5F5F5F5F5F5F5F5F5F5F5F5F5F5F5F5F5F5F5F5F5F5F5F5F5F5F5F5F5F5F5F5F5F5F5F5F5F5F5F5F5F5F5F5F5F5F5F5F5F5F5F5F5F5F5F5F5F5F5F5F5F5F5F5F5F5F5F5F5F5F5F5F5F5F5F5F5F5F5F5F5F5F5E2F5F5F5F5F5F5F5F5F5F5F5F5F5F5F5F5E2F5F5F5E2E2EFF5F5F5E2F5F5F5F5F5
310
F5F5F5F5F5F5F5F5F5F5F5E2F5F5F5F5F5F5F5F5F5F5F5F5F5F5F5F5F5F5F5F5F5F5F5F5F5F5F5F5F5F5F5F5F5F5F5F5F5F5F5F5F5F5F5F5F5F5F5F5F5F5F5F5F5F5F5F5F5F5F5F5F5F5F5F5F5F5F5F5F5F5F5F5F5F5F5F5F5F5F5F5F5F5F5F5F5F5F5F5F5F5F5F5F5F5F5F5F5F5F5F5F5F5F5F5F5F5F5F5F5F5F5F5F5F5F5
310
F5F5F5F5F5F5F5F5F5F5F5F5F5F5F5F5F5F5F5F5E2F5F5F5F5F5F5F5F5F5F5F5F5F5F5F5F5E2F5F5F5E2E2EFF5F5F5E2F5F5F5F5F5F5F5F5F5F5F5F5F5F5F5F5E2F5F5F5F5F5F5F5F5F5F5F5F5F5F5F5F5F5F5F5F5F5F5F5F5F5F5F5F5F5F5F5F5F5F5F5F5F5F5F5F5F5F5F5F5F5F5F5F5F5F5F5F5F5F5F5F5F5F5F5F5F5F5
310
F5F5F5F5F5F5F5F5F5F5F5F5F5F5F5F5F5F5F5F5F5F5F5F5F5F5F5F5F5F5F5F5F5F5F5F5F5F5F5F5F5F5F5F5F5F5F5F5F5F5F5F5F5F5F5F5F5F5F5F5F5F5F5F5F5F5F5F5F5F5F5F5F5E2F5F5F5F5F5F5F5F5F5F5F5F5F5F5F5F5E2F5F5F5E2E2EFF5F5F5E2F5F5F5F5F5F5F5F5F5F5F5F5F5F5F5F5E2F5F5F5F5F5F5F5F5F5
310
F5F5F5F5F5F5F5F5F5F5F5F5F5F5F5F5F5F5F5F5F5F5F5F5F5F5F5F5F5F5F5F5F5F5F5F5F5F5F5F5F5F5F5F5F5F5F5F5F5F5F5F5F5F5F5F5F5F5F5F5F5F5F5F5F5F5F5F5F5F5F5F5F5F5F5F5F5F5F5F5F5F5F5F5F5F5F5F5F5F5F5F5F5F5F5F5F5F5F5F5F5F5F5F5F5F5F5F5F5F5F5F5F5F5F5F5F5F5F5F5F5F5F5F5F5F5E2
310
F5F5F5F5F5F5F5F5F5F5F5F5F5F5F5F5E2F5F5F5E2E2EFF5F5F5E2F5F5F5F5F5F5F5F5F5F5F5F5F5F5F5F5E2F5F5F5F5F5F5F5F5F5F5F5F5F5F5F5F5F5F5F5F5F5F5F5F5F5F5F5F5F5F5F5F5F5F5F5F5F5F5F5F5F5F5F5F5F5F5F5F5F5F5F5F5F5F5F5F5F5F5F5F5F5F5F5F5F5F5F5F5F5F5F5F5F5F5F5F5F5F5F5F5F5F5F5
310
F5F5F5F5F5F5F5F5F5F5F5F5F5F5F5F5F5F5F5F5F5F5F5F5F5F5F5F5F5F5F5F5F5F5F5F5F5F5F5F5F5F5F5F5F5F5F5F5F5F5F5F5E2F5F5F5F5F5F5F5F5F5F5F5F5F5F5F5F5E2F5F5F5E2E2EFF5F5F5E2F5F5F5F5F5F5F5F5F5F5F5F5F5F5F5F5E2F5F5F5F5F5F5F5F5F5F5F5F5F5F5F5F5F5F5F5F5F5F5F5F5F5F5F5F5F5F5
310
F5F5F5F5F5F5F5F5F5F5F5F5F5F5F5F5F5F5F5F5F5F5F5F5F5F5F5F5F5F5F5F5F5F5F5F5F5F5F5F5F5F5F5F5F5F5F5F5F5F5F5F5F5F5F5F5F5F5F5F5F5F5F5F5F5F5F5F5F5F5F5F5F5F5F5F5F5F5F5F5F5F5F5F5F5F5F5F5F5F5F5F5F5F5F5F5F5F5F5F5F5F5F5F5F5E2F5F5F5F5F5F5F5F5F5F5F5F5F5F5F5F5E2F5F5F5E2
310
E2EFF5F5F5E2F5F5F5F5F5F5F5F5F5F5F5F5F5F5F5F5E2F5F5F5F5F5F5F5F5F5F5F5F5F5F5F5F5F5F5F5F5F5F5F5F5F5F5F5F5F5F5F5F5F5F5F5F5F5F5F5F5F5F5F5F5F5F5F5F5F5F5F5F5F5F5F5F5F5F5F5F5F5F5F5F5F5F5F5F5F5F5F5F5F5F5F5F5F5F5F5F5F5F5F5F5F5F5F5F5F5F5F5F5F5F5F5F5F5F5F5F5F5F5F5F5
310
F5F5F5F5F5F5F5F5F5F5F5F5F5F5F5F5F5F5F5F5F5F5F5F5F5F5F5F5F5F5F5E2F5F5F5F5F5F5F5F5F5F5F5F5F5F5F5F5E2F5F5F5E2E2EFF5F5F5E2F5F5F5F5F5F5F5F5F5F5F5F5F5F5F5F5E2F5F5F5F5F5F5F5F5F5F5F5F5F5F5F5F5F5F5F5F5F5F5F5F5F5F5F5F5F5F5F5F5F5F5F5F5F5F5F5F5F5F5F5F5F5F5F5F5F5F5F5
310
F5F5F5F5F5F5F5F5F5F5F5F5F5F5F5F5F5F5F5F5F5F5F5F5F5F5F5F5F5F5F5F5F5F5F5F5F5F5F5F5F5F5F5F5F5F5F5F5F5F5F5F5F5F5F5F5F5F5F5F5F5F5F5F5F5F5F5F5F5F5F5F5F5F5F5F5F5F5F5F5F5F5F5F5E2F5F5F5F5F5F5F5F5F5F5F5F5F5F5F5F5E2F5F5F5E2E2EFF5F5F5E2F5F5F5F5F5F5F5F5F5F5F5F5F5F5F5
310
F5E2F5F5F5F5F5F5F5F5F5F5F5F5F5F5F5F5F5F5F5F5F5F5F5F5F5F5F5F5F5F5F5F5F5F5F5F5F5F5F5F5F5F5F5F5F5F5F5F5F5F5F5F5F5F5F5F5F5F5F5F5F5F5F5F5F5F5F5F5F5F5F5F5F5F5F5F5F5F5F5F5F5F5F5F5F5F5F5F5F5F5F5F5F5F5F5F5F5F5F5F5F5F5F5F5F5F5F5F5F5F5F5F5F5F5F5F5F5F5F5F5F5F5F5F5F5
310
F5F5F5F5F5F5F5F5F5F5E2F5F5F5F5F5F5F5F5F5F5F5F5F5F5F5F5E2F5F5F5E2E2EFF5F5F5E2F5F5F5F5F5F5F5F5F5F5F5F5F5F5F5F5E2F5F5F5F5F5F5F5F5F5F5F5F5F5F5F5F5F5F5F5F5F5F5F5F5F5F5F5F5F5F5F5F5F5F5F5F5F5F5F5F5F5F5F5F5F5F5F5F5F5F5F5F5F5F5F5F5F5F5F5F5F5F5F5F5F5F5F5F5F5F5F5F5
310
F5F5F5F5F5F5F5F5F5F5F5F5F5F5F5F5F5F5F5F5F5F5F5F5F5F5F5F5F5F5F5F5F5F5F5F5F5F5F5F5F5F5F5F5F5F5F5F5F5F5F5F5F5F5F5F5F5F5F5F5F5F5F5E2F5F5F5F5F5F5F5F5F5F5F5F5F5F5F5F5E2F5F5F5E2E2EFF5F5F5E2F5F5F5F5F5F5F5F5F5F5F5F5F5F5F5F5E2F5F5F5F5F5F5F5F5F5F5F5F5F5F5F5F5F5F5F5
310
F5F5F5F5F5F5F5F5F5F5F5F5F5F5F5F5F5F5F5F5F5F5F5F5F5F5F5F5F5F5F5F5F5F5F5F5F5F5F5F5F5F5F5F5F5F5F5F5F5F5F5F5F5F5F5F5F5F5F5F5F5F5F5F5F5F5F5F5F5F5F5F5F5F5F5F5F5F5F5F5F5F5F5F5F5F5F5F5F5F5F5F5F5F5F5F5F5F5F5F5F5F5F5F5F5F5F5F5F5F5F5F5F5F5F5F5E2F5F5F5F5F5F5F5F5F5F5
310
F5F5F5F5F5F5E2F5F5F5E2E2EFF5F5F5E2F5F5F5F5F5F5F5F5F5F5F5F5F5F5F5F5E2F5F5F5F5F5F5F5F5F5F5F5F5F5F5F5F5F5F5F5F5F5F5F5F5F5F5F5F5F5F5F5F5F5F5F5F5F5F5F5F5F5F5F5F5F5F5F5F5F5F5F5F5F5F5F5F5F5F5F5F5F5F5F5F5F5F5F5F5F5F5F5F5F5F5F5F5F5F5F5F5F5F5F5F5F5F5F5F5F5F5F5F5F5
310
F5F5F5F5F5F5F5F5F5F5F5F5F5F5F5F5F5F5F5F5F5F5F5F5F5F5F5F5F5F5F5F5F5F5F5F5F5F5F5F5F5F5E2F5F5F5F5F5F5F5F5F5F5F5F5F5F5F5F5E2F5F5F5E2E2EFF5F5F5E2F5F5F5F5F5F5F5F5F5F5F5F5F5F5F5F5E2F5F5F5F5F5F5F5F5F5F5F5F5F5F5F5F5F5F5F5F5F5F5F5F5F5F5F5F5F5F5F5F5F5F5F5F5F5F5F5F5
310
F5F5F5F5F5F5F5F5F5F5F5F5F5F5F5F5F5F5F5F5F5F5F5F5F5F5F5F5F5F5F5F5F5F5F5F5F5F5F5F5F5F5F5F5F5F5F5F5F5F5F5F5F5F5F5F5F5F5F5F5F5F5F5F5F5F5F5F5F5F5F5F5F5F5F5F5F5F5F5F5F5F5F5F5F5F5F5F5F5F5F5F5F5F5F5E2F5F5F5F5F5F5F5F5F5F5F5F5F5F5F5F5E2F5F5F5E2E2EFF5F5F5E2F5F5F5F5
310
F5F5F5F5F5F5F5F5F5F5F5F5E2F5F5F5F5F5F5F5F5F5F5F5F5F5F5F5F5F5F5F5F5F5F5F5F5F5F5F5F5F5F5F5F5F5F5F5F5F5F5F5F5F5F5F5F5F5F5F5F5F5F5F5F5F5F5F5F5F5F5F5F5F5F5F5F5F5F5F5F5F5F5F5F5F5F5F5F5F5F5F5F5F5F5F5F5F5F5F5F5F5F5F5F5F5F5F5F5F5F5F5F5F5F5F5F5F5F5F5F5F5F5F5F5F5F5
310
F5F5F5F5F5F5F5F5F5F5F5F5F5F5F5F5F5F5F5F5F5E2F5F5F5F5F5F5F5F5F5F5F5F5F5F5F5F5E2F5F5F5E2E2EFF5F5F5F5F5F5F5F5F5F5F5F5F5F5F5F5F5F5F5F5E2F5F5F5F5F5F5F5F5F5F5F5F5F5F5F5F5F5F5F5F5F5F5F5F5F5F5F5F5F5F5F5F5F5F5F5F5F5F5F5F5F5F5F5F5F5F5F5F5F5F5F5F5F5F5F5F5F5F5F5F5F5
310
F5F5F5F5F5F5F5F5F5F5F5F5F5F5F5F5F5F5F5F5F5F5F5F5F5F5F5F5F5F5F5F5F5F5F5F5F5F5F5F5F5F5F5F5F5F5F5F5F5F5F5F5F5F5F5F5F5F5F5F5F5F5F5F5F5F5F5F5F5F5F5F5F5F5E2F5F5F5F5F5F5F5F5F5F5F5F5F5F5F5F5F5F5F5F5E2E2EFF5F5F5F5F5F5F5F5F5F5F5F5F5F5F5F5F5F5F5F5E2F5F5F5F5F5F5F5F5
310
F5F5F5F5F5F5F5F5F5F5F5F5F5F5F5F5F5F5F5F5F5F5F5F5F5F5F5F5F5F5F5F5F5F5F5F5F5F5F5F5F5F5F5F5F5F5F5F5F5F5F5F5F5F5F5F5F5F5F5F5F5F5F5F5F5F5F5F5F5F5F5F5F5F5F5F5F5F5F5F5F5F5F5F5F5F5F5F5F5F5F5F5F5F5F5F5F5F5F5F5F5F5F5F5F5F5F5F5F5F5F5F5F5F5F5F5F5F5F5F5F5F5F5F5F5F5F5
310
E2F5F5F5F5F5F5F5F5F5F5F5F5F5F5F5F5F5F5F5F5E2E2EFF5F5F5F5F5F5F5F5F5F5F5F5F5F5F5F5F5F5F5F5E2F5F5F5F5F5F5F5F5F5F5F5F5F5F5F5F5F5F5F5F5F5F5F5F5F5F5F5F5F5F5F5F5F5F5F5F5F5F5F5F5F5F5F5F5F5F5F5F5F5F5F5F5F5F5F5F5F5F5F5F5F5F5F5F5F5F5F5F5F5F5F5F5F5F5F5F5F5F5F5F5F5F5
310
F5F5F5F5F5F5F5F5F5F5F5F5F5F5F5F5F5F5F5F5F5F5F5F5F5F5F5F5F5F5F5F5F5F5F5F5F5F5F5F5F5F5F5F5F5F5F5F5F5F5F5F5F5E2F5F5F5F5F5F5F5F5F5F5F5F5F5F5F5F5F5F5F5F5E2E2EFF5F5F5F5F5F5F5F5F5F5F5F5F5F5F5F5F5F5F5F5E2F5F5F5F5F5F5F5F5F5F5F5F5F5F5F5F5F5F5F5F5F5F5F5F5F5F5F5F5F5
310
F5F5F5F5F5F5F5F5F5F5F5F5F5F5F5F5F5F5F5F5F5F5F5F5F5F5F5F5F5F5F5F5F5F5F5F5F5F5F5F5F5F5F5F5F5F5F5F5F5F5F5F5F5F5F5F5F5F5F5F5F5F5F5F5F5F5F5F5F5F5F5F5F5F5F5F5F5F5F5F5F5F5F5F5F5F5F5F5F5F5F5F5F5F5F5F5F5F5F5F5F5F5F5F5F5F5E2F5F5F5F5F5F5F5F5F5F5F5F5F5F5F5F5F5F5F5F5
310
E2E2EFF5F5F5F5F5F5F5F5F5F5F5F5F5F5F5F5F5F5F5F5E2F5F5F5F5F5F5F5F5F5F5F5F5F5F5F5F5F5F5F5F5F5F5F5F5F5F5F5F5F5F5F5F5F5F5F5F5F5F5F5F5F5F5F5F5F5F5F5F5F5F5F5F5F5F5F5F5F5F5F5F5F5F5F5F5F5F5F5F5F5F5F5F5F5F5F5F5F5F5F5F5F5F5F5F5F5F5F5F5F5F5F5F5F5F5F5F5F5F5F5F5F5F5F5
310
F5F5F5F5F5F5F5F5F5F5F5F5F5F5F5F5F5F5F5F5F5F5F5F5F5F5F5F5F5F5F5F5E2F5F5F5F5F5F5F5F5F5F5F5F5F5F5F5F5F5F5F5F5E2E2EFF5F5F5F5F5F5F5F5F5F5F5F5F5F5F5F5F5F5F5F5E2F5F5F5F5F5F5F5F5F5F5F5F5F5F5F5F5F5F5F5F5F5F5F5F5F5F5F5F5F5F5F5F5F5F5F5F5F5F5F5F5F5F5F5F5F5F5F5F5F5F5
310
F5F5F5F5F5F5F5F5F5F5F5F5F5F5F5F5F5F5F5F5F5F5F5F5F5F5F5F5F5F5F5F5F5F5F5F5F5F5F5F5F5F5F5F5F5F5F5F5F5F5F5F5F5F5F5F5F5F5F5F5F5F5F5F5F5F5F5F5F5F5F5F5F5F5F5F5F5F5F5F5F5F5F5F5F5E2F5F5F5F5F5F5F5F5F5F5F5F5F5F5F5F5F5F5F5F5E2E2EFF5F5F5F5F5F5F5F5F5F5F5F5F5F5F5F5F5F5
310
F5F5E2F5F5F5F5F5F5F5F5F5F5F5F5F5F5F5F5F5F5F5F5F5F5F5F5F5F5F5F5F5F5F5F5F5F5F5F5F5F5F5F5F5F5F5F5F5F5F5F5F5F5F5F5F5F5F5F5F5F5F5F5F5F5F5F5F5F5F5F5F5F5F5F5F5F5F5F5F5F5F5F5F5F5F5F5F5F5F5F5F5F5F5F5F5F5F5F5F5F5F5F5F5F5F5F5F5F5F5F5F5F5F5F5F5F5F5F5F5F5F5F5F5F5F5F5
310
F5F5F5F5F5F5F5F5F5F5F5E2F5F5F5F5F5F5F5F5F5F5F5F5F5F5F5F5F5F5F5F5E2E2EFF5F5F5F5F5F5F5F5F5F5F5F5F5F5F5F5F5F5F5F5E2F5F5F5F5F5F5F5F5F5F5F5F5F5F5F5F5F5F5F5F5F5F5F5F5F5F5F5F5F5F5F5F5F5F5F5F5F5F5F5F5F5F5F5F5F5F5F5F5F5F5F5F5F5F5F5F5F5F5F5F5F5F5F5F5F5F5F5F5F5F5F5
310
F5F5F5F5F5F5F5F5F5F5F5F5F5F5F5F5F5F5F5F5F5F5F5F5F5F5F5F5F5F5F5F5F5F5F5F5F5F5F5F5F5F5F5F5F5F5F5F5F5F5F5F5F5F5F5F5F5F5F5F5F5F5F5F5E2F5F5F5F5F5F5F5F5F5F5F5F5F5F5F5F5F5F5F5F5E2E2EFF5F5F5F5F5F5F5F5F5F5F5F5F5F5F5F5F5F5F5F5E2F5F5F5F5F5F5F5F5F5F5F5F5F5F5F5F5F5F5
310
F5F5F5F5F5F5F5F5F5F5F5F5F5F5F5F5F5F5F5F5F5F5F5F5F5F5F5F5F5F5F5F5F5F5F5F5F5F5F5F5F5F5F5F5F5F5F5F5F5F5F5F5F5F5F5F5F5F5F5F5F5F5F5F5F5F5F5F5F5F5F5F5F5F5F5F5F5F5F5F5F5F5F5F5F5F5F5F5F5F5F5F5F5F5F5F5F5F5F5F5F5F5F5F5F5F5F5F5F5F5F5F5F5F5F5F5F5E2F5F5F5F5F5F5F5F5F5
310
F5F5F5F5F5F5F5F5F5F5F5E2E2EFF5F5F5E2F5F5F5F5F5F5F5F5F5F5F5F5F5F5F5F5E2F5F5F5F5F5F5F5F5F5F5F5F5F5F5F5F5F5F5F5F5F5F5F5F5F5F5F5F5F5F5F5F5F5F5F5F5F5F5F5F5F5F5F5F5F5F5F5F5F5F5F5F5F5F5F5F5F5F5F5F5F5F5F5F5F5F5F5F5F5F5F5F5F5F5F5F5F5F5F5F5F5F5F5F5F5F5F5F5F5F5F5F5
310
F5F5F5F5F5F5F5F5F5F5F5F5F5F5F5F5F5F5F5F5F5F5F5F5F5F5F5F5F5F5F5F5F5F5F5F5F5F5F5F5F5F5F5E2F5F5F5F5F5F5F5F5F5F5F5F5F5F5F5F5E2F5F5F5E2E2EFF5F5F5E2F5F5F5F5F5F5F5F5F5F5F5F5F5F5F5F5E2F5F5F5F5F5F5F5F5F5F5F5F5F5F5F5F5F5F5F5F5F5F5F5F5F5F5F5F5F5F5F5F5F5F5F5F5F5F5F5
310
F5F5F5F5F5F5F5F5F5F5F5F5F5F5F5F5F5F5F5F5F5F5F5F5F5F5F5F5F5F5F5F5F5F5F5F5F5F5F5F5F5F5F5F5F5F5F5F5F5F5F5F5F5F5F5F5F5F5F5F5F5F5F5F5F5F5F5F5F5F5F5F5F5F5F5F5F5F5F5F5F5F5F5F5F5F5F5F5F5F5F5F5F5F5F5F5E2F5F5F5F5F5F5F5F5F5F5F5F5F5F5F5F5E2F5F5F5E2E2EFF5F5F5E2F5F5F5
310
F5F5F5F5F5F5F5F5F5F5F5F5F5E2F5F5F5F5F5F5F5F5F5F5F5F5F5F5F5F5F5F5F5F5F5F5F5F5F5F5F5F5F5F5F5F5F5F5F5F5F5F5F5F5F5F5F5F5F5F5F5F5F5F5F5F5F5F5F5F5F5F5F5F5F5F5F5F5F5F5F5F5F5F5F5F5F5F5F5F5F5F5F5F5F5F5F5F5F5F5F5F5F5F5F5F5F5F5F5F5F5F5F5F5F5F5F5F5F5F5F5F5F5F5F5F5F5
310
F5F5F5F5F5F5F5F5F5F5F5F5F5F5F5F5F5F5F5F5F5F5E2F5F5F5F5F5F5F5F5F5F5F5F5F5F5F5F5E2F5F5F5E2E2EFF5F5F5E2F5F5F5F5F5F5F5F5F5F5F5F5F5F5F5F5E2F5F5F5F5F5F5F5F5F5F5F5F5F5F5F5F5F5F5F5F5F5F5F5F5F5F5F5F5F5F5F5F5F5F5F5F5F5F5F5F5F5F5F5F5F5F5F5F5F5F5F5F5F5F5F5F5F5F5F5F5
310
F5F5F5F5F5F5F5F5F5F5F5F5F5F5F5F5F5F5F5F5F5F5F5F5F5F5F5F5F5F5F5F5F5F5F5F5F5F5F5F5F5F5F5F5F5F5F5F5F5F5F5F5F5F5F5F5F5F5F5F5F5F5F5F5F5F5F5F5F5F5F5F5F5F5F5E2F5F5F5F5F5F5F5F5F5F5F5F5F5F5F5F5E2F5F5F5E2E2EFF5F5F5E2F5F5F5F5F5F5F5F5F5F5F5F5F5F5F5F5E2F5F5F5F5F5F5F5
310
F5F5F5F5F5F5F5F5F5F5F5F5F5F5F5F5F5F5F5F5F5F5F5F5F5F5F5F5F5F5F5F5F5F5F5F5F5F5F5F5F5F5F5F5F5F5F5F5F5F5F5F5F5F5F5F5F5F5F5F5F5F5F5F5F5F5F5F5F5F5F5F5F5F5F5F5F5F5F5F5F5F5F5F5F5F5F5F5F5F5F5F5F5F5F5F5F5F5F5F5F5F5F5F5F5F5F5F5F5F5F5F5F5F5F5F5F5F5F5F5F5F5F5F5F5F5F5
310
F5E2F5F5F5F5F5F5F5F5F5F5F5F5F5F5F5F5E2F5F5F5E2E2EFF5F5F5E2F5F5F5F5F5F5F5F5F5F5F5F5F5F5F5F5E2F5F5F5F5F5F5F5F5F5F5F5F5F5F5F5F5F5F5F5F5F5F5F5F5F5F5F5F5F5F5F5F5F5F5F5F5F5F5F5F5F5F5F5F5F5F5F5F5F5F5F5F5F5F5F5F5F5F5F5F5F5F5F5F5F5F5F5F5F5F5F5F5F5F5F5F5F5F5F5F5F5
310
F5F5F5F5F5F5F5F5F5F5F5F5F5F5F5F5F5F5F5F5F5F5F5F5F5F5F5F5F5F5F5F5F5F5F5F5F5F5F5F5F5F5F5F5F5F5F5F5F5F5F5F5F5F5E2F5F5F5F5F5F5F5F5F5F5F5F5F5F5F5F5E2F5F5F5E2E2EFF5F5F5E2F5F5F5F5F5F5F5F5F5F5F5F5F5F5F5F5E2F5F5F5F5F5F5F5F5F5F5F5F5F5F5F5F5F5F5F5F5F5F5F5F5F5F5F5F5
310
F5F5F5F5F5F5F5F5F5F5F5F5F5F5F5F5F5F5F5F5F5F5F5F5F5F5F5F5F5F5F5F5F5F5F5F5F5F5F5F5F5F5F5F5F5F5F5F5F5F5F5F5F5F5F5F5F5F5F5F5F5F5F5F5F5F5F5F5F5F5F5F5F5F5F5F5F5F5F5F5F5F5F5F5F5F5F5F5F5F5F5F5F5F5F5F5F5F5F5F5F5F5F5F5F5F5F5E2F5F5F5F5F5F5F5F5F5F5F5F5F5F5F5F5E2F5F5
310
F5E2E2EFF5F5F5E2F5F5F5F5F5F5F5F5F5F5F5F5F5F5F5F5E2F5F5F5F5F5F5F5F5F5F5F5F5F5F5F5F5F5F5F5F5F5F5F5F5F5F5F5F5F5F5F5F5F5F5F5F5F5F5F5F5F5F5F5F5F5F5F5F5F5F5F5F5F5F5F5F5F5F5F5F5F5F5F5F5F5F5F5F5F5F5F5F5F5F5F5F5F5F5F5F5F5F5F5F5F5F5F5F5F5F5F5F5F5F5F5F5F5F5F5F5F5F5
310
F5F5F5F5F5F5F5F5F5F5F5F5F5F5F5F5F5F5F5F5F5F5F5F5F5F5F5F5F5F5F5F5F5E2F5F5F5F5F5F5F5F5F5F5F5F5F5F5F5F5E2F5F5F5E2E2EFF5F5F5E2F5F5F5F5F5F5F5F5F5F5F5F5F5F5F5F5E2F5F5F5F5F5F5F5F5F5F5F5F5F5F5F5F5F5F5F5F5F5F5F5F5F5F5F5F5F5F5F5F5F5F5F5F5F5F5F5F5F5F5F5F5F5F5F5F5F5
310
F5F5F5F5F5F5F5F5F5F5F5F5F5F5F5F5F5F5F5F5F5F5F5F5F5F5F5F5F5F5F5F5F5F5F5F5F5F5F5F5F5F5F5F5F5F5F5F5F5F5F5F5F5F5F5F5F5F5F5F5F5F5F5F5F5F5F5F5F5F5F5F5F5F5F5F5F5F5F5F5F5F5F5F5F5F5E2F5F5F5F5F5F5F5F5F5F5F5F5F5F5F5F5E2F5F5F5E2E2EFF5F5F5E2F5F5F5F5F5F5F5F5F5F5F5F5F5
310
F5F5F5E2F5F5F5F5F5F5F5F5F5F5F5F5F5F5F5F5F5F5F5F5F5F5F5F5F5F5F5F5F5F5F5F5F5F5F5F5F5F5F5F5F5F5F5F5F5F5F5F5F5F5F5F5F5F5F5F5F5F5F5F5F5F5F5F5F5F5F5F5F5F5F5F5F5F5F5F5F5F5F5F5F5F5F5F5F5F5F5F5F5F5F5F5F5F5F5F5F5F5F5F5F5F5F5F5F5F5F5F5F5F5F5F5F5F5F5F5F5F5F5F5F5F5F5
310
F5F5F5F5F5F5F5F5F5F5F5F5E2F5F5F5F5F5F5F5F5F5F5F5F5F5F5F5F5E2F5F5F5E2E2EFF5F5F5E2F5F5F5F5F5F5F5F5F5F5F5F5F5F5F5F5E2F5F5F5F5F5F5F5F5F5F5F5F5F5F5F5F5F5F5F5F5F5F5F5F5F5F5F5F5F5F5F5F5F5F5F5F5F5F5F5F5F5F5F5F5F5F5F5F5F5F5F5F5F5F5F5F5F5F5F5F5F5F5F5F5F5F5F5F5F5F5
310
F5F5F5F5F5F5F5F5F5F5F5F5F5F5F5F5F5F5F5F5F5F5F5F5F5F5F5F5F5F5F5F5F5F5F5F5F5F5F5F5F5F5F5F5F5F5F5F5F5F5F5F5F5F5F5F5F5F5F5F5F5F5F5F5F5E2F5F5F5F5F5F5F5F5F5F5F5F5F5F5F5F5E2F5F5F5E2E2EFF5F5F5E2F5F5F5F5F5F5F5F5F5F5F5F5F5F5F5F5E2F5F5F5F5F5F5F5F5F5F5F5F5F5F5F5F5F5
310
F5F5F5F5F5F5F5F5F5F5F5F5F5F5F5F5F5F5F5F5F5F5F5F5F5F5F5F5F5F5F5F5F5F5F5F5F5F5F5F5F5F5F5F5F5F5F5F5F5F5F5F5F5F5F5F5F5F5F5F5F5F5F5F5F5F5F5F5F5F5F5F5F5F5F5F5F5F5F5F5F5F5F5F5F5F5F5F5F5F5F5F5F5F5F5F5F5F5F5F5F5F5F5F5F5F5F5F5F5F5F5F5F5F5F5F5F5F5E2F5F5F5F5F5F5F5F5
310
F5F5F5F5F5F5F5F5E2F5F5F5E2E2EFF5F5F5E2F5F5F5F5F5F5F5F5F5F5F5F5F5F5F5F5E2F5F5F5F5F5F5F5F5F5F5F5F5F5F5F5F5F5F5F5F5F5F5F5F5F5F5F5F5F5F5F5F5F5F5F5F5F5F5F5F5F5F5F5F5F5F5F5F5F5F5F5F5F5F5F5F5F5F5F5F5F5F5F5F5F5F5F5F5F5F5F5F5F5F5F5F5F5F5F5F5F5F5F5F5F5F5F5F5F5F5F5
310
F5F5F5F5F5F5F5F5F5F5F5F5F5F5F5F5F5F5F5F5F5F5F5F5F5F5F5F5F5F5F5F5F5F5F5F5F5F5F5F5F5F5F5F5E2F5F5F5F5F5F5F5F5F5F5F5F5F5F5F5F5E2F5F5F5E2E2EFF5F5F5E2F5F5F5F5F5F5F5F5F5F5F5F5F5F5F5F5E2F5F5F5F5F5F5F5F5F5F5F5F5F5F5F5F5F5F5F5F5F5F5F5F5F5F5F5F5F5F5F5F5F5F5F5F5F5F5
310
F5F5F5F5F5F5F5F5F5F5F5F5F5F5F5F5F5F5F5F5F5F5F5F5F5F5F5F5F5F5F5F5F5F5F5F5F5F5F5F5F5F5F5F5F5F5F5F5F5F5F5F5F5F5F5F5F5F5F5F5F5F5F5F5F5F5F5F5F5F5F5F5F5F5F5F5F5F5F5F5F5F5F5F5F5F5F5F5F5F5F5F5F5F5F5F5F5E2F5F5F5F5F5F5F5F5F5F5F5F5F5F5F5F5E2F5F5F5E2E2EFF5F5F5E2F5F5
310
F5F5F5F5F5F5F5F5F5F5F5F5F5F5E2F5F5F5F5F5F5F5F5F5F5F5F5F5F5F5F5F5F5F5F5F5F5F5F5F5F5F5F5F5F5F5F5F5F5F5F5F5F5F5F5F5F5F5F5F5F5F5F5F5F5F5F5F5F5F5F5F5F5F5F5F5F5F5F5F5F5F5F5F5F5F5F5F5F5F5F5F5F5F5F5F5F5F5F5F5F5F5F5F5F5F5F5F5F5F5F5F5F5F5F5F5F5F5F5F5F5F5F5F5F5F5F5
310
F5F5F5F5F5F5F5F5F5F5F5F5F5F5F5F5F5F5F5F5F5F5F5E2F5F5F5F5F5F5F5F5F5F5F5F5F5F5F5F5E2F5F5F5E2E2EFF5F5F5E2F5F5F5F5F5F5F5F5F5F5F5F5F5F5F5F5E2F5F5F5F5F5F5F5F5F5F5F5F5F5F5F5F5F5F5F5F5F5F5F5F5F5F5F5F5F5F5F5F5F5F5F5F5F5F5F5F5F5F5F5F5F5F5F5F5F5F5F5F5F5F5F5F5F5F5F5
310
F5F5F5F5F5F5F5F5F5F5F5F5F5F5F5F5F5F5F5F5F5F5F5F5F5F5F5F5F5F5F5F5F5F5F5F5F5F5F5F5F5F5F5F5F5F5F5F5F5F5F5F5F5F5F5F5F5F5F5F5F5F5F5F5F5F5F5F5F5F5F5F5F5F5F5F5E2F5F5F5F5F5F5F5F5F5F5F5F5F5F5F5F5E2F5F5F5E2E2EFF5F5F5E2F5F5F5F5F5F5F5F5F5F5F5F5F5F5F5F5E2F5F5F5F5F5F5
310
F5F5F5F5F5F5F5F5F5F5F5F5F5F5F5F5F5F5F5F5F5F5F5F5F5F5F5F5F5F5F5F5F5F5F5F5F5F5F5F5F5F5F5F5F5F5F5F5F5F5F5F5F5F5F5F5F5F5F5F5F5F5F5F5F5F5F5F5F5F5F5F5F5F5F5F5F5F5F5F5F5F5F5F5F5F5F5F5F5F5F5F5F5F5F5F5F5F5F5F5F5F5F5F5F5F5F5F5F5F5F5F5F5F5F5F5F5F5F5F5F5F5F5F5F5F5F5
310
F5F5E2F5F5F5F5F5F5F5F5F5F5F5F5F5F5F5F5E2F5F5F5E2E2EFF5F5F5F5F5F5F5F5F5F5F5F5F5F5F5F5F5F5F5F5E2F5F5F5F5F5F5F5F5F5F5F5F5F5F5F5F5F5F5F5F5F5F5F5F5F5F5F5F5F5F5F5F5F5F5F5F5F5F5F5F5F5F5F5F5F5F5F5F5F5F5F5F5F5F5F5F5F5F5F5F5F5F5F5F5F5F5F5F5F5F5F5F5F5F5F5F5F5F5F5F5
310
F5F5F5F5F5F5F5F5F5F5F5F5F5F5F5F5F5F5F5F5F5F5F5F5F5F5F5F5F5F5F5F5F5F5F5F5F5F5F5F5F5F5F5F5F5F5F5F5F5F5F5F5F5F5F5E2F5F5F5F5F5F5F5F5F5F5F5F5F5F5F5F5F5F5F5F5E2E2EFF5F5F5F5F5F5F5F5F5F5F5F5F5F5F5F5F5F5F5F5E2F5F5F5F5F5F5F5F5F5F5F5F5F5F5F5F5F5F5F5F5F5F5F5F5F5F5F5
310
F5F5F5F5F5F5F5F5F5F5F5F5F5F5F5F5F5F5F5F5F5F5F5F5F5F5F5F5F5F5F5F5F5F5F5F5F5F5F5F5F5F5F5F5F5F5F5F5F5F5F5F5F5F5F5F5F5F5F5F5F5F5F5F5F5F5F5F5F5F5F5F5F5F5F5F5F5F5F5F5F5F5F5F5F5F5F5F5F5F5F5F5F5F5F5F5F5F5F5F5F5F5F5F5F5F5F5F5E2F5F5F5F5F5F5F5F5F5F5F5F5F5F5F5F5F5F5
310
F5F5E2E2EFF5F5F5F5F5F5F5F5F5F5F5F5F5F5F5F5F5F5F5F5E2F5F5F5F5F5F5F5F5F5F5F5F5F5F5F5F5F5F5F5F5F5F5F5F5F5F5F5F5F5F5F5F5F5F5F5F5F5F5F5F5F5F5F5F5F5F5F5F5F5F5F5F5F5F5F5F5F5F5F5F5F5F5F5F5F5F5F5F5F5F5F5F5F5F5F5F5F5F5F5F5F5F5F5F5F5F5F5F5F5F5F5F5F5F5F5F5F5F5F5F5F5
310
F5F5F5F5F5F5F5F5F5F5F5F5F5F5F5F5F5F5F5F5F5F5F5F5F5F5F5F5F5F5F5F5F5F5E2F5F5F5F5F5F5F5F5F5F5F5F5F5F5F5F5F5F5F5F5E2E2EFF5F5F5F5F5F5F5F5F5F5F5F5F5F5F5F5F5F5F5F5E2F5F5F5F5F5F5F5F5F5F5F5F5F5F5F5F5F5F5F5F5F5F5F5F5F5F5F5F5F5F5F5F5F5F5F5F5F5F5F5F5F5F5F5F5F5F5F5F5
310
F5F5F5F5F5F5F5F5F5F5F5F5F5F5F5F5F5F5F5F5F5F5F5F5F5F5F5F5F5F5F5F5F5F5F5F5F5F5F5F5F5F5F5F5F5F5F5F5F5F5F5F5F5F5F5F5F5F5F5F5F5F5F5F5F5F5F5F5F5F5F5F5F5F5F5F5F5F5F5F5F5F5F5F5F5F5F5E2F5F5F5F5F5F5F5F5F5F5F5F5F5F5F5F5F5F5F5F5E2E2EFF5F5F5F5F5F5F5F5F5F5F5F5F5F5F5F5
310
F5F5F5F5E2E2E2E2E2E2E2E2E2E2E2E2E2E2E2E2E2E2E2E2E2E2E2E2E2E2E2E2E2E2E2E2E2E2E2E2E2E2E2E2E2E2E2E2E2E2E2E2E2E2E2E2E2E2E2E2E2E2E2E2E2E2E2E2E2E2E2E2E2E2E2E2E2E2E2E2E2E2E2E2E2E2E2E2E2E2E2E2E2E2E2E2E2E2E2E2E2E2E2E2E2E2E2E2E2E2E2E2E2E2E2E2E2E2E2E2E2E2E2E2E2E2E2
310
E2E2E2E2E2E2E2E2E2E2E2E2E2E2F5F5F5F5F5F5F5F5F5F5F5F5F5F5F5F5F5F5F5F5E2E2EFF5F5F5F5F5F5F5F5F5F5F5F5F5F5F5F5F5F5F5F5F5F5F5F5F5F5F5F5F5F5F5F5F5F5F5F5F5F5F5F5F5F5F5F5F5F5F5F5F5F5F5F5F5F5F5F5F5F5F5F5F5F5F5F5F5F5F5F5F5F5F5F5F5F5F5F5F5F5F5F5F5F5F5F5F5F5F5F5F5F5
310
F5F5F5F5F5F5F5F5F5F5F5F5F5F5F5F5F5F5F5F5F5F5F5F5F5F5F5F5F5F5F5F5F5F5F5F5F5F5F5F5F5F5F5F5F5F5F5F5F5F5F5F5F5F5F5F5F5F5F5F5F5F5F5F5F5F5F5F5F5F5F5F5F5F5F5F5F5F5F5F5F5F5F5F5F5F5F5E2E2EFF5F5F5F5F5F5F5F5F5F5F5F5F5F5F5F5F5F5F5F5F5F5F5F5F5F5F5F5F5F5F5F5F5F5F5F5F5
310
F5F5F5F5F5F5F5F5F5F5F5F5F5F5F5F5F5F5F5F5F5F5F5F5F5F5F5F5F5F5F5F5F5F5F5F5F5F5F5F5F5F5F5F5F5F5F5F5F5F5F5F5F5F5F5F5F5F5F5F5F5F5F5F5F5F5F5F5F5F5F5F5F5F5F5F5F5F5F5F5F5F5F5F5F5F5F5F5F5F5F5F5F5F5F5F5F5F5F5F5F5F5F5F5F5F5F5F5F5F5F5F5F5F5F5F5F5F5F5F5F5F5F5F5F5F5F5
310
F5F5F5F5F5F5F5F5F5F5F5F5F5E2E2EFF5F5F5F5F5F5F5F5F5F5F5F5F5F5F5F5F5F5F5F5F5F5F5F5F5F5F5F5F5F5F5F5F5F5F5F5F5F5F5F5F5F5F5F5F5F5F5F5F5F5F5F5F5F5F5F5F5F5F5F5F5F5F5F5F5F5F5F5F5F5F5F5F5F5F5F5F5F5F5F5F5F5F5F5F5F5F5F5F5F5F5F5F5F5F5F5F5F5F5F5F5F5F5F5F5F5F5F5F5F5F5
310
F5F5F5F5F5F5F5F5F5F5F5F5F5F5F5F5F5F5F5F5F5F5F5F5F5F5F5F5F5F5F5F5F5F5F5F5F5F5F5F5F5F5F5F5F5F5F5F5F5F5F5F5F5F5F5F5F5F5F5F5F5F5F5F5F5F5E2E2EFF5F5F5F5F5F5F5F5F5F5F5F5F5F5F5F5F5F5F5F5F5F5F5F5F5F5F5F5F5F5F5F5F5F5F5F5F5F5F5F5F5F5F5F5F5F5F5F5F5F5F5F5F5F5F5F5F5F5
310
F5F5F5F5F5F5F5F5F5F5F5F5F5F5F5F5F5F5F5F5F5F5F5F5F5F5F5F5F5F5F5F5F5F5F5F5F5F5F5F5F5F5F5F5F5F5F5F5F5F5F5F5F5F5F5F5F5F5F5F5F5F5F5F5F5F5F5F5F5F5F5F5F5F5F5F5F5F5F5F5F5F5F5F5F5F5F5F5F5F5F5F5F5F5F5F5F5F5F5F5F5F5F5F5F5F5F5F5F5F5F5F5F5F5F5F5F5F5F5E2E2EFF5F5F5E2F5
310
F5F5F5F5F5F5F5F5F5F5F5F5F5F5F5F5F5F5F5F5F5F5F5F5F5F5F5F5F5F5F5F5F5F5F5F5F5F5F5F5F5F5F5F5F5F5F5F5F5F5F5F5F5F5F5F5F5F5F5F5F5F5F5F5F5F5F5F5F5F5F5F5F5F5F5F5F5F5F5F5F5F5F5F5F5F5F5F5F5F5F5F5F5F5F5F5F5F5F5F5F5F5F5F5F5F5F5F5F5F5F5F5F5F5F5F5F5F5F5F5F5F5F5F5F5F5F5
310
F5F5F5F5F5F5F5F5F5F5F5F5F5F5F5F5F5F5F5F5F5F5F5F5F5F5F5F5F5F5F5F5F5F5F5F5F5F5F5F5F5E2F5F5F5E2E2EFF5F5F5E2F5F5F5F5F5F5F5F5F5F5F5F5F5F5F5F5F5F5F5F5F5F5F5F5F5F5F5F5F5F5F5F5F5F5F5F5F5F5F5F5F5F5F5F5F5F5F5F5F5F5F5F5F5F5F5F5F5F5F5F5F5F5F5F5F5F5F5F5F5F5F5F5F5F5F5
310
F5F5F5F5F5F5F5F5F5F5F5F5F5F5F5F5F5F5F5F5F5F5F5F5F5F5F5F5F5F5F5F5F5F5F5F5F5F5F5F5F5F5F5F5F5F5F5F5F5F5F5F5F5F5F5F5F5F5F5F5F5F5F5F5F5F5F5F5F5F5F5F5F5F5F5F5F5F5F5F5F5F5F5F5F5F5F5F5F5F5F5F5F5F5E2F5F5F5E2E2EFF5F5F5E2F5F5F5F5F5F5F5F5F5F5F5F5F5F5F5F5F5F5F5F5F5F5
310
F5F5F5F5F5F5F5F5F5F5F5F5F5F5F5F5F5F5F5F5F5F5F5F5F5F5F5F5F5F5F5F5F5F5F5F5F5F5F5F5F5F5F5F5F5F5F5F5F5F5F5F5F5F5F5F5F5F5F5F5F5F5F5F5F5F5F5F5F5F5F5F5F5F5F5F5F5F5F5F5F5F5F5F5F5F5F5F5F5F5F5F5F5F5F5F5F5F5F5F5F5F5F5F5F5F5F5F5F5F5F5F5F5F5F5F5F5F5F5F5F5F5F5F5F5F5F5
310
F5F5F5F5F5F5F5F5F5F5F5F5F5F5F5F5F5F5F5F5E2F5F5F5E2E2EFF5F5F5E2F5F5F5F5F5F5F5F5F5F5F5F5F5F5F5F5F5F5F5F5F5F5F5F5F5F5F5F5F5F5F5F5F5F5F5F5F5F5F5F5F5F5F5F5F5F5F5F5F5F5F5F5F5F5F5F5F5F5F5F5F5F5F5F5F5F5F5F5F5F5F5F5F5F5F5F5F5F5F5F5F5F5F5F5F5F5F5F5F5F5F5F5F5F5F5F5
310
F5F5F5F5F5F5F5F5F5F5F5F5F5F5F5F5F5F5F5F5F5F5F5F5F5F5F5F5F5F5F5F5F5F5F5F5F5F5F5F5F5F5F5F5F5F5F5F5F5F5F5F5F5F5F5F5F5F5F5F5F5F5F5F5F5F5F5F5F5F5F5F5F5E2F5F5F5E2E2EFF5F5F5E2F5F5F5F5F5F5F5F5F5F5F5F5F5F5F5F5F5F5F5F5F5F5F5F5F5F5F5F5F5F5F5F5F5F5F5F5F5F5F5F5F5F5F5
310
F5F5F5F5F5F5F5F5F5F5F5F5F5F5F5F5F5F5F5F5F5F5F5F5F5F5F5F5F5F5F5F5F5F5F5F5F5F5F5F5F5F5F5F5F5F5F5F5F5F5F5F5F5F5F5F5F5F5F5F5F5F5F5F5F5F5F5F5F5F5F5F5F5F5F5F5F5F5F5F5F5F5F5F5F5F5F5F5F5F5F5F5F5F5F5F5F5F5F5F5F5F5F5F5F5F5F5F5F5F5F5F5F5F5F5F5F5F5F5F5F5F5F5F5F5F5E2
310
F5F5F5E2E2EFF5F5F5E2F5F5F5F5F5F5F5F5F5F5F5F5F5F5F5F5F5F5F5F5F5F5F5F5F5F5F5F5F5F5F5F5F5F5F5F5F5F5F5F5F5F5F5F5F5F5F5F5F5F5F5F5F5F5F5F5F5F5F5F5F5F5F5F5F5F5F5F5F5F5F5F5F5F5F5F5F5F5F5F5F5F5F5F5F5F5F5F5F5F5F5F5F5F5F5F5F5F5F5F5F5F5F5F5F5F5F5F5F5F5F5F5F5F5F5F5F5
310
F5F5F5F5F5F5F5F5F5F5F5F5F5F5F5F5F5F5F5F5F5F5F5F5F5F5F5F5F5F5F5F5F5F5F5F5F5F5F5F5F5F5F5F5F5F5F5F5F5F5F5F5E2F5F5F5E2E2EFF5F5F5E2F5F5F5F5F5F5F5F5F5F5F5F5F5F5F5F5F5F5F5F5F5F5F5F5F5F5F5F5F5F5F5F5F5F5F5F5F5F5F5F5F5F5F5F5F5F5F5F5F5F5F5F5F5F5F5F5F5F5F5F5F5F5F5F5
310
F5F5F5F5F5F5F5F5F5F5F5F5F5F5F5F5F5F5F5F5F5F5F5F5F5F5F5F5F5F5F5F5F5F5F5F5F5F5F5F5F5F5F5F5F5F5F5F5F5F5F5F5F5F5F5F5F5F5F5F5F5F5F5F5F5F5F5F5F5F5F5F5F5F5F5F5F5F5F5F5F5F5F5F5F5F5F5F5F5F5F5F5F5F5F5F5F5F5F5F5F5F5F5F5F5E2F5F5F5E2E2EFF5F5F5E2F5F5F5F5F5F5F5F5F5F5F5
310
F5F5F5F5F5F5F5F5F5F5F5F5F5F5F5F5F5F5F5F5F5F5F5F5F5F5F5F5F5F5F5F5F5F5F5F5F5F5F5F5F5F5F5F5F5F5F5F5F5F5F5F5F5F5F5F5F5F5F5F5F5F5F5F5F5F5F5F5F5F5F5F5F5F5F5F5F5F5F5F5F5F5F5F5F5F5F5F5F5F5F5F5F5F5F5F5F5F5F5F5F5F5F5F5F5F5F5F5F5F5F5F5F5F5F5F5F5F5F5F5F5F5F5F5F5F5F5
310
F5F5F5F5F5F5F5F5F5F5F5F5F5F5F5F5F5F5F5F5F5F5F5F5F5F5F5F5F5F5F5E2F5F5F5E2E2EFF5F5F5E2E2E2E2E2E2E2E2F5F5F5F5F5F5F5F5F5E2E2E2E2E2E2E2E2E2E2E2E2E2E2E2E2F5F5F5F5F5F5F5F5E2E2E2E2E2E2E2E2E2E2E2E2E2E2E2E2F5F5F5F5F5F5F5F5F5E2E2E2E2E2E2E2E2E2E2E2E2E2E2E2F5F5F5F5F5
310
F5F5F5F5E2E2E2E2E2E2E2E2E2E2E2E2E2E2E2F5F5F5F5F5F5F5F5F5E2E2E2E2E2E2E2E2E2E2E2E2E2E2E2E2F5F5F5F5F5F5F5F5E2E2E2E2E2E2E2E2E2E2E2E2E2E2E2E2F5F5F5F5F5F5F5F5F5E2E2E2E2E2E2E2E2F5F5F5E2E2EFF5F5F5F5F5F5F5F5F5F5F5F5F5F5F5F5F5F5F5F5F5F5F5F5F5F5F5F5F5F5F5F5F5F5F5F5
310
F5F5F5F5F5F5F5F5F5F5F5F5F5F5F5F5F5F5F5F5F5F5F5F5F5F5F5F5F5F5F5F5F5F5F5F5F5F5F5F5F5F5F5F5F5F5F5F5F5F5F5F5F5F5F5F5F5F5F5F5F5F5F5F5F5F5F5F5F5F5F5F5F5F5F5F5F5F5F5F5F5F5F5F5F5F5F5F5F5F5F5F5F5F5F5F5F5F5F5F5F5F5F5F5F5F5F5F5F5F5F5F5F5F5F5F5F5F5F5F5F5F5F5F5F5F5F5
310
F5F5F5F5F5F5F5F5F5F5F5F5F5F5E2E2EFF5F5F5F5F5F5F5F5F5F5F5F5F5F5F5F5F5F5F5F5F5F5F5F5F5F5F5F5F5F5F5F5F5F5F5F5F5F5F5F5F5F5F5F5F5F5F5F5F5F5F5F5F5F5F5F5F5F5F5F5F5F5F5F5F5F5F5F5F5F5F5F5F5F5F5F5F5F5F5F5F5F5F5F5F5F5F5F5F5F5F5F5F5F5F5F5F5F5F5F5F5F5F5F5F5F5F5F5F5F5
310
F5F5F5F5F5F5F5F5F5F5F5F5F5F5F5F5F5F5F5F5F5F5F5F5F5F5F5F5F5F5F5F5F5F5F5F5F5F5F5F5F5F5F5F5F5F5F5F5F5F5F5F5F5F5F5F5F5F5F5F5F5F5F5F5F5F5F5E2EFEFF5F5F5F5F5F5F5F5F5F5F5F5F5F5F5F5F5F5F5F5F5F5F5F5F5F5F5F5F5F5F5F5F5F5F5F5F5F5F5F5F5F5F5F5F5F5F5F5F5F5F5F5F5F5F5F5F5
310
F5F5F5F5F5F5F5F5F5F5F5F5F5F5F5F5F5F5F5F5F5F5F5F5F5F5F5F5F5F5F5F5F5F5F5F5F5F5F5F5F5F5F5F5F5F5F5F5F5F5F5F5F5F5F5F5F5F5F5F5F5F5F5F5F5F5F5F5F5F5F5F5F5F5F5F5F5F5F5F5F5F5F5F5F5F5F5F5F5F5F5F5F5F5F5F5F5F5F5F5F5F5F5F5F5F5F5F5F5F5F5F5F5F5F5F5F5F5F5F5E2EFEFE2E2E2E2
310
E2E2E2E2E2E2E2E2E2E2E2E2E2E2E2E2E2E2E2E2E2E2E2E2E2E2E2E2E2E2E2E2E2E2E2E2E2E2E2E2E2E2E2E2E2E2E2E2E2E2E2E2E2E2E2E2E2E2E2E2E2E2E2E2E2E2E2E2E2E2E2E2E2E2E2E2E2E2E2E2E2E2E2E2E2E2E2E2E2E2E2E2E2E2E2E2E2E2E2E2E2E2E2E2E2E2E2E2E2E2E2E2E2E2E2E2E2E2E2E2E2E2E2E2E2E2E2
310
E2E2E2E2E2E2E2E2E2E2E2E2E2E2E2E2E2E2E2E2E2E2E2E2E2E2E2E2E2E2E2E2E2E2E2E2E2E2E2E2E2E2E2E2E2E2E2EFEF
  0
ENDSEC
  0
EOF
