  0
SECTION
  2
HEADER
  9
$ACADVER
  1
AC1018
  9
$ACADMAINTVER
 70
     0
  9
$DWGCODEPAGE
  3
ANSI_1252
  9
$AUTHOR
  1
g6edxjah
  9
$LASTSAVEDBY
  1
g6edxjah
  9
$INSBASE
 10
0.0
 20
0.0
 30
0.0
  9
$EXTMIN
 10
47.043458
 20
-0.081542
 30
0.0
  9
$EXTMAX
 10
55.456542
 20
11.081542
 30
0.0
  9
$LIMMIN
 10
23.293291
 20
-22.456709
  9
$LIMMAX
 10
79.206709
 20
33.456709
  9
$ORTHOMODE
 70
     0
  9
$REGENMODE
 70
     1
  9
$FILLMODE
 70
     1
  9
$QTEXTMODE
 70
     0
  9
$MIRRTEXT
 70
     0
  9
$LTSCALE
 40
1.0
  9
$ATTMODE
 70
     1
  9
$TEXTSIZE
 40
0.117
  9
$TRACEWID
 40
0.05
  9
$TEXTSTYLE
  7
Standard
  9
$CLAYER
  8
_0
  9
$CELTYPE
  6
Continuous
  9
$CECOLOR
 62
     7
  9
$CELTSCALE
 40
1.0
  9
$DISPSILH
 70
     0
  9
$DIMSCALE
 40
1.0
  9
$DIMASZ
 40
0.117
  9
$DIMEXO
 40
0.0585
  9
$DIMDLI
 40
0.0
  9
$DIMRND
 40
0.0
  9
$DIMDLE
 40
0.0
  9
$DIMEXE
 40
0.0585
  9
$DIMTP
 40
0.0
  9
$DIMTM
 40
0.0
  9
$DIMTXT
 40
0.117
  9
$DIMCEN
 40
0.09
  9
$DIMTSZ
 40
0.0
  9
$DIMTOL
 70
     0
  9
$DIMLIM
 70
     0
  9
$DIMTIH
 70
     0
  9
$DIMTOH
 70
     0
  9
$DIMSE1
 70
     0
  9
$DIMSE2
 70
     0
  9
$DIMTAD
 70
     1
  9
$DIMZIN
 70
    11
  9
$DIMBLK
  1
TerminatorOpen_0.5
  9
$DIMASO
 70
     1
  9
$DIMSHO
 70
     1
  9
$DIMPOST
  1

  9
$DIMAPOST
  1

  9
$DIMALT
 70
     0
  9
$DIMALTD
 70
     4
  9
$DIMALTF
 40
25.4
  9
$DIMLFAC
 40
1.0
  9
$DIMTOFL
 70
     0
  9
$DIMTVP
 40
0.0
  9
$DIMTIX
 70
     0
  9
$DIMSOXD
 70
     0
  9
$DIMSAH
 70
     0
  9
$DIMBLK1
  1

  9
$DIMBLK2
  1

  9
$DIMSTYLE
  2
Standard
  9
$DIMCLRD
 70
     0
  9
$DIMCLRE
 70
     0
  9
$DIMCLRT
 70
     0
  9
$DIMTFAC
 40
1.0
  9
$DIMGAP
 40
0.0585
  9
$DIMJUST
 70
     0
  9
$DIMSD1
 70
     0
  9
$DIMSD2
 70
     0
  9
$DIMTOLJ
 70
     0
  9
$DIMTZIN
 70
    11
  9
$DIMALTZ
 70
    15
  9
$DIMALTTZ
 70
    15
  9
$DIMUPT
 70
     0
  9
$DIMDEC
 70
     4
  9
$DIMTDEC
 70
     4
  9
$DIMALTU
 70
     2
  9
$DIMALTTD
 70
     4
  9
$DIMTXSTY
  7
Style-Arial
  9
$DIMAUNIT
 70
     0
  9
$DIMADEC
 70
     4
  9
$DIMALTRND
 40
0.0
  9
$DIMAZIN
 70
     3
  9
$DIMDSEP
 70
    46
  9
$DIMATFIT
 70
     1
  9
$DIMFRAC
 70
     0
  9
$DIMLDRBLK
  1
TerminatorOpen_0.5
  9
$DIMLUNIT
 70
     2
  9
$DIMLWD
 70
    -2
  9
$DIMLWE
 70
    -2
  9
$DIMTMOVE
 70
     0
  9
$LUNITS
 70
     2
  9
$LUPREC
 70
     4
  9
$SKETCHINC
 40
0.1
  9
$FILLETRAD
 40
0.0
  9
$AUNITS
 70
     0
  9
$AUPREC
 70
     4
  9
$MENU
  1
.
  9
$ELEVATION
 40
0.0
  9
$PELEVATION
 40
0.0
  9
$THICKNESS
 40
0.0
  9
$LIMCHECK
 70
     0
  9
$CHAMFERA
 40
0.0
  9
$CHAMFERB
 40
0.0
  9
$CHAMFERC
 40
0.0
  9
$CHAMFERD
 40
0.0
  9
$SKPOLY
 70
     0
  9
$TDCREATE
 40
2455373.464364063
  9
$TDUCREATE
 40
2455373.672697396
  9
$TDUPDATE
 40
2455373.464364063
  9
$TDUUPDATE
 40
2455373.672697396
  9
$TDINDWG
 40
0.0
  9
$TDUSRTIMER
 40
0.0006630093
  9
$USRTIMER
 70
     1
  9
$ANGBASE
 50
0.0
  9
$ANGDIR
 70
     0
  9
$PDMODE
 70
     0
  9
$PDSIZE
 40
0.0
  9
$PLINEWID
 40
0.0
  9
$SPLFRAME
 70
     0
  9
$SPLINETYPE
 70
     6
  9
$SPLINESEGS
 70
     8
  9
$HANDSEED
  5
55A
  9
$SURFTAB1
 70
     6
  9
$SURFTAB2
 70
     6
  9
$SURFTYPE
 70
     6
  9
$SURFU
 70
     6
  9
$SURFV
 70
     6
  9
$UCSBASE
  2

  9
$UCSNAME
  2

  9
$UCSORG
 10
0.0
 20
0.0
 30
0.0
  9
$UCSXDIR
 10
1.0
 20
0.0
 30
0.0
  9
$UCSYDIR
 10
0.0
 20
1.0
 30
0.0
  9
$UCSORTHOREF
  2

  9
$UCSORTHOVIEW
 70
     0
  9
$UCSORGTOP
 10
0.0
 20
0.0
 30
0.0
  9
$UCSORGBOTTOM
 10
0.0
 20
0.0
 30
0.0
  9
$UCSORGLEFT
 10
0.0
 20
0.0
 30
0.0
  9
$UCSORGRIGHT
 10
0.0
 20
0.0
 30
0.0
  9
$UCSORGFRONT
 10
0.0
 20
0.0
 30
0.0
  9
$UCSORGBACK
 10
0.0
 20
0.0
 30
0.0
  9
$PUCSBASE
  2

  9
$PUCSNAME
  2

  9
$PUCSORG
 10
0.0
 20
0.0
 30
0.0
  9
$PUCSXDIR
 10
1.0
 20
0.0
 30
0.0
  9
$PUCSYDIR
 10
0.0
 20
1.0
 30
0.0
  9
$PUCSORTHOREF
  2

  9
$PUCSORTHOVIEW
 70
     0
  9
$PUCSORGTOP
 10
0.0
 20
0.0
 30
0.0
  9
$PUCSORGBOTTOM
 10
0.0
 20
0.0
 30
0.0
  9
$PUCSORGLEFT
 10
0.0
 20
0.0
 30
0.0
  9
$PUCSORGRIGHT
 10
0.0
 20
0.0
 30
0.0
  9
$PUCSORGFRONT
 10
0.0
 20
0.0
 30
0.0
  9
$PUCSORGBACK
 10
0.0
 20
0.0
 30
0.0
  9
$USERI1
 70
     0
  9
$USERI2
 70
     0
  9
$USERI3
 70
     0
  9
$USERI4
 70
     0
  9
$USERI5
 70
     0
  9
$USERR1
 40
0.0
  9
$USERR2
 40
0.0
  9
$USERR3
 40
0.0
  9
$USERR4
 40
0.0
  9
$USERR5
 40
0.0
  9
$WORLDVIEW
 70
     1
  9
$SHADEDGE
 70
     3
  9
$SHADEDIF
 70
    70
  9
$TILEMODE
 70
     1
  9
$MAXACTVP
 70
    64
  9
$PINSBASE
 10
0.0
 20
0.0
 30
0.0
  9
$PLIMCHECK
 70
     0
  9
$PEXTMIN
 10
1.049744
 20
0.799667
 30
-0.001526
  9
$PEXTMAX
 10
9.450623
 20
7.200577
 30
0.0
  9
$PLIMMIN
 10
-0.25
 20
-0.25
  9
$PLIMMAX
 10
10.75
 20
8.25
  9
$UNITMODE
 70
     0
  9
$VISRETAIN
 70
     1
  9
$PLINEGEN
 70
     0
  9
$PSLTSCALE
 70
     0
  9
$TREEDEPTH
 70
  3020
  9
$CMLSTYLE
  2
Standard
  9
$CMLJUST
 70
     0
  9
$CMLSCALE
 40
1.0
  9
$PROXYGRAPHICS
 70
     1
  9
$MEASUREMENT
 70
     0
  9
$CELWEIGHT
370
    53
  9
$ENDCAPS
280
     0
  9
$JOINSTYLE
280
     0
  9
$LWDISPLAY
290
     1
  9
$INSUNITS
 70
     2
  9
$HYPERLINKBASE
  1

  9
$STYLESHEET
  1

  9
$XEDIT
290
     1
  9
$CEPSNTYPE
380
     0
  9
$PSTYLEMODE
290
     1
  9
$FINGERPRINTGUID
  2
{02C0BBB5-38A7-4FBF-829E-00875EC88963}
  9
$VERSIONGUID
  2
{82C521FC-BF81-46B3-825E-420B6BD93A99}
  9
$EXTNAMES
290
     1
  9
$PSVPSCALE
 40
0.0
  9
$OLESTARTUP
290
     0
  9
$SORTENTS
280
   127
  9
$INDEXCTL
280
     0
  9
$HIDETEXT
280
     1
  9
$XCLIPFRAME
290
     0
  9
$HALOGAP
280
     0
  9
$OBSCOLOR
 70
   257
  9
$OBSLTYPE
280
     0
  9
$INTERSECTIONDISPLAY
280
     0
  9
$INTERSECTIONCOLOR
 70
   257
  9
$DIMASSOC
280
     1
  9
$PROJECTNAME
  1

  0
ENDSEC
  0
SECTION
  2
CLASSES
  0
CLASS
  1
ACDBDICTIONARYWDFLT
  2
AcDbDictionaryWithDefault
  3
ObjectDBX Classes
 90
        0
 91
        3
280
     0
281
     0
  0
CLASS
  1
SORTENTSTABLE
  2
AcDbSortentsTable
  3
ObjectDBX Classes
 90
        0
 91
        3
280
     0
281
     0
  0
ENDSEC
  0
SECTION
  2
TABLES
  0
TABLE
  2
VPORT
  5
53E
330
0
100
AcDbSymbolTable
 70
     4
  0
VPORT
  5
49
330
53E
100
AcDbSymbolTableRecord
100
AcDbViewportTableRecord
  2
*ACTIVE
 70
     0
 10
0.0
 20
0.0
 11
1.0
 21
1.0
 12
51.25
 22
5.5
 13
0.0
 23
0.0
 14
0.083333
 24
0.083333
 15
0.083333
 25
0.083333
 16
0.0
 26
0.0
 36
1.0
 17
0.0
 27
0.0
 37
0.0
 40
11.609607
 41
1.884937
 42
50.0
 43
0.0
 44
0.0
 50
0.0
 51
0.0
 71
     0
 72
   100
 73
     1
 74
     2
 75
     0
 76
     0
 77
     0
 78
     1
281
     0
 65
     1
110
0.0
120
0.0
130
0.0
111
1.0
121
0.0
131
0.0
112
0.0
122
1.0
132
0.0
 79
     0
146
0.0
  0
ENDTAB
  0
TABLE
  2
LTYPE
  5
525
330
0
100
AcDbSymbolTable
 70
     1
  0
LTYPE
  5
526
330
525
100
AcDbSymbolTableRecord
100
AcDbLinetypeTableRecord
  2
ByBlock
 70
     0
  3

 72
    65
 73
     0
 40
0.0
  0
LTYPE
  5
527
330
525
100
AcDbSymbolTableRecord
100
AcDbLinetypeTableRecord
  2
ByLayer
 70
     0
  3

 72
    65
 73
     0
 40
0.0
  0
LTYPE
  5
524
330
525
100
AcDbSymbolTableRecord
100
AcDbLinetypeTableRecord
  2
Continuous
 70
     0
  3
Solid line
 72
    65
 73
     0
 40
0.0
  0
ENDTAB
  0
TABLE
  2
LAYER
  5
51E
102
{ACAD_XDICTIONARY
360
51F
102
}
330
0
100
AcDbSymbolTable
 70
    64
  0
LAYER
  5
51D
330
51E
100
AcDbSymbolTableRecord
100
AcDbLayerTableRecord
  2
0
 70
     0
 62
     7
  6
Continuous
370
    -3
390
521
  0
LAYER
  5
7
330
51E
100
AcDbSymbolTableRecord
100
AcDbLayerTableRecord
  2
Level 1
 70
     0
 62
     7
  6
Continuous
370
     0
390
521
  0
LAYER
  5
8
330
51E
100
AcDbSymbolTableRecord
100
AcDbLayerTableRecord
  2
2-35J
 70
     0
 62
     7
  6
Continuous
370
     0
390
521
1001
AcAecLayerStandard
1000

1000
2-35J
  0
LAYER
  5
9
330
51E
100
AcDbSymbolTableRecord
100
AcDbLayerTableRecord
  2
BORDER
 70
     0
 62
     7
  6
Continuous
370
     0
390
521
1001
AcAecLayerStandard
1000

1000
BORDER
  0
LAYER
  5
A
330
51E
100
AcDbSymbolTableRecord
100
AcDbLayerTableRecord
  2
DEFPOINTS
 70
     0
 62
     7
  6
Continuous
290
     0
370
     0
390
521
1001
AcAecLayerStandard
1000

1000
DEFPOINTS
  0
LAYER
  5
B
330
51E
100
AcDbSymbolTableRecord
100
AcDbLayerTableRecord
  2
DIM
 70
     0
 62
     7
  6
Continuous
370
     0
390
521
1001
AcAecLayerStandard
1000

1000
DIM
  0
LAYER
  5
C
330
51E
100
AcDbSymbolTableRecord
100
AcDbLayerTableRecord
  2
HATCH
 70
     0
 62
     7
  6
Continuous
370
     0
390
521
1001
AcAecLayerStandard
1000

1000
HATCH
  0
LAYER
  5
D
330
51E
100
AcDbSymbolTableRecord
100
AcDbLayerTableRecord
  2
LEGEND
 70
     0
 62
     7
  6
Continuous
370
     0
390
521
1001
AcAecLayerStandard
1000

1000
LEGEND
  0
LAYER
  5
E
330
51E
100
AcDbSymbolTableRecord
100
AcDbLayerTableRecord
  2
TEXT
 70
     0
 62
     7
  6
Continuous
370
     0
390
521
1001
AcAecLayerStandard
1000

1000
TEXT
  0
LAYER
  5
F
330
51E
100
AcDbSymbolTableRecord
100
AcDbLayerTableRecord
  2
TITLE
 70
     0
 62
     7
  6
Continuous
370
     0
390
521
1001
AcAecLayerStandard
1000

1000
TITLE
  0
LAYER
  5
10
330
51E
100
AcDbSymbolTableRecord
100
AcDbLayerTableRecord
  2
Level 10
 70
     0
 62
     7
  6
Continuous
370
     0
390
521
  0
LAYER
  5
11
330
51E
100
AcDbSymbolTableRecord
100
AcDbLayerTableRecord
  2
Level 11
 70
     0
 62
     7
  6
Continuous
370
     0
390
521
  0
LAYER
  5
12
330
51E
100
AcDbSymbolTableRecord
100
AcDbLayerTableRecord
  2
Level 12
 70
     0
 62
     7
  6
Continuous
370
     0
390
521
  0
LAYER
  5
13
330
51E
100
AcDbSymbolTableRecord
100
AcDbLayerTableRecord
  2
Level 13
 70
     0
 62
     7
  6
Continuous
370
     0
390
521
  0
LAYER
  5
14
330
51E
100
AcDbSymbolTableRecord
100
AcDbLayerTableRecord
  2
Level 14
 70
     0
 62
     7
  6
Continuous
370
     0
390
521
  0
LAYER
  5
15
330
51E
100
AcDbSymbolTableRecord
100
AcDbLayerTableRecord
  2
Level 15
 70
     0
 62
     7
  6
Continuous
370
     0
390
521
  0
LAYER
  5
16
330
51E
100
AcDbSymbolTableRecord
100
AcDbLayerTableRecord
  2
Level 16
 70
     0
 62
     7
  6
Continuous
370
     0
390
521
  0
LAYER
  5
17
330
51E
100
AcDbSymbolTableRecord
100
AcDbLayerTableRecord
  2
Level 17
 70
     0
 62
     7
  6
Continuous
370
     0
390
521
  0
LAYER
  5
18
330
51E
100
AcDbSymbolTableRecord
100
AcDbLayerTableRecord
  2
Level 18
 70
     0
 62
     7
  6
Continuous
370
     0
390
521
  0
LAYER
  5
19
330
51E
100
AcDbSymbolTableRecord
100
AcDbLayerTableRecord
  2
Level 19
 70
     0
 62
     7
  6
Continuous
370
     0
390
521
  0
LAYER
  5
1A
330
51E
100
AcDbSymbolTableRecord
100
AcDbLayerTableRecord
  2
Level 20
 70
     0
 62
     7
  6
Continuous
370
     0
390
521
  0
LAYER
  5
1B
330
51E
100
AcDbSymbolTableRecord
100
AcDbLayerTableRecord
  2
Level 21
 70
     0
 62
     7
  6
Continuous
370
     0
390
521
  0
LAYER
  5
1C
330
51E
100
AcDbSymbolTableRecord
100
AcDbLayerTableRecord
  2
Level 22
 70
     0
 62
     7
  6
Continuous
370
     0
390
521
  0
LAYER
  5
1D
330
51E
100
AcDbSymbolTableRecord
100
AcDbLayerTableRecord
  2
Level 23
 70
     0
 62
     7
  6
Continuous
370
     0
390
521
  0
LAYER
  5
1E
330
51E
100
AcDbSymbolTableRecord
100
AcDbLayerTableRecord
  2
Level 24
 70
     0
 62
     7
  6
Continuous
370
     0
390
521
  0
LAYER
  5
1F
330
51E
100
AcDbSymbolTableRecord
100
AcDbLayerTableRecord
  2
Level 25
 70
     0
 62
     7
  6
Continuous
370
     0
390
521
  0
LAYER
  5
20
330
51E
100
AcDbSymbolTableRecord
100
AcDbLayerTableRecord
  2
Level 26
 70
     0
 62
     7
  6
Continuous
370
     0
390
521
  0
LAYER
  5
21
330
51E
100
AcDbSymbolTableRecord
100
AcDbLayerTableRecord
  2
Level 27
 70
     0
 62
     7
  6
Continuous
370
     0
390
521
  0
LAYER
  5
22
330
51E
100
AcDbSymbolTableRecord
100
AcDbLayerTableRecord
  2
Level 28
 70
     0
 62
     7
  6
Continuous
370
     0
390
521
  0
LAYER
  5
23
330
51E
100
AcDbSymbolTableRecord
100
AcDbLayerTableRecord
  2
Level 29
 70
     0
 62
     7
  6
Continuous
370
     0
390
521
  0
LAYER
  5
24
330
51E
100
AcDbSymbolTableRecord
100
AcDbLayerTableRecord
  2
Level 30
 70
     0
 62
     7
  6
Continuous
370
     0
390
521
  0
LAYER
  5
25
330
51E
100
AcDbSymbolTableRecord
100
AcDbLayerTableRecord
  2
Level 31
 70
     0
 62
     7
  6
Continuous
370
     0
390
521
  0
LAYER
  5
26
330
51E
100
AcDbSymbolTableRecord
100
AcDbLayerTableRecord
  2
Level 32
 70
     0
 62
     7
  6
Continuous
370
     0
390
521
  0
LAYER
  5
27
330
51E
100
AcDbSymbolTableRecord
100
AcDbLayerTableRecord
  2
Level 33
 70
     0
 62
     7
  6
Continuous
370
     0
390
521
  0
LAYER
  5
28
330
51E
100
AcDbSymbolTableRecord
100
AcDbLayerTableRecord
  2
Level 34
 70
     0
 62
     7
  6
Continuous
370
     0
390
521
  0
LAYER
  5
29
330
51E
100
AcDbSymbolTableRecord
100
AcDbLayerTableRecord
  2
Level 35
 70
     0
 62
     7
  6
Continuous
370
     0
390
521
  0
LAYER
  5
2A
330
51E
100
AcDbSymbolTableRecord
100
AcDbLayerTableRecord
  2
Level 36
 70
     0
 62
     7
  6
Continuous
370
     0
390
521
  0
LAYER
  5
2B
330
51E
100
AcDbSymbolTableRecord
100
AcDbLayerTableRecord
  2
Level 37
 70
     0
 62
     7
  6
Continuous
370
     0
390
521
  0
LAYER
  5
2C
330
51E
100
AcDbSymbolTableRecord
100
AcDbLayerTableRecord
  2
Level 38
 70
     0
 62
     7
  6
Continuous
370
     0
390
521
  0
LAYER
  5
2D
330
51E
100
AcDbSymbolTableRecord
100
AcDbLayerTableRecord
  2
Level 39
 70
     0
 62
     7
  6
Continuous
370
     0
390
521
  0
LAYER
  5
2E
330
51E
100
AcDbSymbolTableRecord
100
AcDbLayerTableRecord
  2
Level 40
 70
     0
 62
     7
  6
Continuous
370
     0
390
521
  0
LAYER
  5
2F
330
51E
100
AcDbSymbolTableRecord
100
AcDbLayerTableRecord
  2
Level 41
 70
     0
 62
     7
  6
Continuous
370
     0
390
521
  0
LAYER
  5
30
330
51E
100
AcDbSymbolTableRecord
100
AcDbLayerTableRecord
  2
Level 42
 70
     0
 62
     7
  6
Continuous
370
     0
390
521
  0
LAYER
  5
31
330
51E
100
AcDbSymbolTableRecord
100
AcDbLayerTableRecord
  2
Level 43
 70
     0
 62
     7
  6
Continuous
370
     0
390
521
  0
LAYER
  5
32
330
51E
100
AcDbSymbolTableRecord
100
AcDbLayerTableRecord
  2
Level 44
 70
     0
 62
     7
  6
Continuous
370
     0
390
521
  0
LAYER
  5
33
330
51E
100
AcDbSymbolTableRecord
100
AcDbLayerTableRecord
  2
Level 45
 70
     0
 62
     7
  6
Continuous
370
     0
390
521
  0
LAYER
  5
34
330
51E
100
AcDbSymbolTableRecord
100
AcDbLayerTableRecord
  2
Level 46
 70
     0
 62
     7
  6
Continuous
370
     0
390
521
  0
LAYER
  5
35
330
51E
100
AcDbSymbolTableRecord
100
AcDbLayerTableRecord
  2
Level 47
 70
     0
 62
     7
  6
Continuous
370
     0
390
521
  0
LAYER
  5
36
330
51E
100
AcDbSymbolTableRecord
100
AcDbLayerTableRecord
  2
Level 48
 70
     0
 62
     7
  6
Continuous
370
     0
390
521
  0
LAYER
  5
37
330
51E
100
AcDbSymbolTableRecord
100
AcDbLayerTableRecord
  2
Level 49
 70
     0
 62
     7
  6
Continuous
370
     0
390
521
  0
LAYER
  5
38
330
51E
100
AcDbSymbolTableRecord
100
AcDbLayerTableRecord
  2
Level 50
 70
     0
 62
     7
  6
Continuous
370
     0
390
521
  0
LAYER
  5
39
330
51E
100
AcDbSymbolTableRecord
100
AcDbLayerTableRecord
  2
Level 51
 70
     0
 62
     7
  6
Continuous
370
     0
390
521
  0
LAYER
  5
3A
330
51E
100
AcDbSymbolTableRecord
100
AcDbLayerTableRecord
  2
Level 52
 70
     0
 62
     7
  6
Continuous
370
     0
390
521
  0
LAYER
  5
3B
330
51E
100
AcDbSymbolTableRecord
100
AcDbLayerTableRecord
  2
Level 53
 70
     0
 62
     7
  6
Continuous
370
     0
390
521
  0
LAYER
  5
3C
330
51E
100
AcDbSymbolTableRecord
100
AcDbLayerTableRecord
  2
Level 54
 70
     0
 62
     7
  6
Continuous
370
     0
390
521
  0
LAYER
  5
3D
330
51E
100
AcDbSymbolTableRecord
100
AcDbLayerTableRecord
  2
Level 55
 70
     0
 62
     7
  6
Continuous
370
     0
390
521
  0
LAYER
  5
3E
330
51E
100
AcDbSymbolTableRecord
100
AcDbLayerTableRecord
  2
Level 56
 70
     0
 62
     7
  6
Continuous
370
     0
390
521
  0
LAYER
  5
3F
330
51E
100
AcDbSymbolTableRecord
100
AcDbLayerTableRecord
  2
Level 57
 70
     0
 62
     7
  6
Continuous
370
     0
390
521
  0
LAYER
  5
40
330
51E
100
AcDbSymbolTableRecord
100
AcDbLayerTableRecord
  2
Level 58
 70
     0
 62
     7
  6
Continuous
370
     0
390
521
  0
LAYER
  5
41
330
51E
100
AcDbSymbolTableRecord
100
AcDbLayerTableRecord
  2
Level 59
 70
     0
 62
     7
  6
Continuous
370
     0
390
521
  0
LAYER
  5
42
330
51E
100
AcDbSymbolTableRecord
100
AcDbLayerTableRecord
  2
Level 60
 70
     0
 62
     7
  6
Continuous
370
     0
390
521
  0
LAYER
  5
43
330
51E
100
AcDbSymbolTableRecord
100
AcDbLayerTableRecord
  2
Level 61
 70
     0
 62
     7
  6
Continuous
370
     0
390
521
  0
LAYER
  5
44
330
51E
100
AcDbSymbolTableRecord
100
AcDbLayerTableRecord
  2
Level 62
 70
     0
 62
     7
  6
Continuous
370
     0
390
521
  0
LAYER
  5
45
330
51E
100
AcDbSymbolTableRecord
100
AcDbLayerTableRecord
  2
_0
 70
     0
 62
     7
  6
Continuous
370
     0
390
521
1001
AcAecLayerStandard
1000

1000
0
  0
ENDTAB
  0
TABLE
  2
STYLE
  5
529
330
0
100
AcDbSymbolTable
 70
     2
  0
STYLE
  5
528
330
529
100
AcDbSymbolTableRecord
100
AcDbTextStyleTableRecord
  2
Standard
 70
     0
 40
0.0
 41
1.0
 50
0.0
 71
     0
 42
0.117
  3
txt
  4

  0
STYLE
  5
548
330
529
100
AcDbSymbolTableRecord
100
AcDbTextStyleTableRecord
  2
Style-Arial
 70
     0
 40
0.0
 41
1.0
 50
0.0
 71
     0
 42
0.2
  3

  4

1001
ACAD
1000
Arial
1071
       39
  0
ENDTAB
  0
TABLE
  2
VIEW
  5
53C
330
0
100
AcDbSymbolTable
 70
     0
  0
ENDTAB
  0
TABLE
  2
UCS
  5
53D
330
0
100
AcDbSymbolTable
 70
     0
  0
ENDTAB
  0
TABLE
  2
APPID
  5
53B
330
0
100
AcDbSymbolTable
 70
     3
  0
APPID
  5
543
330
53B
100
AcDbSymbolTableRecord
100
AcDbRegAppTableRecord
  2
ACAD
 70
     0
  0
APPID
  5
53A
330
53B
100
AcDbSymbolTableRecord
100
AcDbRegAppTableRecord
  2
ACAD_PSEXT
 70
     0
  0
APPID
  5
545
330
53B
100
AcDbSymbolTableRecord
100
AcDbRegAppTableRecord
  2
AcAecLayerStandard
 70
     0
  0
ENDTAB
  0
TABLE
  2
DIMSTYLE
  5
52B
330
0
100
AcDbSymbolTable
 70
     1
100
AcDbDimStyleTable
  0
DIMSTYLE
105
52A
330
52B
100
AcDbSymbolTableRecord
100
AcDbDimStyleTableRecord
  2
Standard
 70
     0
340
528
  0
ENDTAB
  0
TABLE
  2
BLOCK_RECORD
  5
52E
330
0
100
AcDbSymbolTable
 70
     2
  0
BLOCK_RECORD
  5
52F
102
{ACAD_XDICTIONARY
360
555
102
}
330
52E
100
AcDbSymbolTableRecord
100
AcDbBlockTableRecord
  2
*Model_Space
340
532
  0
BLOCK_RECORD
  5
534
330
52E
100
AcDbSymbolTableRecord
100
AcDbBlockTableRecord
  2
*Paper_Space
340
537
  0
BLOCK_RECORD
  5
549
330
52E
100
AcDbSymbolTableRecord
100
AcDbBlockTableRecord
  2
TerminatorOpen_0.5
340
0
  0
BLOCK_RECORD
  5
552
330
52E
100
AcDbSymbolTableRecord
100
AcDbBlockTableRecord
  2
LARROW
340
0
102
{BLKREFS
331
4B5
331
4B7
331
4B9
331
4BB
331
4BD
331
4BF
331
4C1
331
4C3
331
4C5
102
}
  0
ENDTAB
  0
ENDSEC
  0
SECTION
  2
BLOCKS
  0
BLOCK
  5
530
330
52F
100
AcDbEntity
  8
0
100
AcDbBlockBegin
  2
*Model_Space
 70
     0
 71
     0
 10
0.0
 20
0.0
 30
0.0
  3
*Model_Space
  1

  0
ENDBLK
  5
531
330
52F
100
AcDbEntity
  8
0
100
AcDbBlockEnd
  0
BLOCK
  5
535
330
534
100
AcDbEntity
 67
     1
  8
0
100
AcDbBlockBegin
  2
*Paper_Space
 70
     0
 71
     0
 10
0.0
 20
0.0
 30
0.0
  3
*Paper_Space
  1

  0
ENDBLK
  5
536
330
534
100
AcDbEntity
 67
     1
  8
0
100
AcDbBlockEnd
  0
BLOCK
  5
54D
330
549
100
AcDbEntity
  8
0
100
AcDbBlockBegin
  2
TerminatorOpen_0.5
 70
     0
 71
     0
 10
0.0
 20
0.0
 30
0.0
  3
TerminatorOpen_0.5
  1

  0
LINE
  5
54A
330
549
100
AcDbEntity
  8
0
  6
ByBlock
 62
     0
370
    -2
100
AcDbLine
 10
0.0
 20
0.0
 30
0.0
 11
-1.0
 21
0.0
 31
0.0
  0
LINE
  5
54B
330
549
100
AcDbEntity
  8
0
  6
ByBlock
 62
     0
370
    -2
100
AcDbLine
 10
0.0
 20
0.0
 30
0.0
 11
-1.0
 21
0.25
 31
0.0
  0
LINE
  5
54C
330
549
100
AcDbEntity
  8
0
  6
ByBlock
 62
     0
370
    -2
100
AcDbLine
 10
0.0
 20
0.0
 30
0.0
 11
-1.0
 21
-0.25
 31
0.0
  0
ENDBLK
  5
54E
330
549
100
AcDbEntity
  8
0
100
AcDbBlockEnd
  0
BLOCK
  5
553
330
552
100
AcDbEntity
  8
0
100
AcDbBlockBegin
  2
LARROW
 70
     0
 71
     0
 10
0.0
 20
0.0
 30
0.0
  3
LARROW
  1

  0
LWPOLYLINE
  5
4B6
330
552
100
AcDbEntity
  8
DIM
  6
Continuous
 62
     7
370
    13
100
AcDbPolyline
 90
       63
 70
   128
 43
0.0
 10
-0.013031
 20
0.001886
 10
0.0
 20
0.0
 10
-0.013021
 20
-0.001885
 10
-0.012614
 20
-0.001573
 10
-0.012042
 20
-0.001011
 10
-0.01176
 20
-0.00049
 10
-0.011688
 20
0.0
 10
-0.011792
 20
0.000552
 10
-0.012094
 20
0.001093
 10
-0.012677
 20
0.001625
 10
-0.013031
 20
0.001886
 10
-0.000386
 20
0.000021
 10
-0.012605
 20
-0.00176
 10
-0.012229
 20
-0.00148
 10
-0.011625
 20
-0.000906
 10
-0.011427
 20
-0.000166
 10
-0.011562
 20
0.000573
 10
-0.011916
 20
0.001083
 10
-0.012344
 20
0.0015
 10
-0.012636
 20
0.001729
 10
-0.001073
 20
0.000021
 10
-0.012052
 20
-0.001552
 10
-0.011666
 20
-0.001302
 10
-0.011469
 20
-0.000979
 10
-0.01125
 20
-0.000563
 10
-0.011135
 20
0.000021
 10
-0.011198
 20
0.0005
 10
-0.011427
 20
0.000875
 10
-0.011896
 20
0.001177
 10
-0.012208
 20
0.001542
 10
-0.001875
 20
0.000021
 10
-0.011448
 20
-0.001323
 10
-0.011021
 20
-0.000792
 10
-0.010896
 20
-0.000146
 10
-0.010959
 20
0.000573
 10
-0.011781
 20
0.001354
 10
-0.002771
 20
0.000063
 10
-0.010896
 20
-0.001073
 10
-0.010781
 20
-0.000698
 10
-0.010532
 20
-0.000094
 10
-0.010688
 20
0.000552
 10
-0.011333
 20
0.001125
 10
-0.003594
 20
0.000063
 10
-0.010604
 20
-0.000833
 10
-0.010375
 20
-0.000375
 10
-0.010271
 20
0.000114
 10
-0.01076
 20
0.000875
 10
-0.004573
 20
0.000062
 10
-0.010177
 20
-0.000625
 10
-0.010021
 20
-0.000281
 10
-0.00998
 20
0.000114
 10
-0.010375
 20
0.000666
 10
-0.00574
 20
0.000062
 10
-0.009823
 20
-0.000396
 10
-0.009709
 20
0.000135
 10
-0.010084
 20
0.000459
 10
-0.006698
 20
0.000063
 10
-0.009552
 20
-0.00024
 10
-0.009615
 20
0.000271
 10
-0.007677
 20
0.000063
 10
-0.009438
 20
-0.000073
 10
-0.00949
 20
0.000083
 10
-0.008886
 20
0.000084
  0
ENDBLK
  5
554
330
552
100
AcDbEntity
  8
0
100
AcDbBlockEnd
  0
ENDSEC
  0
SECTION
  2
ENTITIES
  0
POINT
  5
5B
330
52F
100
AcDbEntity
  8
_0
  6
Continuous
 62
     7
370
    30
100
AcDbPoint
 10
47.625
 20
0.986906
 30
0.0
  0
LINE
  5
5C
330
52F
100
AcDbEntity
  8
BORDER
  6
Continuous
 62
     7
370
    30
100
AcDbLine
 10
47.625
 20
0.986906
 30
0.0
 11
54.875
 21
0.986906
 31
0.0
  0
LINE
  5
5D
330
52F
100
AcDbEntity
  8
_0
  6
Continuous
 62
     7
370
    30
100
AcDbLine
 10
50.033052
 20
6.889948
 30
0.0
 11
50.113406
 21
6.809594
 31
0.0
  0
LINE
  5
5E
330
52F
100
AcDbEntity
  8
_0
  6
Continuous
 62
     7
370
    30
100
AcDbLine
 10
50.033385
 20
6.893146
 30
0.0
 11
50.113385
 21
6.813135
 31
0.0
  0
LINE
  5
5F
330
52F
100
AcDbEntity
  8
_0
  6
Continuous
 62
     7
370
    30
100
AcDbLine
 10
50.033729
 20
6.896333
 30
0.0
 11
50.113375
 21
6.816687
 31
0.0
  0
LINE
  5
60
330
52F
100
AcDbEntity
  8
_0
  6
Continuous
 62
     7
370
    30
100
AcDbLine
 10
50.034062
 20
6.899531
 30
0.0
 11
50.113365
 21
6.82024
 31
0.0
  0
LINE
  5
61
330
52F
100
AcDbEntity
  8
_0
  6
Continuous
 62
     7
370
    30
100
AcDbLine
 10
50.034406
 20
6.902729
 30
0.0
 11
50.113354
 21
6.823781
 31
0.0
  0
LINE
  5
62
330
52F
100
AcDbEntity
  8
_0
  6
Continuous
 62
     7
370
    30
100
AcDbLine
 10
50.03475
 20
6.905927
 30
0.0
 11
50.113333
 21
6.827333
 31
0.0
  0
LINE
  5
63
330
52F
100
AcDbEntity
  8
_0
  6
Continuous
 62
     7
370
    30
100
AcDbLine
 10
50.035083
 20
6.909125
 30
0.0
 11
50.113323
 21
6.830885
 31
0.0
  0
LINE
  5
64
330
52F
100
AcDbEntity
  8
_0
  6
Continuous
 62
     7
370
    30
100
AcDbLine
 10
50.035427
 20
6.912323
 30
0.0
 11
50.113312
 21
6.834427
 31
0.0
  0
LINE
  5
65
330
52F
100
AcDbEntity
  8
_0
  6
Continuous
 62
     7
370
    30
100
AcDbLine
 10
50.03576
 20
6.91551
 30
0.0
 11
50.113302
 21
6.837979
 31
0.0
  0
LINE
  5
66
330
52F
100
AcDbEntity
  8
_0
  6
Continuous
 62
     7
370
    30
100
AcDbLine
 10
50.036146
 20
6.918667
 30
0.0
 11
50.113292
 21
6.841531
 31
0.0
  0
LINE
  5
67
330
52F
100
AcDbEntity
  8
_0
  6
Continuous
 62
     7
370
    30
100
AcDbLine
 10
50.036583
 20
6.921771
 30
0.0
 11
50.113333
 21
6.84501
 31
0.0
  0
LINE
  5
68
330
52F
100
AcDbEntity
  8
_0
  6
Continuous
 62
     7
370
    30
100
AcDbLine
 10
50.03701
 20
6.924875
 30
0.0
 11
50.113417
 21
6.848469
 31
0.0
  0
LINE
  5
69
330
52F
100
AcDbEntity
  8
_0
  6
Continuous
 62
     7
370
    30
100
AcDbLine
 10
50.037448
 20
6.927969
 30
0.0
 11
50.11349
 21
6.851927
 31
0.0
  0
LINE
  5
6A
330
52F
100
AcDbEntity
  8
_0
  6
Continuous
 62
     7
370
    30
100
AcDbLine
 10
50.037885
 20
6.931073
 30
0.0
 11
50.113573
 21
6.855385
 31
0.0
  0
LINE
  5
6B
330
52F
100
AcDbEntity
  8
_0
  6
Continuous
 62
     7
370
    30
100
AcDbLine
 10
50.038312
 20
6.934177
 30
0.0
 11
50.113646
 21
6.858844
 31
0.0
  0
LINE
  5
6C
330
52F
100
AcDbEntity
  8
_0
  6
Continuous
 62
     7
370
    30
100
AcDbLine
 10
50.03875
 20
6.937271
 30
0.0
 11
50.113719
 21
6.862302
 31
0.0
  0
LINE
  5
6D
330
52F
100
AcDbEntity
  8
_0
  6
Continuous
 62
     7
370
    30
100
AcDbLine
 10
50.039187
 20
6.940375
 30
0.0
 11
50.113802
 21
6.86576
 31
0.0
  0
LINE
  5
6E
330
52F
100
AcDbEntity
  8
_0
  6
Continuous
 62
     7
370
    30
100
AcDbLine
 10
50.039625
 20
6.943479
 30
0.0
 11
50.113875
 21
6.869219
 31
0.0
  0
LINE
  5
6F
330
52F
100
AcDbEntity
  8
_0
  6
Continuous
 62
     7
370
    30
100
AcDbLine
 10
50.040052
 20
6.946583
 30
0.0
 11
50.113958
 21
6.872677
 31
0.0
  0
LINE
  5
70
330
52F
100
AcDbEntity
  8
_0
  6
Continuous
 62
     7
370
    30
100
AcDbLine
 10
50.04049
 20
6.949677
 30
0.0
 11
50.114031
 21
6.876135
 31
0.0
  0
LINE
  5
71
330
52F
100
AcDbEntity
  8
_0
  6
Continuous
 62
     7
370
    30
100
AcDbLine
 10
50.040927
 20
6.952781
 30
0.0
 11
50.114156
 21
6.879552
 31
0.0
  0
LINE
  5
72
330
52F
100
AcDbEntity
  8
_0
  6
Continuous
 62
     7
370
    30
100
AcDbLine
 10
50.041354
 20
6.955885
 30
0.0
 11
50.114323
 21
6.882917
 31
0.0
  0
LINE
  5
73
330
52F
100
AcDbEntity
  8
_0
  6
Continuous
 62
     7
370
    30
100
AcDbLine
 10
50.041792
 20
6.958979
 30
0.0
 11
50.11449
 21
6.886281
 31
0.0
  0
LINE
  5
74
330
52F
100
AcDbEntity
  8
_0
  6
Continuous
 62
     7
370
    30
100
AcDbLine
 10
50.042229
 20
6.962083
 30
0.0
 11
50.114667
 21
6.889646
 31
0.0
  0
LINE
  5
75
330
52F
100
AcDbEntity
  8
_0
  6
Continuous
 62
     7
370
    30
100
AcDbLine
 10
50.042677
 20
6.965167
 30
0.0
 11
50.114833
 21
6.893021
 31
0.0
  0
LINE
  5
76
330
52F
100
AcDbEntity
  8
_0
  6
Continuous
 62
     7
370
    30
100
AcDbLine
 10
50.043198
 20
6.968177
 30
0.0
 11
50.115
 21
6.896385
 31
0.0
  0
LINE
  5
77
330
52F
100
AcDbEntity
  8
_0
  6
Continuous
 62
     7
370
    30
100
AcDbLine
 10
50.043729
 20
6.971198
 30
0.0
 11
50.115167
 21
6.89975
 31
0.0
  0
LINE
  5
78
330
52F
100
AcDbEntity
  8
_0
  6
Continuous
 62
     7
370
    30
100
AcDbLine
 10
50.04425
 20
6.974208
 30
0.0
 11
50.115333
 21
6.903115
 31
0.0
  0
LINE
  5
79
330
52F
100
AcDbEntity
  8
_0
  6
Continuous
 62
     7
370
    30
100
AcDbLine
 10
50.044771
 20
6.977219
 30
0.0
 11
50.1155
 21
6.90649
 31
0.0
  0
LINE
  5
7A
330
52F
100
AcDbEntity
  8
_0
  6
Continuous
 62
     7
370
    30
100
AcDbLine
 10
50.045292
 20
6.98024
 30
0.0
 11
50.115677
 21
6.909854
 31
0.0
  0
LINE
  5
7B
330
52F
100
AcDbEntity
  8
_0
  6
Continuous
 62
     7
370
    30
100
AcDbLine
 10
50.045812
 20
6.98325
 30
0.0
 11
50.115854
 21
6.913208
 31
0.0
  0
LINE
  5
7C
330
52F
100
AcDbEntity
  8
_0
  6
Continuous
 62
     7
370
    30
100
AcDbLine
 10
50.046333
 20
6.98626
 30
0.0
 11
50.116115
 21
6.91649
 31
0.0
  0
LINE
  5
7D
330
52F
100
AcDbEntity
  8
_0
  6
Continuous
 62
     7
370
    30
100
AcDbLine
 10
50.046854
 20
6.989281
 30
0.0
 11
50.116365
 21
6.91976
 31
0.0
  0
LINE
  5
7E
330
52F
100
AcDbEntity
  8
_0
  6
Continuous
 62
     7
370
    30
100
AcDbLine
 10
50.047375
 20
6.992292
 30
0.0
 11
50.116625
 21
6.923042
 31
0.0
  0
LINE
  5
7F
330
52F
100
AcDbEntity
  8
_0
  6
Continuous
 62
     7
370
    30
100
AcDbLine
 10
50.047896
 20
6.995302
 30
0.0
 11
50.116875
 21
6.926323
 31
0.0
  0
LINE
  5
80
330
52F
100
AcDbEntity
  8
_0
  6
Continuous
 62
     7
370
    30
100
AcDbLine
 10
50.048417
 20
6.998323
 30
0.0
 11
50.117135
 21
6.929604
 31
0.0
  0
LINE
  5
81
330
52F
100
AcDbEntity
  8
_0
  6
Continuous
 62
     7
370
    30
100
AcDbLine
 10
50.048938
 20
7.001333
 30
0.0
 11
50.117385
 21
6.932885
 31
0.0
  0
LINE
  5
82
330
52F
100
AcDbEntity
  8
_0
  6
Continuous
 62
     7
370
    30
100
AcDbLine
 10
50.049458
 20
7.004344
 30
0.0
 11
50.117646
 21
6.936167
 31
0.0
  0
LINE
  5
83
330
52F
100
AcDbEntity
  8
_0
  6
Continuous
 62
     7
370
    30
100
AcDbLine
 10
50.04999
 20
7.007354
 30
0.0
 11
50.117896
 21
6.939448
 31
0.0
  0
LINE
  5
84
330
52F
100
AcDbEntity
  8
_0
  6
Continuous
 62
     7
370
    30
100
AcDbLine
 10
50.05051
 20
7.010375
 30
0.0
 11
50.118156
 21
6.942729
 31
0.0
  0
LINE
  5
85
330
52F
100
AcDbEntity
  8
_0
  6
Continuous
 62
     7
370
    30
100
AcDbLine
 10
50.051073
 20
7.013344
 30
0.0
 11
50.118406
 21
6.94601
 31
0.0
  0
LINE
  5
86
330
52F
100
AcDbEntity
  8
_0
  6
Continuous
 62
     7
370
    30
100
AcDbLine
 10
50.051677
 20
7.016281
 30
0.0
 11
50.118719
 21
6.949229
 31
0.0
  0
LINE
  5
87
330
52F
100
AcDbEntity
  8
_0
  6
Continuous
 62
     7
370
    30
100
AcDbLine
 10
50.052271
 20
7.019208
 30
0.0
 11
50.119052
 21
6.952427
 31
0.0
  0
LINE
  5
88
330
52F
100
AcDbEntity
  8
_0
  6
Continuous
 62
     7
370
    30
100
AcDbLine
 10
50.052875
 20
7.022146
 30
0.0
 11
50.119396
 21
6.955625
 31
0.0
  0
LINE
  5
89
330
52F
100
AcDbEntity
  8
_0
  6
Continuous
 62
     7
370
    30
100
AcDbLine
 10
50.053479
 20
7.025073
 30
0.0
 11
50.119729
 21
6.958833
 31
0.0
  0
LINE
  5
8A
330
52F
100
AcDbEntity
  8
_0
  6
Continuous
 62
     7
370
    30
100
AcDbLine
 10
50.054083
 20
7.02801
 30
0.0
 11
50.120062
 21
6.962031
 31
0.0
  0
LINE
  5
8B
330
52F
100
AcDbEntity
  8
_0
  6
Continuous
 62
     7
370
    30
100
AcDbLine
 10
50.054688
 20
7.030948
 30
0.0
 11
50.120406
 21
6.965229
 31
0.0
  0
LINE
  5
8C
330
52F
100
AcDbEntity
  8
_0
  6
Continuous
 62
     7
370
    30
100
AcDbLine
 10
50.055281
 20
7.033875
 30
0.0
 11
50.12074
 21
6.968427
 31
0.0
  0
LINE
  5
8D
330
52F
100
AcDbEntity
  8
_0
  6
Continuous
 62
     7
370
    30
100
AcDbLine
 10
50.055885
 20
7.036812
 30
0.0
 11
50.121073
 21
6.971625
 31
0.0
  0
LINE
  5
8E
330
52F
100
AcDbEntity
  8
_0
  6
Continuous
 62
     7
370
    30
100
AcDbLine
 10
50.05649
 20
7.03975
 30
0.0
 11
50.121417
 21
6.974823
 31
0.0
  0
LINE
  5
8F
330
52F
100
AcDbEntity
  8
_0
  6
Continuous
 62
     7
370
    30
100
AcDbLine
 10
50.057094
 20
7.042677
 30
0.0
 11
50.12175
 21
6.978021
 31
0.0
  0
LINE
  5
90
330
52F
100
AcDbEntity
  8
_0
  6
Continuous
 62
     7
370
    30
100
AcDbLine
 10
50.057698
 20
7.045615
 30
0.0
 11
50.122083
 21
6.981219
 31
0.0
  0
LINE
  5
91
330
52F
100
AcDbEntity
  8
_0
  6
Continuous
 62
     7
370
    30
100
AcDbLine
 10
50.058292
 20
7.048542
 30
0.0
 11
50.12249
 21
6.984354
 31
0.0
  0
LINE
  5
92
330
52F
100
AcDbEntity
  8
_0
  6
Continuous
 62
     7
370
    30
100
AcDbLine
 10
50.058896
 20
7.051479
 30
0.0
 11
50.122906
 21
6.987479
 31
0.0
  0
LINE
  5
93
330
52F
100
AcDbEntity
  8
_0
  6
Continuous
 62
     7
370
    30
100
AcDbLine
 10
50.0595
 20
7.054417
 30
0.0
 11
50.123312
 21
6.990604
 31
0.0
  0
LINE
  5
94
330
52F
100
AcDbEntity
  8
_0
  6
Continuous
 62
     7
370
    30
100
AcDbLine
 10
50.060104
 20
7.057344
 30
0.0
 11
50.123729
 21
6.993719
 31
0.0
  0
LINE
  5
95
330
52F
100
AcDbEntity
  8
_0
  6
Continuous
 62
     7
370
    30
100
AcDbLine
 10
50.060729
 20
7.06025
 30
0.0
 11
50.124135
 21
6.996844
 31
0.0
  0
LINE
  5
96
330
52F
100
AcDbEntity
  8
_0
  6
Continuous
 62
     7
370
    30
100
AcDbLine
 10
50.061406
 20
7.063115
 30
0.0
 11
50.124552
 21
6.999969
 31
0.0
  0
LINE
  5
97
330
52F
100
AcDbEntity
  8
_0
  6
Continuous
 62
     7
370
    30
100
AcDbLine
 10
50.062083
 20
7.065969
 30
0.0
 11
50.124958
 21
7.003094
 31
0.0
  0
LINE
  5
98
330
52F
100
AcDbEntity
  8
_0
  6
Continuous
 62
     7
370
    30
100
AcDbLine
 10
50.06276
 20
7.068833
 30
0.0
 11
50.125375
 21
7.006219
 31
0.0
  0
LINE
  5
99
330
52F
100
AcDbEntity
  8
_0
  6
Continuous
 62
     7
370
    30
100
AcDbLine
 10
50.063437
 20
7.071687
 30
0.0
 11
50.125781
 21
7.009344
 31
0.0
  0
LINE
  5
9A
330
52F
100
AcDbEntity
  8
_0
  6
Continuous
 62
     7
370
    30
100
AcDbLine
 10
50.064115
 20
7.074552
 30
0.0
 11
50.126198
 21
7.012469
 31
0.0
  0
LINE
  5
9B
330
52F
100
AcDbEntity
  8
_0
  6
Continuous
 62
     7
370
    30
100
AcDbLine
 10
50.064792
 20
7.077406
 30
0.0
 11
50.126604
 21
7.015583
 31
0.0
  0
LINE
  5
9C
330
52F
100
AcDbEntity
  8
_0
  6
Continuous
 62
     7
370
    30
100
AcDbLine
 10
50.065469
 20
7.080271
 30
0.0
 11
50.127073
 21
7.018667
 31
0.0
  0
LINE
  5
9D
330
52F
100
AcDbEntity
  8
_0
  6
Continuous
 62
     7
370
    30
100
AcDbLine
 10
50.066135
 20
7.083125
 30
0.0
 11
50.127552
 21
7.021719
 31
0.0
  0
LINE
  5
9E
330
52F
100
AcDbEntity
  8
_0
  6
Continuous
 62
     7
370
    30
100
AcDbLine
 10
50.066812
 20
7.08599
 30
0.0
 11
50.128031
 21
7.024771
 31
0.0
  0
LINE
  5
9F
330
52F
100
AcDbEntity
  8
_0
  6
Continuous
 62
     7
370
    30
100
AcDbLine
 10
50.06749
 20
7.088844
 30
0.0
 11
50.12851
 21
7.027833
 31
0.0
  0
LINE
  5
A0
330
52F
100
AcDbEntity
  8
_0
  6
Continuous
 62
     7
370
    30
100
AcDbLine
 10
50.068167
 20
7.091708
 30
0.0
 11
50.12899
 21
7.030885
 31
0.0
  0
LINE
  5
A1
330
52F
100
AcDbEntity
  8
_0
  6
Continuous
 62
     7
370
    30
100
AcDbLine
 10
50.068844
 20
7.094562
 30
0.0
 11
50.129469
 21
7.033948
 31
0.0
  0
LINE
  5
A2
330
52F
100
AcDbEntity
  8
_0
  6
Continuous
 62
     7
370
    30
100
AcDbLine
 10
50.069521
 20
7.097427
 30
0.0
 11
50.129948
 21
7.037
 31
0.0
  0
LINE
  5
A3
330
52F
100
AcDbEntity
  8
_0
  6
Continuous
 62
     7
370
    30
100
AcDbLine
 10
50.070198
 20
7.100292
 30
0.0
 11
50.130427
 21
7.040052
 31
0.0
  0
LINE
  5
A4
330
52F
100
AcDbEntity
  8
_0
  6
Continuous
 62
     7
370
    30
100
AcDbLine
 10
50.070875
 20
7.103146
 30
0.0
 11
50.130906
 21
7.043115
 31
0.0
  0
LINE
  5
A5
330
52F
100
AcDbEntity
  8
_0
  6
Continuous
 62
     7
370
    30
100
AcDbLine
 10
50.071542
 20
7.10601
 30
0.0
 11
50.131385
 21
7.046167
 31
0.0
  0
LINE
  5
A6
330
52F
100
AcDbEntity
  8
_0
  6
Continuous
 62
     7
370
    30
100
AcDbLine
 10
50.072281
 20
7.108812
 30
0.0
 11
50.131865
 21
7.049229
 31
0.0
  0
LINE
  5
A7
330
52F
100
AcDbEntity
  8
_0
  6
Continuous
 62
     7
370
    30
100
AcDbLine
 10
50.073021
 20
7.111604
 30
0.0
 11
50.132354
 21
7.052271
 31
0.0
  0
LINE
  5
A8
330
52F
100
AcDbEntity
  8
_0
  6
Continuous
 62
     7
370
    30
100
AcDbLine
 10
50.073771
 20
7.114396
 30
0.0
 11
50.132896
 21
7.055271
 31
0.0
  0
LINE
  5
A9
330
52F
100
AcDbEntity
  8
_0
  6
Continuous
 62
     7
370
    30
100
AcDbLine
 10
50.07451
 20
7.117188
 30
0.0
 11
50.133427
 21
7.05826
 31
0.0
  0
LINE
  5
AA
330
52F
100
AcDbEntity
  8
_0
  6
Continuous
 62
     7
370
    30
100
AcDbLine
 10
50.07525
 20
7.119979
 30
0.0
 11
50.133969
 21
7.06126
 31
0.0
  0
LINE
  5
AB
330
52F
100
AcDbEntity
  8
_0
  6
Continuous
 62
     7
370
    30
100
AcDbLine
 10
50.076
 20
7.122771
 30
0.0
 11
50.13451
 21
7.06426
 31
0.0
  0
LINE
  5
AC
330
52F
100
AcDbEntity
  8
_0
  6
Continuous
 62
     7
370
    30
100
AcDbLine
 10
50.07674
 20
7.125563
 30
0.0
 11
50.135042
 21
7.06726
 31
0.0
  0
LINE
  5
AD
330
52F
100
AcDbEntity
  8
_0
  6
Continuous
 62
     7
370
    30
100
AcDbLine
 10
50.07749
 20
7.128354
 30
0.0
 11
50.135583
 21
7.07025
 31
0.0
  0
LINE
  5
AE
330
52F
100
AcDbEntity
  8
_0
  6
Continuous
 62
     7
370
    30
100
AcDbLine
 10
50.078229
 20
7.131146
 30
0.0
 11
50.136125
 21
7.07325
 31
0.0
  0
LINE
  5
AF
330
52F
100
AcDbEntity
  8
_0
  6
Continuous
 62
     7
370
    30
100
AcDbLine
 10
50.078969
 20
7.133938
 30
0.0
 11
50.136656
 21
7.07625
 31
0.0
  0
LINE
  5
B0
330
52F
100
AcDbEntity
  8
_0
  6
Continuous
 62
     7
370
    30
100
AcDbLine
 10
50.079719
 20
7.136729
 30
0.0
 11
50.137198
 21
7.07925
 31
0.0
  0
LINE
  5
B1
330
52F
100
AcDbEntity
  8
_0
  6
Continuous
 62
     7
370
    30
100
AcDbLine
 10
50.080458
 20
7.139521
 30
0.0
 11
50.13774
 21
7.08224
 31
0.0
  0
LINE
  5
B2
330
52F
100
AcDbEntity
  8
_0
  6
Continuous
 62
     7
370
    30
100
AcDbLine
 10
50.081208
 20
7.142313
 30
0.0
 11
50.138271
 21
7.08524
 31
0.0
  0
LINE
  5
B3
330
52F
100
AcDbEntity
  8
_0
  6
Continuous
 62
     7
370
    30
100
AcDbLine
 10
50.081948
 20
7.145104
 30
0.0
 11
50.138823
 21
7.088229
 31
0.0
  0
LINE
  5
B4
330
52F
100
AcDbEntity
  8
_0
  6
Continuous
 62
     7
370
    30
100
AcDbLine
 10
50.082687
 20
7.147896
 30
0.0
 11
50.139406
 21
7.091177
 31
0.0
  0
LINE
  5
B5
330
52F
100
AcDbEntity
  8
_0
  6
Continuous
 62
     7
370
    30
100
AcDbLine
 10
50.083437
 20
7.150688
 30
0.0
 11
50.14
 21
7.094125
 31
0.0
  0
LINE
  5
B6
330
52F
100
AcDbEntity
  8
_0
  6
Continuous
 62
     7
370
    30
100
AcDbLine
 10
50.084177
 20
7.153479
 30
0.0
 11
50.140594
 21
7.097062
 31
0.0
  0
LINE
  5
B7
330
52F
100
AcDbEntity
  8
_0
  6
Continuous
 62
     7
370
    30
100
AcDbLine
 10
50.084979
 20
7.156219
 30
0.0
 11
50.141177
 21
7.10001
 31
0.0
  0
LINE
  5
B8
330
52F
100
AcDbEntity
  8
_0
  6
Continuous
 62
     7
370
    30
100
AcDbLine
 10
50.085781
 20
7.158948
 30
0.0
 11
50.141771
 21
7.102958
 31
0.0
  0
LINE
  5
B9
330
52F
100
AcDbEntity
  8
_0
  6
Continuous
 62
     7
370
    30
100
AcDbLine
 10
50.086594
 20
7.161677
 30
0.0
 11
50.142354
 21
7.105906
 31
0.0
  0
LINE
  5
BA
330
52F
100
AcDbEntity
  8
_0
  6
Continuous
 62
     7
370
    30
100
AcDbLine
 10
50.087396
 20
7.164406
 30
0.0
 11
50.142948
 21
7.108854
 31
0.0
  0
LINE
  5
BB
330
52F
100
AcDbEntity
  8
_0
  6
Continuous
 62
     7
370
    30
100
AcDbLine
 10
50.088198
 20
7.167135
 30
0.0
 11
50.143531
 21
7.111802
 31
0.0
  0
LINE
  5
BC
330
52F
100
AcDbEntity
  8
_0
  6
Continuous
 62
     7
370
    30
100
AcDbLine
 10
50.08901
 20
7.169865
 30
0.0
 11
50.144125
 21
7.11474
 31
0.0
  0
LINE
  5
BD
330
52F
100
AcDbEntity
  8
_0
  6
Continuous
 62
     7
370
    30
100
AcDbLine
 10
50.089813
 20
7.172594
 30
0.0
 11
50.144719
 21
7.117687
 31
0.0
  0
LINE
  5
BE
330
52F
100
AcDbEntity
  8
_0
  6
Continuous
 62
     7
370
    30
100
AcDbLine
 10
50.090625
 20
7.175323
 30
0.0
 11
50.145302
 21
7.120635
 31
0.0
  0
LINE
  5
BF
330
52F
100
AcDbEntity
  8
_0
  6
Continuous
 62
     7
370
    30
100
AcDbLine
 10
50.091427
 20
7.178052
 30
0.0
 11
50.145896
 21
7.123583
 31
0.0
  0
LINE
  5
C0
330
52F
100
AcDbEntity
  8
_0
  6
Continuous
 62
     7
370
    30
100
AcDbLine
 10
50.09224
 20
7.180781
 30
0.0
 11
50.14651
 21
7.1265
 31
0.0
  0
LINE
  5
C1
330
52F
100
AcDbEntity
  8
_0
  6
Continuous
 62
     7
370
    30
100
AcDbLine
 10
50.093042
 20
7.1835
 30
0.0
 11
50.147135
 21
7.129406
 31
0.0
  0
LINE
  5
C2
330
52F
100
AcDbEntity
  8
_0
  6
Continuous
 62
     7
370
    30
100
AcDbLine
 10
50.093844
 20
7.186229
 30
0.0
 11
50.147771
 21
7.132312
 31
0.0
  0
LINE
  5
C3
330
52F
100
AcDbEntity
  8
_0
  6
Continuous
 62
     7
370
    30
100
AcDbLine
 10
50.094656
 20
7.188958
 30
0.0
 11
50.148406
 21
7.135208
 31
0.0
  0
LINE
  5
C4
330
52F
100
AcDbEntity
  8
_0
  6
Continuous
 62
     7
370
    30
100
AcDbLine
 10
50.095458
 20
7.191687
 30
0.0
 11
50.149042
 21
7.138115
 31
0.0
  0
LINE
  5
C5
330
52F
100
AcDbEntity
  8
_0
  6
Continuous
 62
     7
370
    30
100
AcDbLine
 10
50.096271
 20
7.194417
 30
0.0
 11
50.149667
 21
7.141021
 31
0.0
  0
LINE
  5
C6
330
52F
100
AcDbEntity
  8
_0
  6
Continuous
 62
     7
370
    30
100
AcDbLine
 10
50.097073
 20
7.197146
 30
0.0
 11
50.150302
 21
7.143927
 31
0.0
  0
LINE
  5
C7
330
52F
100
AcDbEntity
  8
_0
  6
Continuous
 62
     7
370
    30
100
AcDbLine
 10
50.097885
 20
7.199875
 30
0.0
 11
50.150937
 21
7.146823
 31
0.0
  0
LINE
  5
C8
330
52F
100
AcDbEntity
  8
_0
  6
Continuous
 62
     7
370
    30
100
AcDbLine
 10
50.098708
 20
7.202583
 30
0.0
 11
50.151562
 21
7.149729
 31
0.0
  0
LINE
  5
C9
330
52F
100
AcDbEntity
  8
_0
  6
Continuous
 62
     7
370
    30
100
AcDbLine
 10
50.099583
 20
7.20525
 30
0.0
 11
50.152198
 21
7.152635
 31
0.0
  0
LINE
  5
CA
330
52F
100
AcDbEntity
  8
_0
  6
Continuous
 62
     7
370
    30
100
AcDbLine
 10
50.100448
 20
7.207917
 30
0.0
 11
50.152833
 21
7.155531
 31
0.0
  0
LINE
  5
CB
330
52F
100
AcDbEntity
  8
_0
  6
Continuous
 62
     7
370
    30
100
AcDbLine
 10
50.101312
 20
7.210594
 30
0.0
 11
50.153469
 21
7.158437
 31
0.0
  0
LINE
  5
CC
330
52F
100
AcDbEntity
  8
_0
  6
Continuous
 62
     7
370
    30
100
AcDbLine
 10
50.102177
 20
7.21326
 30
0.0
 11
50.154094
 21
7.161344
 31
0.0
  0
LINE
  5
CD
330
52F
100
AcDbEntity
  8
_0
  6
Continuous
 62
     7
370
    30
100
AcDbLine
 10
50.103042
 20
7.215927
 30
0.0
 11
50.15474
 21
7.164229
 31
0.0
  0
LINE
  5
CE
330
52F
100
AcDbEntity
  8
_0
  6
Continuous
 62
     7
370
    30
100
AcDbLine
 10
50.103917
 20
7.218594
 30
0.0
 11
50.155417
 21
7.167094
 31
0.0
  0
LINE
  5
CF
330
52F
100
AcDbEntity
  8
_0
  6
Continuous
 62
     7
370
    30
100
AcDbLine
 10
50.104781
 20
7.22126
 30
0.0
 11
50.156083
 21
7.169958
 31
0.0
  0
LINE
  5
D0
330
52F
100
AcDbEntity
  8
_0
  6
Continuous
 62
     7
370
    30
100
AcDbLine
 10
50.105646
 20
7.223937
 30
0.0
 11
50.15675
 21
7.172823
 31
0.0
  0
LINE
  5
D1
330
52F
100
AcDbEntity
  8
_0
  6
Continuous
 62
     7
370
    30
100
AcDbLine
 10
50.10651
 20
7.226604
 30
0.0
 11
50.157427
 21
7.175698
 31
0.0
  0
LINE
  5
D2
330
52F
100
AcDbEntity
  8
_0
  6
Continuous
 62
     7
370
    30
100
AcDbLine
 10
50.107375
 20
7.229271
 30
0.0
 11
50.158094
 21
7.178562
 31
0.0
  0
LINE
  5
D3
330
52F
100
AcDbEntity
  8
_0
  6
Continuous
 62
     7
370
    30
100
AcDbLine
 10
50.10825
 20
7.231937
 30
0.0
 11
50.15876
 21
7.181427
 31
0.0
  0
LINE
  5
D4
330
52F
100
AcDbEntity
  8
_0
  6
Continuous
 62
     7
370
    30
100
AcDbLine
 10
50.109115
 20
7.234604
 30
0.0
 11
50.159437
 21
7.184292
 31
0.0
  0
LINE
  5
D5
330
52F
100
AcDbEntity
  8
_0
  6
Continuous
 62
     7
370
    30
100
AcDbLine
 10
50.109979
 20
7.237281
 30
0.0
 11
50.160104
 21
7.187156
 31
0.0
  0
LINE
  5
D6
330
52F
100
AcDbEntity
  8
_0
  6
Continuous
 62
     7
370
    30
100
AcDbLine
 10
50.110844
 20
7.239948
 30
0.0
 11
50.160771
 21
7.190021
 31
0.0
  0
LINE
  5
D7
330
52F
100
AcDbEntity
  8
_0
  6
Continuous
 62
     7
370
    30
100
AcDbLine
 10
50.111708
 20
7.242615
 30
0.0
 11
50.161448
 21
7.192885
 31
0.0
  0
LINE
  5
D8
330
52F
100
AcDbEntity
  8
_0
  6
Continuous
 62
     7
370
    30
100
AcDbLine
 10
50.112583
 20
7.245281
 30
0.0
 11
50.162115
 21
7.19575
 31
0.0
  0
LINE
  5
D9
330
52F
100
AcDbEntity
  8
_0
  6
Continuous
 62
     7
370
    30
100
AcDbLine
 10
50.113448
 20
7.247958
 30
0.0
 11
50.162781
 21
7.198615
 31
0.0
  0
LINE
  5
DA
330
52F
100
AcDbEntity
  8
_0
  6
Continuous
 62
     7
370
    30
100
AcDbLine
 10
50.114354
 20
7.250583
 30
0.0
 11
50.163458
 21
7.201479
 31
0.0
  0
LINE
  5
DB
330
52F
100
AcDbEntity
  8
_0
  6
Continuous
 62
     7
370
    30
100
AcDbLine
 10
50.115281
 20
7.253188
 30
0.0
 11
50.164135
 21
7.204333
 31
0.0
  0
LINE
  5
DC
330
52F
100
AcDbEntity
  8
_0
  6
Continuous
 62
     7
370
    30
100
AcDbLine
 10
50.116219
 20
7.255792
 30
0.0
 11
50.164844
 21
7.207156
 31
0.0
  0
LINE
  5
DD
330
52F
100
AcDbEntity
  8
_0
  6
Continuous
 62
     7
370
    30
100
AcDbLine
 10
50.117156
 20
7.258385
 30
0.0
 11
50.165563
 21
7.209979
 31
0.0
  0
LINE
  5
DE
330
52F
100
AcDbEntity
  8
_0
  6
Continuous
 62
     7
370
    30
100
AcDbLine
 10
50.118083
 20
7.26099
 30
0.0
 11
50.166271
 21
7.212813
 31
0.0
  0
LINE
  5
DF
330
52F
100
AcDbEntity
  8
_0
  6
Continuous
 62
     7
370
    30
100
AcDbLine
 10
50.119021
 20
7.263594
 30
0.0
 11
50.166979
 21
7.215635
 31
0.0
  0
LINE
  5
E0
330
52F
100
AcDbEntity
  8
_0
  6
Continuous
 62
     7
370
    30
100
AcDbLine
 10
50.119948
 20
7.266198
 30
0.0
 11
50.167687
 21
7.218458
 31
0.0
  0
LINE
  5
E1
330
52F
100
AcDbEntity
  8
_0
  6
Continuous
 62
     7
370
    30
100
AcDbLine
 10
50.120885
 20
7.268802
 30
0.0
 11
50.168396
 21
7.221281
 31
0.0
  0
LINE
  5
E2
330
52F
100
AcDbEntity
  8
_0
  6
Continuous
 62
     7
370
    30
100
AcDbLine
 10
50.121823
 20
7.271406
 30
0.0
 11
50.169104
 21
7.224115
 31
0.0
  0
LINE
  5
E3
330
52F
100
AcDbEntity
  8
_0
  6
Continuous
 62
     7
370
    30
100
AcDbLine
 10
50.12275
 20
7.274
 30
0.0
 11
50.169823
 21
7.226938
 31
0.0
  0
LINE
  5
E4
330
52F
100
AcDbEntity
  8
_0
  6
Continuous
 62
     7
370
    30
100
AcDbLine
 10
50.123687
 20
7.276604
 30
0.0
 11
50.170531
 21
7.22976
 31
0.0
  0
LINE
  5
E5
330
52F
100
AcDbEntity
  8
_0
  6
Continuous
 62
     7
370
    30
100
AcDbLine
 10
50.124615
 20
7.279208
 30
0.0
 11
50.17124
 21
7.232583
 31
0.0
  0
LINE
  5
E6
330
52F
100
AcDbEntity
  8
_0
  6
Continuous
 62
     7
370
    30
100
AcDbLine
 10
50.125552
 20
7.281813
 30
0.0
 11
50.171948
 21
7.235417
 31
0.0
  0
LINE
  5
E7
330
52F
100
AcDbEntity
  8
_0
  6
Continuous
 62
     7
370
    30
100
AcDbLine
 10
50.12649
 20
7.284417
 30
0.0
 11
50.172656
 21
7.23824
 31
0.0
  0
LINE
  5
E8
330
52F
100
AcDbEntity
  8
_0
  6
Continuous
 62
     7
370
    30
100
AcDbLine
 10
50.127417
 20
7.28701
 30
0.0
 11
50.173365
 21
7.241062
 31
0.0
  0
LINE
  5
E9
330
52F
100
AcDbEntity
  8
_0
  6
Continuous
 62
     7
370
    30
100
AcDbLine
 10
50.128354
 20
7.289615
 30
0.0
 11
50.174083
 21
7.243885
 31
0.0
  0
LINE
  5
EA
330
52F
100
AcDbEntity
  8
_0
  6
Continuous
 62
     7
370
    30
100
AcDbLine
 10
50.129281
 20
7.292219
 30
0.0
 11
50.174802
 21
7.246698
 31
0.0
  0
LINE
  5
EB
330
52F
100
AcDbEntity
  8
_0
  6
Continuous
 62
     7
370
    30
100
AcDbLine
 10
50.130219
 20
7.294823
 30
0.0
 11
50.175562
 21
7.249479
 31
0.0
  0
LINE
  5
EC
330
52F
100
AcDbEntity
  8
_0
  6
Continuous
 62
     7
370
    30
100
AcDbLine
 10
50.131177
 20
7.297396
 30
0.0
 11
50.176313
 21
7.25226
 31
0.0
  0
LINE
  5
ED
330
52F
100
AcDbEntity
  8
_0
  6
Continuous
 62
     7
370
    30
100
AcDbLine
 10
50.132177
 20
7.299927
 30
0.0
 11
50.177062
 21
7.255052
 31
0.0
  0
LINE
  5
EE
330
52F
100
AcDbEntity
  8
_0
  6
Continuous
 62
     7
370
    30
100
AcDbLine
 10
50.133187
 20
7.302458
 30
0.0
 11
50.177813
 21
7.257833
 31
0.0
  0
LINE
  5
EF
330
52F
100
AcDbEntity
  8
_0
  6
Continuous
 62
     7
370
    30
100
AcDbLine
 10
50.134198
 20
7.304979
 30
0.0
 11
50.178562
 21
7.260615
 31
0.0
  0
LINE
  5
F0
330
52F
100
AcDbEntity
  8
_0
  6
Continuous
 62
     7
370
    30
100
AcDbLine
 10
50.135208
 20
7.30751
 30
0.0
 11
50.179323
 21
7.263396
 31
0.0
  0
LINE
  5
F1
330
52F
100
AcDbEntity
  8
_0
  6
Continuous
 62
     7
370
    30
100
AcDbLine
 10
50.136219
 20
7.310042
 30
0.0
 11
50.180073
 21
7.266177
 31
0.0
  0
LINE
  5
F2
330
52F
100
AcDbEntity
  8
_0
  6
Continuous
 62
     7
370
    30
100
AcDbLine
 10
50.137219
 20
7.312562
 30
0.0
 11
50.180823
 21
7.268969
 31
0.0
  0
LINE
  5
F3
330
52F
100
AcDbEntity
  8
_0
  6
Continuous
 62
     7
370
    30
100
AcDbLine
 10
50.138229
 20
7.315094
 30
0.0
 11
50.181573
 21
7.27175
 31
0.0
  0
LINE
  5
F4
330
52F
100
AcDbEntity
  8
_0
  6
Continuous
 62
     7
370
    30
100
AcDbLine
 10
50.13924
 20
7.317625
 30
0.0
 11
50.182323
 21
7.274531
 31
0.0
  0
LINE
  5
F5
330
52F
100
AcDbEntity
  8
_0
  6
Continuous
 62
     7
370
    30
100
AcDbLine
 10
50.14025
 20
7.320146
 30
0.0
 11
50.183083
 21
7.277312
 31
0.0
  0
LINE
  5
F6
330
52F
100
AcDbEntity
  8
_0
  6
Continuous
 62
     7
370
    30
100
AcDbLine
 10
50.14126
 20
7.322677
 30
0.0
 11
50.183833
 21
7.280094
 31
0.0
  0
LINE
  5
F7
330
52F
100
AcDbEntity
  8
_0
  6
Continuous
 62
     7
370
    30
100
AcDbLine
 10
50.14226
 20
7.325198
 30
0.0
 11
50.184583
 21
7.282885
 31
0.0
  0
LINE
  5
F8
330
52F
100
AcDbEntity
  8
_0
  6
Continuous
 62
     7
370
    30
100
AcDbLine
 10
50.143271
 20
7.327729
 30
0.0
 11
50.185333
 21
7.285667
 31
0.0
  0
LINE
  5
F9
330
52F
100
AcDbEntity
  8
_0
  6
Continuous
 62
     7
370
    30
100
AcDbLine
 10
50.144281
 20
7.33026
 30
0.0
 11
50.186083
 21
7.288448
 31
0.0
  0
LINE
  5
FA
330
52F
100
AcDbEntity
  8
_0
  6
Continuous
 62
     7
370
    30
100
AcDbLine
 10
50.145292
 20
7.332781
 30
0.0
 11
50.186854
 21
7.291219
 31
0.0
  0
LINE
  5
FB
330
52F
100
AcDbEntity
  8
_0
  6
Continuous
 62
     7
370
    30
100
AcDbLine
 10
50.146292
 20
7.335312
 30
0.0
 11
50.187646
 21
7.293958
 31
0.0
  0
LINE
  5
FC
330
52F
100
AcDbEntity
  8
_0
  6
Continuous
 62
     7
370
    30
100
AcDbLine
 10
50.147302
 20
7.337844
 30
0.0
 11
50.188448
 21
7.296698
 31
0.0
  0
LINE
  5
FD
330
52F
100
AcDbEntity
  8
_0
  6
Continuous
 62
     7
370
    30
100
AcDbLine
 10
50.148312
 20
7.340365
 30
0.0
 11
50.18924
 21
7.299437
 31
0.0
  0
LINE
  5
FE
330
52F
100
AcDbEntity
  8
_0
  6
Continuous
 62
     7
370
    30
100
AcDbLine
 10
50.149323
 20
7.342896
 30
0.0
 11
50.190031
 21
7.302177
 31
0.0
  0
LINE
  5
FF
330
52F
100
AcDbEntity
  8
_0
  6
Continuous
 62
     7
370
    30
100
AcDbLine
 10
50.150375
 20
7.345375
 30
0.0
 11
50.190823
 21
7.304927
 31
0.0
  0
LINE
  5
100
330
52F
100
AcDbEntity
  8
_0
  6
Continuous
 62
     7
370
    30
100
AcDbLine
 10
50.151469
 20
7.347823
 30
0.0
 11
50.191625
 21
7.307667
 31
0.0
  0
LINE
  5
101
330
52F
100
AcDbEntity
  8
_0
  6
Continuous
 62
     7
370
    30
100
AcDbLine
 10
50.152552
 20
7.35026
 30
0.0
 11
50.192417
 21
7.310406
 31
0.0
  0
LINE
  5
102
330
52F
100
AcDbEntity
  8
_0
  6
Continuous
 62
     7
370
    30
100
AcDbLine
 10
50.153646
 20
7.352708
 30
0.0
 11
50.193208
 21
7.313146
 31
0.0
  0
LINE
  5
103
330
52F
100
AcDbEntity
  8
_0
  6
Continuous
 62
     7
370
    30
100
AcDbLine
 10
50.15474
 20
7.355156
 30
0.0
 11
50.194
 21
7.315885
 31
0.0
  0
LINE
  5
104
330
52F
100
AcDbEntity
  8
_0
  6
Continuous
 62
     7
370
    30
100
AcDbLine
 10
50.155823
 20
7.357604
 30
0.0
 11
50.194802
 21
7.318625
 31
0.0
  0
LINE
  5
105
330
52F
100
AcDbEntity
  8
_0
  6
Continuous
 62
     7
370
    30
100
AcDbLine
 10
50.156917
 20
7.360042
 30
0.0
 11
50.195594
 21
7.321375
 31
0.0
  0
LINE
  5
106
330
52F
100
AcDbEntity
  8
_0
  6
Continuous
 62
     7
370
    30
100
AcDbLine
 10
50.15801
 20
7.36249
 30
0.0
 11
50.196385
 21
7.324115
 31
0.0
  0
LINE
  5
107
330
52F
100
AcDbEntity
  8
_0
  6
Continuous
 62
     7
370
    30
100
AcDbLine
 10
50.159094
 20
7.364937
 30
0.0
 11
50.197177
 21
7.326854
 31
0.0
  0
LINE
  5
108
330
52F
100
AcDbEntity
  8
_0
  6
Continuous
 62
     7
370
    30
100
AcDbLine
 10
50.160187
 20
7.367385
 30
0.0
 11
50.197979
 21
7.329594
 31
0.0
  0
LINE
  5
109
330
52F
100
AcDbEntity
  8
_0
  6
Continuous
 62
     7
370
    30
100
AcDbLine
 10
50.161281
 20
7.369823
 30
0.0
 11
50.198771
 21
7.332333
 31
0.0
  0
LINE
  5
10A
330
52F
100
AcDbEntity
  8
_0
  6
Continuous
 62
     7
370
    30
100
AcDbLine
 10
50.162365
 20
7.372271
 30
0.0
 11
50.199562
 21
7.335083
 31
0.0
  0
LINE
  5
10B
330
52F
100
AcDbEntity
  8
_0
  6
Continuous
 62
     7
370
    30
100
AcDbLine
 10
50.163458
 20
7.374719
 30
0.0
 11
50.200354
 21
7.337823
 31
0.0
  0
LINE
  5
10C
330
52F
100
AcDbEntity
  8
_0
  6
Continuous
 62
     7
370
    30
100
AcDbLine
 10
50.164552
 20
7.377167
 30
0.0
 11
50.201187
 21
7.340521
 31
0.0
  0
LINE
  5
10D
330
52F
100
AcDbEntity
  8
_0
  6
Continuous
 62
     7
370
    30
100
AcDbLine
 10
50.165635
 20
7.379615
 30
0.0
 11
50.202021
 21
7.343229
 31
0.0
  0
LINE
  5
10E
330
52F
100
AcDbEntity
  8
_0
  6
Continuous
 62
     7
370
    30
100
AcDbLine
 10
50.166729
 20
7.382052
 30
0.0
 11
50.202854
 21
7.345927
 31
0.0
  0
LINE
  5
10F
330
52F
100
AcDbEntity
  8
_0
  6
Continuous
 62
     7
370
    30
100
AcDbLine
 10
50.167823
 20
7.3845
 30
0.0
 11
50.203688
 21
7.348625
 31
0.0
  0
LINE
  5
110
330
52F
100
AcDbEntity
  8
_0
  6
Continuous
 62
     7
370
    30
100
AcDbLine
 10
50.168906
 20
7.386948
 30
0.0
 11
50.204531
 21
7.351323
 31
0.0
  0
LINE
  5
111
330
52F
100
AcDbEntity
  8
_0
  6
Continuous
 62
     7
370
    30
100
AcDbLine
 10
50.17
 20
7.389396
 30
0.0
 11
50.205365
 21
7.354031
 31
0.0
  0
LINE
  5
112
330
52F
100
AcDbEntity
  8
_0
  6
Continuous
 62
     7
370
    30
100
AcDbLine
 10
50.171125
 20
7.391802
 30
0.0
 11
50.206198
 21
7.356729
 31
0.0
  0
LINE
  5
113
330
52F
100
AcDbEntity
  8
_0
  6
Continuous
 62
     7
370
    30
100
AcDbLine
 10
50.172302
 20
7.394156
 30
0.0
 11
50.207031
 21
7.359427
 31
0.0
  0
LINE
  5
114
330
52F
100
AcDbEntity
  8
_0
  6
Continuous
 62
     7
370
    30
100
AcDbLine
 10
50.173479
 20
7.39651
 30
0.0
 11
50.207865
 21
7.362125
 31
0.0
  0
LINE
  5
115
330
52F
100
AcDbEntity
  8
_0
  6
Continuous
 62
     7
370
    30
100
AcDbLine
 10
50.174656
 20
7.398875
 30
0.0
 11
50.208698
 21
7.364833
 31
0.0
  0
LINE
  5
116
330
52F
100
AcDbEntity
  8
_0
  6
Continuous
 62
     7
370
    30
100
AcDbLine
 10
50.175844
 20
7.401229
 30
0.0
 11
50.209542
 21
7.367531
 31
0.0
  0
LINE
  5
117
330
52F
100
AcDbEntity
  8
_0
  6
Continuous
 62
     7
370
    30
100
AcDbLine
 10
50.177021
 20
7.403583
 30
0.0
 11
50.210375
 21
7.370229
 31
0.0
  0
LINE
  5
118
330
52F
100
AcDbEntity
  8
_0
  6
Continuous
 62
     7
370
    30
100
AcDbLine
 10
50.178198
 20
7.405937
 30
0.0
 11
50.211208
 21
7.372927
 31
0.0
  0
LINE
  5
119
330
52F
100
AcDbEntity
  8
_0
  6
Continuous
 62
     7
370
    30
100
AcDbLine
 10
50.179375
 20
7.408302
 30
0.0
 11
50.212042
 21
7.375635
 31
0.0
  0
LINE
  5
11A
330
52F
100
AcDbEntity
  8
_0
  6
Continuous
 62
     7
370
    30
100
AcDbLine
 10
50.180552
 20
7.410656
 30
0.0
 11
50.212875
 21
7.378333
 31
0.0
  0
LINE
  5
11B
330
52F
100
AcDbEntity
  8
_0
  6
Continuous
 62
     7
370
    30
100
AcDbLine
 10
50.181729
 20
7.41301
 30
0.0
 11
50.213708
 21
7.381031
 31
0.0
  0
LINE
  5
11C
330
52F
100
AcDbEntity
  8
_0
  6
Continuous
 62
     7
370
    30
100
AcDbLine
 10
50.182917
 20
7.415365
 30
0.0
 11
50.214542
 21
7.38374
 31
0.0
  0
LINE
  5
11D
330
52F
100
AcDbEntity
  8
_0
  6
Continuous
 62
     7
370
    30
100
AcDbLine
 10
50.184094
 20
7.417729
 30
0.0
 11
50.215385
 21
7.386437
 31
0.0
  0
LINE
  5
11E
330
52F
100
AcDbEntity
  8
_0
  6
Continuous
 62
     7
370
    30
100
AcDbLine
 10
50.185271
 20
7.420083
 30
0.0
 11
50.216219
 21
7.389135
 31
0.0
  0
LINE
  5
11F
330
52F
100
AcDbEntity
  8
_0
  6
Continuous
 62
     7
370
    30
100
AcDbLine
 10
50.186448
 20
7.422438
 30
0.0
 11
50.217083
 21
7.391802
 31
0.0
  0
LINE
  5
120
330
52F
100
AcDbEntity
  8
_0
  6
Continuous
 62
     7
370
    30
100
AcDbLine
 10
50.187625
 20
7.424792
 30
0.0
 11
50.217958
 21
7.394469
 31
0.0
  0
LINE
  5
121
330
52F
100
AcDbEntity
  8
_0
  6
Continuous
 62
     7
370
    30
100
AcDbLine
 10
50.188812
 20
7.427146
 30
0.0
 11
50.218833
 21
7.397125
 31
0.0
  0
LINE
  5
122
330
52F
100
AcDbEntity
  8
_0
  6
Continuous
 62
     7
370
    30
100
AcDbLine
 10
50.18999
 20
7.42951
 30
0.0
 11
50.219698
 21
7.399792
 31
0.0
  0
LINE
  5
123
330
52F
100
AcDbEntity
  8
_0
  6
Continuous
 62
     7
370
    30
100
AcDbLine
 10
50.191167
 20
7.431865
 30
0.0
 11
50.220573
 21
7.402458
 31
0.0
  0
LINE
  5
124
330
52F
100
AcDbEntity
  8
_0
  6
Continuous
 62
     7
370
    30
100
AcDbLine
 10
50.192344
 20
7.434219
 30
0.0
 11
50.221448
 21
7.405115
 31
0.0
  0
LINE
  5
125
330
52F
100
AcDbEntity
  8
_0
  6
Continuous
 62
     7
370
    30
100
AcDbLine
 10
50.193521
 20
7.436573
 30
0.0
 11
50.222323
 21
7.407781
 31
0.0
  0
LINE
  5
126
330
52F
100
AcDbEntity
  8
_0
  6
Continuous
 62
     7
370
    30
100
AcDbLine
 10
50.194771
 20
7.438865
 30
0.0
 11
50.223198
 21
7.410437
 31
0.0
  0
LINE
  5
127
330
52F
100
AcDbEntity
  8
_0
  6
Continuous
 62
     7
370
    30
100
AcDbLine
 10
50.196042
 20
7.441125
 30
0.0
 11
50.224073
 21
7.413104
 31
0.0
  0
LINE
  5
128
330
52F
100
AcDbEntity
  8
_0
  6
Continuous
 62
     7
370
    30
100
AcDbLine
 10
50.197323
 20
7.443385
 30
0.0
 11
50.224937
 21
7.415771
 31
0.0
  0
LINE
  5
129
330
52F
100
AcDbEntity
  8
_0
  6
Continuous
 62
     7
370
    30
100
AcDbLine
 10
50.198594
 20
7.445646
 30
0.0
 11
50.225812
 21
7.418427
 31
0.0
  0
LINE
  5
12A
330
52F
100
AcDbEntity
  8
_0
  6
Continuous
 62
     7
370
    30
100
AcDbLine
 10
50.199865
 20
7.447917
 30
0.0
 11
50.226687
 21
7.421094
 31
0.0
  0
LINE
  5
12B
330
52F
100
AcDbEntity
  8
_0
  6
Continuous
 62
     7
370
    30
100
AcDbLine
 10
50.201135
 20
7.450177
 30
0.0
 11
50.227562
 21
7.42375
 31
0.0
  0
LINE
  5
12C
330
52F
100
AcDbEntity
  8
_0
  6
Continuous
 62
     7
370
    30
100
AcDbLine
 10
50.202417
 20
7.452437
 30
0.0
 11
50.228437
 21
7.426417
 31
0.0
  0
LINE
  5
12D
330
52F
100
AcDbEntity
  8
_0
  6
Continuous
 62
     7
370
    30
100
AcDbLine
 10
50.203688
 20
7.454698
 30
0.0
 11
50.229312
 21
7.429073
 31
0.0
  0
LINE
  5
12E
330
52F
100
AcDbEntity
  8
_0
  6
Continuous
 62
     7
370
    30
100
AcDbLine
 10
50.204958
 20
7.456958
 30
0.0
 11
50.230177
 21
7.43174
 31
0.0
  0
LINE
  5
12F
330
52F
100
AcDbEntity
  8
_0
  6
Continuous
 62
     7
370
    30
100
AcDbLine
 10
50.206229
 20
7.459219
 30
0.0
 11
50.231052
 21
7.434406
 31
0.0
  0
LINE
  5
130
330
52F
100
AcDbEntity
  8
_0
  6
Continuous
 62
     7
370
    30
100
AcDbLine
 10
50.20751
 20
7.461479
 30
0.0
 11
50.231927
 21
7.437062
 31
0.0
  0
LINE
  5
131
330
52F
100
AcDbEntity
  8
_0
  6
Continuous
 62
     7
370
    30
100
AcDbLine
 10
50.208781
 20
7.46375
 30
0.0
 11
50.232802
 21
7.439729
 31
0.0
  0
LINE
  5
132
330
52F
100
AcDbEntity
  8
_0
  6
Continuous
 62
     7
370
    30
100
AcDbLine
 10
50.210052
 20
7.46601
 30
0.0
 11
50.233677
 21
7.442385
 31
0.0
  0
LINE
  5
133
330
52F
100
AcDbEntity
  8
_0
  6
Continuous
 62
     7
370
    30
100
AcDbLine
 10
50.211333
 20
7.468271
 30
0.0
 11
50.234542
 21
7.445052
 31
0.0
  0
LINE
  5
134
330
52F
100
AcDbEntity
  8
_0
  6
Continuous
 62
     7
370
    30
100
AcDbLine
 10
50.212604
 20
7.470531
 30
0.0
 11
50.235448
 21
7.447677
 31
0.0
  0
LINE
  5
135
330
52F
100
AcDbEntity
  8
_0
  6
Continuous
 62
     7
370
    30
100
AcDbLine
 10
50.213875
 20
7.472792
 30
0.0
 11
50.236365
 21
7.450312
 31
0.0
  0
LINE
  5
136
330
52F
100
AcDbEntity
  8
_0
  6
Continuous
 62
     7
370
    30
100
AcDbLine
 10
50.215146
 20
7.475052
 30
0.0
 11
50.237271
 21
7.452937
 31
0.0
  0
LINE
  5
137
330
52F
100
AcDbEntity
  8
_0
  6
Continuous
 62
     7
370
    30
100
AcDbLine
 10
50.216427
 20
7.477313
 30
0.0
 11
50.238177
 21
7.455563
 31
0.0
  0
LINE
  5
138
330
52F
100
AcDbEntity
  8
_0
  6
Continuous
 62
     7
370
    30
100
AcDbLine
 10
50.217698
 20
7.479583
 30
0.0
 11
50.239083
 21
7.458188
 31
0.0
  0
LINE
  5
139
330
52F
100
AcDbEntity
  8
_0
  6
Continuous
 62
     7
370
    30
100
AcDbLine
 10
50.218969
 20
7.481844
 30
0.0
 11
50.24
 21
7.460812
 31
0.0
  0
LINE
  5
13A
330
52F
100
AcDbEntity
  8
_0
  6
Continuous
 62
     7
370
    30
100
AcDbLine
 10
50.220302
 20
7.484042
 30
0.0
 11
50.240906
 21
7.463448
 31
0.0
  0
LINE
  5
13B
330
52F
100
AcDbEntity
  8
_0
  6
Continuous
 62
     7
370
    30
100
AcDbLine
 10
50.221677
 20
7.486208
 30
0.0
 11
50.241813
 21
7.466073
 31
0.0
  0
LINE
  5
13C
330
52F
100
AcDbEntity
  8
_0
  6
Continuous
 62
     7
370
    30
100
AcDbLine
 10
50.223052
 20
7.488365
 30
0.0
 11
50.242719
 21
7.468698
 31
0.0
  0
LINE
  5
13D
330
52F
100
AcDbEntity
  8
_0
  6
Continuous
 62
     7
370
    30
100
AcDbLine
 10
50.224427
 20
7.490531
 30
0.0
 11
50.243625
 21
7.471323
 31
0.0
  0
LINE
  5
13E
330
52F
100
AcDbEntity
  8
_0
  6
Continuous
 62
     7
370
    30
100
AcDbLine
 10
50.225792
 20
7.492687
 30
0.0
 11
50.244542
 21
7.473948
 31
0.0
  0
LINE
  5
13F
330
52F
100
AcDbEntity
  8
_0
  6
Continuous
 62
     7
370
    30
100
AcDbLine
 10
50.227167
 20
7.494854
 30
0.0
 11
50.245448
 21
7.476573
 31
0.0
  0
LINE
  5
140
330
52F
100
AcDbEntity
  8
_0
  6
Continuous
 62
     7
370
    30
100
AcDbLine
 10
50.228542
 20
7.497021
 30
0.0
 11
50.246354
 21
7.479208
 31
0.0
  0
LINE
  5
141
330
52F
100
AcDbEntity
  8
_0
  6
Continuous
 62
     7
370
    30
100
AcDbLine
 10
50.229917
 20
7.499177
 30
0.0
 11
50.24726
 21
7.481833
 31
0.0
  0
LINE
  5
142
330
52F
100
AcDbEntity
  8
_0
  6
Continuous
 62
     7
370
    30
100
AcDbLine
 10
50.231292
 20
7.501344
 30
0.0
 11
50.248177
 21
7.484458
 31
0.0
  0
LINE
  5
143
330
52F
100
AcDbEntity
  8
_0
  6
Continuous
 62
     7
370
    30
100
AcDbLine
 10
50.232667
 20
7.5035
 30
0.0
 11
50.249083
 21
7.487083
 31
0.0
  0
LINE
  5
144
330
52F
100
AcDbEntity
  8
_0
  6
Continuous
 62
     7
370
    30
100
AcDbLine
 10
50.234042
 20
7.505667
 30
0.0
 11
50.24999
 21
7.489708
 31
0.0
  0
LINE
  5
145
330
52F
100
AcDbEntity
  8
_0
  6
Continuous
 62
     7
370
    30
100
AcDbLine
 10
50.235417
 20
7.507823
 30
0.0
 11
50.250896
 21
7.492344
 31
0.0
  0
LINE
  5
146
330
52F
100
AcDbEntity
  8
_0
  6
Continuous
 62
     7
370
    30
100
AcDbLine
 10
50.236781
 20
7.50999
 30
0.0
 11
50.251802
 21
7.494969
 31
0.0
  0
LINE
  5
147
330
52F
100
AcDbEntity
  8
_0
  6
Continuous
 62
     7
370
    30
100
AcDbLine
 10
50.238156
 20
7.512146
 30
0.0
 11
50.252719
 21
7.497594
 31
0.0
  0
LINE
  5
148
330
52F
100
AcDbEntity
  8
_0
  6
Continuous
 62
     7
370
    30
100
AcDbLine
 10
50.239531
 20
7.514312
 30
0.0
 11
50.253625
 21
7.500219
 31
0.0
  0
LINE
  5
149
330
52F
100
AcDbEntity
  8
_0
  6
Continuous
 62
     7
370
    30
100
AcDbLine
 10
50.240906
 20
7.516469
 30
0.0
 11
50.254531
 21
7.502844
 31
0.0
  0
LINE
  5
14A
330
52F
100
AcDbEntity
  8
_0
  6
Continuous
 62
     7
370
    30
100
AcDbLine
 10
50.242281
 20
7.518635
 30
0.0
 11
50.255437
 21
7.505479
 31
0.0
  0
LINE
  5
14B
330
52F
100
AcDbEntity
  8
_0
  6
Continuous
 62
     7
370
    30
100
AcDbLine
 10
50.243656
 20
7.520792
 30
0.0
 11
50.256385
 21
7.508073
 31
0.0
  0
LINE
  5
14C
330
52F
100
AcDbEntity
  8
_0
  6
Continuous
 62
     7
370
    30
100
AcDbLine
 10
50.245031
 20
7.522958
 30
0.0
 11
50.257323
 21
7.510667
 31
0.0
  0
LINE
  5
14D
330
52F
100
AcDbEntity
  8
_0
  6
Continuous
 62
     7
370
    30
100
AcDbLine
 10
50.246406
 20
7.525125
 30
0.0
 11
50.25826
 21
7.51326
 31
0.0
  0
LINE
  5
14E
330
52F
100
AcDbEntity
  8
_0
  6
Continuous
 62
     7
370
    30
100
AcDbLine
 10
50.247771
 20
7.527281
 30
0.0
 11
50.259198
 21
7.515854
 31
0.0
  0
LINE
  5
14F
330
52F
100
AcDbEntity
  8
_0
  6
Continuous
 62
     7
370
    30
100
AcDbLine
 10
50.24924
 20
7.529344
 30
0.0
 11
50.260146
 21
7.518448
 31
0.0
  0
LINE
  5
150
330
52F
100
AcDbEntity
  8
_0
  6
Continuous
 62
     7
370
    30
100
AcDbLine
 10
50.250719
 20
7.531406
 30
0.0
 11
50.261083
 21
7.521042
 31
0.0
  0
LINE
  5
151
330
52F
100
AcDbEntity
  8
_0
  6
Continuous
 62
     7
370
    30
100
AcDbLine
 10
50.252198
 20
7.533458
 30
0.0
 11
50.262021
 21
7.523635
 31
0.0
  0
LINE
  5
152
330
52F
100
AcDbEntity
  8
_0
  6
Continuous
 62
     7
370
    30
100
AcDbLine
 10
50.253677
 20
7.535521
 30
0.0
 11
50.262969
 21
7.526229
 31
0.0
  0
LINE
  5
153
330
52F
100
AcDbEntity
  8
_0
  6
Continuous
 62
     7
370
    30
100
AcDbLine
 10
50.255156
 20
7.537573
 30
0.0
 11
50.263906
 21
7.528833
 31
0.0
  0
LINE
  5
154
330
52F
100
AcDbEntity
  8
_0
  6
Continuous
 62
     7
370
    30
100
AcDbLine
 10
50.256635
 20
7.539635
 30
0.0
 11
50.264844
 21
7.531427
 31
0.0
  0
LINE
  5
155
330
52F
100
AcDbEntity
  8
_0
  6
Continuous
 62
     7
370
    30
100
AcDbLine
 10
50.258115
 20
7.541688
 30
0.0
 11
50.265792
 21
7.534021
 31
0.0
  0
LINE
  5
156
330
52F
100
AcDbEntity
  8
_0
  6
Continuous
 62
     7
370
    30
100
AcDbLine
 10
50.259594
 20
7.54375
 30
0.0
 11
50.266729
 21
7.536615
 31
0.0
  0
LINE
  5
157
330
52F
100
AcDbEntity
  8
_0
  6
Continuous
 62
     7
370
    30
100
AcDbLine
 10
50.261073
 20
7.545802
 30
0.0
 11
50.267667
 21
7.539208
 31
0.0
  0
LINE
  5
158
330
52F
100
AcDbEntity
  8
_0
  6
Continuous
 62
     7
370
    30
100
AcDbLine
 10
50.262552
 20
7.547865
 30
0.0
 11
50.268615
 21
7.541802
 31
0.0
  0
LINE
  5
159
330
52F
100
AcDbEntity
  8
_0
  6
Continuous
 62
     7
370
    30
100
AcDbLine
 10
50.264031
 20
7.549917
 30
0.0
 11
50.269552
 21
7.544396
 31
0.0
  0
LINE
  5
15A
330
52F
100
AcDbEntity
  8
_0
  6
Continuous
 62
     7
370
    30
100
AcDbLine
 10
50.26551
 20
7.551979
 30
0.0
 11
50.27049
 21
7.54699
 31
0.0
  0
LINE
  5
15B
330
52F
100
AcDbEntity
  8
_0
  6
Continuous
 62
     7
370
    30
100
AcDbLine
 10
50.26699
 20
7.554031
 30
0.0
 11
50.271437
 21
7.549583
 31
0.0
  0
LINE
  5
15C
330
52F
100
AcDbEntity
  8
_0
  6
Continuous
 62
     7
370
    30
100
AcDbLine
 10
50.268469
 20
7.556094
 30
0.0
 11
50.272375
 21
7.552177
 31
0.0
  0
LINE
  5
15D
330
52F
100
AcDbEntity
  8
_0
  6
Continuous
 62
     7
370
    30
100
AcDbLine
 10
50.269948
 20
7.558146
 30
0.0
 11
50.273312
 21
7.554781
 31
0.0
  0
LINE
  5
15E
330
52F
100
AcDbEntity
  8
_0
  6
Continuous
 62
     7
370
    30
100
AcDbLine
 10
50.271417
 20
7.560208
 30
0.0
 11
50.27425
 21
7.557375
 31
0.0
  0
LINE
  5
15F
330
52F
100
AcDbEntity
  8
_0
  6
Continuous
 62
     7
370
    30
100
AcDbLine
 10
50.272896
 20
7.56226
 30
0.0
 11
50.275198
 21
7.559969
 31
0.0
  0
LINE
  5
160
330
52F
100
AcDbEntity
  8
_0
  6
Continuous
 62
     7
370
    30
100
AcDbLine
 10
50.274375
 20
7.564323
 30
0.0
 11
50.276135
 21
7.562562
 31
0.0
  0
LINE
  5
161
330
52F
100
AcDbEntity
  8
_0
  6
Continuous
 62
     7
370
    30
100
AcDbLine
 10
50.275854
 20
7.566375
 30
0.0
 11
50.277073
 21
7.565156
 31
0.0
  0
LINE
  5
162
330
52F
100
AcDbEntity
  8
_0
  6
Continuous
 62
     7
370
    30
100
AcDbLine
 10
50.277333
 20
7.568427
 30
0.0
 11
50.278021
 21
7.56775
 31
0.0
  0
LINE
  5
163
330
52F
100
AcDbEntity
  8
_0
  6
Continuous
 62
     7
370
    30
100
AcDbLine
 10
50.278813
 20
7.57049
 30
0.0
 11
50.278958
 21
7.570344
 31
0.0
  0
LINE
  5
164
330
52F
100
AcDbEntity
  8
_0
  6
Continuous
 62
     7
370
    30
100
AcDbLine
 10
50.032708
 20
6.88675
 30
0.0
 11
50.113448
 21
6.80601
 31
0.0
  0
LINE
  5
165
330
52F
100
AcDbEntity
  8
_0
  6
Continuous
 62
     7
370
    30
100
AcDbLine
 10
50.032375
 20
6.883552
 30
0.0
 11
50.113552
 21
6.802375
 31
0.0
  0
LINE
  5
166
330
52F
100
AcDbEntity
  8
_0
  6
Continuous
 62
     7
370
    30
100
AcDbLine
 10
50.032031
 20
6.880354
 30
0.0
 11
50.113656
 21
6.798729
 31
0.0
  0
LINE
  5
167
330
52F
100
AcDbEntity
  8
_0
  6
Continuous
 62
     7
370
    30
100
AcDbLine
 10
50.031687
 20
6.877156
 30
0.0
 11
50.11376
 21
6.795094
 31
0.0
  0
LINE
  5
168
330
52F
100
AcDbEntity
  8
_0
  6
Continuous
 62
     7
370
    30
100
AcDbLine
 10
50.031354
 20
6.873958
 30
0.0
 11
50.113865
 21
6.791458
 31
0.0
  0
LINE
  5
169
330
52F
100
AcDbEntity
  8
_0
  6
Continuous
 62
     7
370
    30
100
AcDbLine
 10
50.03101
 20
6.870771
 30
0.0
 11
50.113969
 21
6.787812
 31
0.0
  0
LINE
  5
16A
330
52F
100
AcDbEntity
  8
_0
  6
Continuous
 62
     7
370
    30
100
AcDbLine
 10
50.03076
 20
6.86749
 30
0.0
 11
50.114073
 21
6.784177
 31
0.0
  0
LINE
  5
16B
330
52F
100
AcDbEntity
  8
_0
  6
Continuous
 62
     7
370
    30
100
AcDbLine
 10
50.030521
 20
6.864187
 30
0.0
 11
50.114177
 21
6.780531
 31
0.0
  0
LINE
  5
16C
330
52F
100
AcDbEntity
  8
_0
  6
Continuous
 62
     7
370
    30
100
AcDbLine
 10
50.030281
 20
6.860885
 30
0.0
 11
50.114281
 21
6.776896
 31
0.0
  0
LINE
  5
16D
330
52F
100
AcDbEntity
  8
_0
  6
Continuous
 62
     7
370
    30
100
AcDbLine
 10
50.030052
 20
6.857583
 30
0.0
 11
50.114385
 21
6.77325
 31
0.0
  0
LINE
  5
16E
330
52F
100
AcDbEntity
  8
_0
  6
Continuous
 62
     7
370
    30
100
AcDbLine
 10
50.029812
 20
6.854292
 30
0.0
 11
50.114542
 21
6.769563
 31
0.0
  0
LINE
  5
16F
330
52F
100
AcDbEntity
  8
_0
  6
Continuous
 62
     7
370
    30
100
AcDbLine
 10
50.029583
 20
6.85099
 30
0.0
 11
50.11474
 21
6.765833
 31
0.0
  0
LINE
  5
170
330
52F
100
AcDbEntity
  8
_0
  6
Continuous
 62
     7
370
    30
100
AcDbLine
 10
50.029344
 20
6.847688
 30
0.0
 11
50.114937
 21
6.762094
 31
0.0
  0
LINE
  5
171
330
52F
100
AcDbEntity
  8
_0
  6
Continuous
 62
     7
370
    30
100
AcDbLine
 10
50.029104
 20
6.844385
 30
0.0
 11
50.115135
 21
6.758365
 31
0.0
  0
LINE
  5
172
330
52F
100
AcDbEntity
  8
_0
  6
Continuous
 62
     7
370
    30
100
AcDbLine
 10
50.028875
 20
6.841083
 30
0.0
 11
50.115333
 21
6.754625
 31
0.0
  0
LINE
  5
173
330
52F
100
AcDbEntity
  8
_0
  6
Continuous
 62
     7
370
    30
100
AcDbLine
 10
50.028635
 20
6.837781
 30
0.0
 11
50.115531
 21
6.750896
 31
0.0
  0
LINE
  5
174
330
52F
100
AcDbEntity
  8
_0
  6
Continuous
 62
     7
370
    30
100
AcDbLine
 10
50.028406
 20
6.83449
 30
0.0
 11
50.115729
 21
6.747156
 31
0.0
  0
LINE
  5
175
330
52F
100
AcDbEntity
  8
_0
  6
Continuous
 62
     7
370
    30
100
AcDbLine
 10
50.028167
 20
6.831187
 30
0.0
 11
50.115927
 21
6.743427
 31
0.0
  0
LINE
  5
176
330
52F
100
AcDbEntity
  8
_0
  6
Continuous
 62
     7
370
    30
100
AcDbLine
 10
50.027938
 20
6.827885
 30
0.0
 11
50.116125
 21
6.739687
 31
0.0
  0
LINE
  5
177
330
52F
100
AcDbEntity
  8
_0
  6
Continuous
 62
     7
370
    30
100
AcDbLine
 10
50.027698
 20
6.824583
 30
0.0
 11
50.116323
 21
6.735958
 31
0.0
  0
LINE
  5
178
330
52F
100
AcDbEntity
  8
_0
  6
Continuous
 62
     7
370
    30
100
AcDbLine
 10
50.027521
 20
6.821229
 30
0.0
 11
50.116625
 21
6.732125
 31
0.0
  0
LINE
  5
179
330
52F
100
AcDbEntity
  8
_0
  6
Continuous
 62
     7
370
    30
100
AcDbLine
 10
50.027396
 20
6.817812
 30
0.0
 11
50.116917
 21
6.728292
 31
0.0
  0
LINE
  5
17A
330
52F
100
AcDbEntity
  8
_0
  6
Continuous
 62
     7
370
    30
100
AcDbLine
 10
50.027281
 20
6.814396
 30
0.0
 11
50.117219
 21
6.724458
 31
0.0
  0
LINE
  5
17B
330
52F
100
AcDbEntity
  8
_0
  6
Continuous
 62
     7
370
    30
100
AcDbLine
 10
50.027156
 20
6.81099
 30
0.0
 11
50.11751
 21
6.720625
 31
0.0
  0
LINE
  5
17C
330
52F
100
AcDbEntity
  8
_0
  6
Continuous
 62
     7
370
    30
100
AcDbLine
 10
50.027031
 20
6.807573
 30
0.0
 11
50.117812
 21
6.716802
 31
0.0
  0
LINE
  5
17D
330
52F
100
AcDbEntity
  8
_0
  6
Continuous
 62
     7
370
    30
100
AcDbLine
 10
50.026917
 20
6.804156
 30
0.0
 11
50.118104
 21
6.712969
 31
0.0
  0
LINE
  5
17E
330
52F
100
AcDbEntity
  8
_0
  6
Continuous
 62
     7
370
    30
100
AcDbLine
 10
50.026792
 20
6.80074
 30
0.0
 11
50.118406
 21
6.709135
 31
0.0
  0
LINE
  5
17F
330
52F
100
AcDbEntity
  8
_0
  6
Continuous
 62
     7
370
    30
100
AcDbLine
 10
50.026677
 20
6.797323
 30
0.0
 11
50.118698
 21
6.705302
 31
0.0
  0
LINE
  5
180
330
52F
100
AcDbEntity
  8
_0
  6
Continuous
 62
     7
370
    30
100
AcDbLine
 10
50.026552
 20
6.793917
 30
0.0
 11
50.11899
 21
6.701469
 31
0.0
  0
LINE
  5
181
330
52F
100
AcDbEntity
  8
_0
  6
Continuous
 62
     7
370
    30
100
AcDbLine
 10
50.026427
 20
6.7905
 30
0.0
 11
50.119375
 21
6.697552
 31
0.0
  0
LINE
  5
182
330
52F
100
AcDbEntity
  8
_0
  6
Continuous
 62
     7
370
    30
100
AcDbLine
 10
50.026312
 20
6.787083
 30
0.0
 11
50.119771
 21
6.693615
 31
0.0
  0
LINE
  5
183
330
52F
100
AcDbEntity
  8
_0
  6
Continuous
 62
     7
370
    30
100
AcDbLine
 10
50.026187
 20
6.783667
 30
0.0
 11
50.120177
 21
6.689677
 31
0.0
  0
LINE
  5
184
330
52F
100
AcDbEntity
  8
_0
  6
Continuous
 62
     7
370
    30
100
AcDbLine
 10
50.026063
 20
6.78025
 30
0.0
 11
50.120573
 21
6.68575
 31
0.0
  0
LINE
  5
185
330
52F
100
AcDbEntity
  8
_0
  6
Continuous
 62
     7
370
    30
100
AcDbLine
 10
50.025948
 20
6.776844
 30
0.0
 11
50.120979
 21
6.681812
 31
0.0
  0
LINE
  5
186
330
52F
100
AcDbEntity
  8
_0
  6
Continuous
 62
     7
370
    30
100
AcDbLine
 10
50.025906
 20
6.773344
 30
0.0
 11
50.121375
 21
6.677875
 31
0.0
  0
LINE
  5
187
330
52F
100
AcDbEntity
  8
_0
  6
Continuous
 62
     7
370
    30
100
AcDbLine
 10
50.025917
 20
6.769802
 30
0.0
 11
50.121781
 21
6.673938
 31
0.0
  0
LINE
  5
188
330
52F
100
AcDbEntity
  8
_0
  6
Continuous
 62
     7
370
    30
100
AcDbLine
 10
50.025927
 20
6.76625
 30
0.0
 11
50.122177
 21
6.67
 31
0.0
  0
LINE
  5
189
330
52F
100
AcDbEntity
  8
_0
  6
Continuous
 62
     7
370
    30
100
AcDbLine
 10
50.025927
 20
6.762708
 30
0.0
 11
50.122583
 21
6.666062
 31
0.0
  0
LINE
  5
18A
330
52F
100
AcDbEntity
  8
_0
  6
Continuous
 62
     7
370
    30
100
AcDbLine
 10
50.025937
 20
6.759167
 30
0.0
 11
50.123083
 21
6.662021
 31
0.0
  0
LINE
  5
18B
330
52F
100
AcDbEntity
  8
_0
  6
Continuous
 62
     7
370
    30
100
AcDbLine
 10
50.025948
 20
6.755625
 30
0.0
 11
50.123604
 21
6.657969
 31
0.0
  0
LINE
  5
18C
330
52F
100
AcDbEntity
  8
_0
  6
Continuous
 62
     7
370
    30
100
AcDbLine
 10
50.025948
 20
6.752083
 30
0.0
 11
50.124115
 21
6.653927
 31
0.0
  0
LINE
  5
18D
330
52F
100
AcDbEntity
  8
_0
  6
Continuous
 62
     7
370
    30
100
AcDbLine
 10
50.025958
 20
6.748542
 30
0.0
 11
50.124625
 21
6.649875
 31
0.0
  0
LINE
  5
18E
330
52F
100
AcDbEntity
  8
_0
  6
Continuous
 62
     7
370
    30
100
AcDbLine
 10
50.025969
 20
6.745
 30
0.0
 11
50.125146
 21
6.645823
 31
0.0
  0
LINE
  5
18F
330
52F
100
AcDbEntity
  8
_0
  6
Continuous
 62
     7
370
    30
100
AcDbLine
 10
50.025969
 20
6.741458
 30
0.0
 11
50.125656
 21
6.641771
 31
0.0
  0
LINE
  5
190
330
52F
100
AcDbEntity
  8
_0
  6
Continuous
 62
     7
370
    30
100
AcDbLine
 10
50.025979
 20
6.737917
 30
0.0
 11
50.126167
 21
6.637729
 31
0.0
  0
LINE
  5
191
330
52F
100
AcDbEntity
  8
_0
  6
Continuous
 62
     7
370
    30
100
AcDbLine
 10
50.02599
 20
6.734375
 30
0.0
 11
50.126677
 21
6.633677
 31
0.0
  0
LINE
  5
192
330
52F
100
AcDbEntity
  8
_0
  6
Continuous
 62
     7
370
    30
100
AcDbLine
 10
50.02599
 20
6.730833
 30
0.0
 11
50.12726
 21
6.629562
 31
0.0
  0
LINE
  5
193
330
52F
100
AcDbEntity
  8
_0
  6
Continuous
 62
     7
370
    30
100
AcDbLine
 10
50.026042
 20
6.72725
 30
0.0
 11
50.127896
 21
6.625396
 31
0.0
  0
LINE
  5
194
330
52F
100
AcDbEntity
  8
_0
  6
Continuous
 62
     7
370
    30
100
AcDbLine
 10
50.026187
 20
6.723562
 30
0.0
 11
50.128531
 21
6.621219
 31
0.0
  0
LINE
  5
195
330
52F
100
AcDbEntity
  8
_0
  6
Continuous
 62
     7
370
    30
100
AcDbLine
 10
50.026333
 20
6.719885
 30
0.0
 11
50.129177
 21
6.617042
 31
0.0
  0
LINE
  5
196
330
52F
100
AcDbEntity
  8
_0
  6
Continuous
 62
     7
370
    30
100
AcDbLine
 10
50.026479
 20
6.716198
 30
0.0
 11
50.129812
 21
6.612875
 31
0.0
  0
LINE
  5
197
330
52F
100
AcDbEntity
  8
_0
  6
Continuous
 62
     7
370
    30
100
AcDbLine
 10
50.026635
 20
6.71251
 30
0.0
 11
50.130448
 21
6.608698
 31
0.0
  0
LINE
  5
198
330
52F
100
AcDbEntity
  8
_0
  6
Continuous
 62
     7
370
    30
100
AcDbLine
 10
50.026781
 20
6.708833
 30
0.0
 11
50.131094
 21
6.604521
 31
0.0
  0
LINE
  5
199
330
52F
100
AcDbEntity
  8
_0
  6
Continuous
 62
     7
370
    30
100
AcDbLine
 10
50.026927
 20
6.705146
 30
0.0
 11
50.131729
 21
6.600344
 31
0.0
  0
LINE
  5
19A
330
52F
100
AcDbEntity
  8
_0
  6
Continuous
 62
     7
370
    30
100
AcDbLine
 10
50.027083
 20
6.701458
 30
0.0
 11
50.132438
 21
6.596104
 31
0.0
  0
LINE
  5
19B
330
52F
100
AcDbEntity
  8
_0
  6
Continuous
 62
     7
370
    30
100
AcDbLine
 10
50.027229
 20
6.697771
 30
0.0
 11
50.133219
 21
6.591781
 31
0.0
  0
LINE
  5
19C
330
52F
100
AcDbEntity
  8
_0
  6
Continuous
 62
     7
370
    30
100
AcDbLine
 10
50.027375
 20
6.694094
 30
0.0
 11
50.134
 21
6.587469
 31
0.0
  0
LINE
  5
19D
330
52F
100
AcDbEntity
  8
_0
  6
Continuous
 62
     7
370
    30
100
AcDbLine
 10
50.027521
 20
6.690406
 30
0.0
 11
50.134781
 21
6.583156
 31
0.0
  0
LINE
  5
19E
330
52F
100
AcDbEntity
  8
_0
  6
Continuous
 62
     7
370
    30
100
AcDbLine
 10
50.027677
 20
6.686719
 30
0.0
 11
50.135562
 21
6.578833
 31
0.0
  0
LINE
  5
19F
330
52F
100
AcDbEntity
  8
_0
  6
Continuous
 62
     7
370
    30
100
AcDbLine
 10
50.027823
 20
6.683042
 30
0.0
 11
50.136344
 21
6.574521
 31
0.0
  0
LINE
  5
1A0
330
52F
100
AcDbEntity
  8
_0
  6
Continuous
 62
     7
370
    30
100
AcDbLine
 10
50.02801
 20
6.679312
 30
0.0
 11
50.137125
 21
6.570208
 31
0.0
  0
LINE
  5
1A1
330
52F
100
AcDbEntity
  8
_0
  6
Continuous
 62
     7
370
    30
100
AcDbLine
 10
50.028323
 20
6.675469
 30
0.0
 11
50.137906
 21
6.565885
 31
0.0
  0
LINE
  5
1A2
330
52F
100
AcDbEntity
  8
_0
  6
Continuous
 62
     7
370
    30
100
AcDbLine
 10
50.028625
 20
6.671635
 30
0.0
 11
50.138854
 21
6.561406
 31
0.0
  0
LINE
  5
1A3
330
52F
100
AcDbEntity
  8
_0
  6
Continuous
 62
     7
370
    30
100
AcDbLine
 10
50.028927
 20
6.667792
 30
0.0
 11
50.139792
 21
6.556927
 31
0.0
  0
LINE
  5
1A4
330
52F
100
AcDbEntity
  8
_0
  6
Continuous
 62
     7
370
    30
100
AcDbLine
 10
50.029229
 20
6.663948
 30
0.0
 11
50.14074
 21
6.552437
 31
0.0
  0
LINE
  5
1A5
330
52F
100
AcDbEntity
  8
_0
  6
Continuous
 62
     7
370
    30
100
AcDbLine
 10
50.029542
 20
6.660115
 30
0.0
 11
50.141687
 21
6.547958
 31
0.0
  0
LINE
  5
1A6
330
52F
100
AcDbEntity
  8
_0
  6
Continuous
 62
     7
370
    30
100
AcDbLine
 10
50.029844
 20
6.656271
 30
0.0
 11
50.142635
 21
6.543479
 31
0.0
  0
LINE
  5
1A7
330
52F
100
AcDbEntity
  8
_0
  6
Continuous
 62
     7
370
    30
100
AcDbLine
 10
50.030146
 20
6.652427
 30
0.0
 11
50.143583
 21
6.53899
 31
0.0
  0
LINE
  5
1A8
330
52F
100
AcDbEntity
  8
_0
  6
Continuous
 62
     7
370
    30
100
AcDbLine
 10
50.030448
 20
6.648594
 30
0.0
 11
50.144531
 21
6.53451
 31
0.0
  0
LINE
  5
1A9
330
52F
100
AcDbEntity
  8
_0
  6
Continuous
 62
     7
370
    30
100
AcDbLine
 10
50.03076
 20
6.64475
 30
0.0
 11
50.145656
 21
6.529854
 31
0.0
  0
LINE
  5
1AA
330
52F
100
AcDbEntity
  8
_0
  6
Continuous
 62
     7
370
    30
100
AcDbLine
 10
50.031062
 20
6.640906
 30
0.0
 11
50.146792
 21
6.525177
 31
0.0
  0
LINE
  5
1AB
330
52F
100
AcDbEntity
  8
_0
  6
Continuous
 62
     7
370
    30
100
AcDbLine
 10
50.031365
 20
6.637073
 30
0.0
 11
50.147927
 21
6.52051
 31
0.0
  0
LINE
  5
1AC
330
52F
100
AcDbEntity
  8
_0
  6
Continuous
 62
     7
370
    30
100
AcDbLine
 10
50.031667
 20
6.633229
 30
0.0
 11
50.149062
 21
6.515833
 31
0.0
  0
LINE
  5
1AD
330
52F
100
AcDbEntity
  8
_0
  6
Continuous
 62
     7
370
    30
100
AcDbLine
 10
50.032083
 20
6.629281
 30
0.0
 11
50.150198
 21
6.511167
 31
0.0
  0
LINE
  5
1AE
330
52F
100
AcDbEntity
  8
_0
  6
Continuous
 62
     7
370
    30
100
AcDbLine
 10
50.032552
 20
6.625271
 30
0.0
 11
50.151333
 21
6.50649
 31
0.0
  0
LINE
  5
1AF
330
52F
100
AcDbEntity
  8
_0
  6
Continuous
 62
     7
370
    30
100
AcDbLine
 10
50.033031
 20
6.621271
 30
0.0
 11
50.152521
 21
6.501771
 31
0.0
  0
LINE
  5
1B0
330
52F
100
AcDbEntity
  8
_0
  6
Continuous
 62
     7
370
    30
100
AcDbLine
 10
50.0335
 20
6.61726
 30
0.0
 11
50.153865
 21
6.496885
 31
0.0
  0
LINE
  5
1B1
330
52F
100
AcDbEntity
  8
_0
  6
Continuous
 62
     7
370
    30
100
AcDbLine
 10
50.033979
 20
6.61325
 30
0.0
 11
50.155219
 21
6.492
 31
0.0
  0
LINE
  5
1B2
330
52F
100
AcDbEntity
  8
_0
  6
Continuous
 62
     7
370
    30
100
AcDbLine
 10
50.034448
 20
6.60924
 30
0.0
 11
50.156562
 21
6.487125
 31
0.0
  0
LINE
  5
1B3
330
52F
100
AcDbEntity
  8
_0
  6
Continuous
 62
     7
370
    30
100
AcDbLine
 10
50.034927
 20
6.605229
 30
0.0
 11
50.157917
 21
6.48224
 31
0.0
  0
LINE
  5
1B4
330
52F
100
AcDbEntity
  8
_0
  6
Continuous
 62
     7
370
    30
100
AcDbLine
 10
50.035396
 20
6.601219
 30
0.0
 11
50.15926
 21
6.477354
 31
0.0
  0
LINE
  5
1B5
330
52F
100
AcDbEntity
  8
_0
  6
Continuous
 62
     7
370
    30
100
AcDbLine
 10
50.035875
 20
6.597208
 30
0.0
 11
50.160615
 21
6.472469
 31
0.0
  0
LINE
  5
1B6
330
52F
100
AcDbEntity
  8
_0
  6
Continuous
 62
     7
370
    30
100
AcDbLine
 10
50.036344
 20
6.593198
 30
0.0
 11
50.162146
 21
6.467396
 31
0.0
  0
LINE
  5
1B7
330
52F
100
AcDbEntity
  8
_0
  6
Continuous
 62
     7
370
    30
100
AcDbLine
 10
50.036823
 20
6.589187
 30
0.0
 11
50.163729
 21
6.462281
 31
0.0
  0
LINE
  5
1B8
330
52F
100
AcDbEntity
  8
_0
  6
Continuous
 62
     7
370
    30
100
AcDbLine
 10
50.037292
 20
6.585177
 30
0.0
 11
50.165302
 21
6.457167
 31
0.0
  0
LINE
  5
1B9
330
52F
100
AcDbEntity
  8
_0
  6
Continuous
 62
     7
370
    30
100
AcDbLine
 10
50.037823
 20
6.581125
 30
0.0
 11
50.166885
 21
6.452052
 31
0.0
  0
LINE
  5
1BA
330
52F
100
AcDbEntity
  8
_0
  6
Continuous
 62
     7
370
    30
100
AcDbLine
 10
50.038479
 20
6.576927
 30
0.0
 11
50.168458
 21
6.446937
 31
0.0
  0
LINE
  5
1BB
330
52F
100
AcDbEntity
  8
_0
  6
Continuous
 62
     7
370
    30
100
AcDbLine
 10
50.039135
 20
6.57274
 30
0.0
 11
50.170042
 21
6.441823
 31
0.0
  0
LINE
  5
1BC
330
52F
100
AcDbEntity
  8
_0
  6
Continuous
 62
     7
370
    30
100
AcDbLine
 10
50.039792
 20
6.568542
 30
0.0
 11
50.171781
 21
6.436552
 31
0.0
  0
LINE
  5
1BD
330
52F
100
AcDbEntity
  8
_0
  6
Continuous
 62
     7
370
    30
100
AcDbLine
 10
50.040448
 20
6.564354
 30
0.0
 11
50.173604
 21
6.431198
 31
0.0
  0
LINE
  5
1BE
330
52F
100
AcDbEntity
  8
_0
  6
Continuous
 62
     7
370
    30
100
AcDbLine
 10
50.041104
 20
6.560156
 30
0.0
 11
50.175417
 21
6.425844
 31
0.0
  0
LINE
  5
1BF
330
52F
100
AcDbEntity
  8
_0
  6
Continuous
 62
     7
370
    30
100
AcDbLine
 10
50.04176
 20
6.555969
 30
0.0
 11
50.17724
 21
6.42049
 31
0.0
  0
LINE
  5
1C0
330
52F
100
AcDbEntity
  8
_0
  6
Continuous
 62
     7
370
    30
100
AcDbLine
 10
50.042417
 20
6.551771
 30
0.0
 11
50.179063
 21
6.415125
 31
0.0
  0
LINE
  5
1C1
330
52F
100
AcDbEntity
  8
_0
  6
Continuous
 62
     7
370
    30
100
AcDbLine
 10
50.043073
 20
6.547583
 30
0.0
 11
50.180885
 21
6.409771
 31
0.0
  0
LINE
  5
1C2
330
52F
100
AcDbEntity
  8
_0
  6
Continuous
 62
     7
370
    30
100
AcDbLine
 10
50.043729
 20
6.543385
 30
0.0
 11
50.182865
 21
6.40425
 31
0.0
  0
LINE
  5
1C3
330
52F
100
AcDbEntity
  8
_0
  6
Continuous
 62
     7
370
    30
100
AcDbLine
 10
50.044385
 20
6.539198
 30
0.0
 11
50.184927
 21
6.398656
 31
0.0
  0
LINE
  5
1C4
330
52F
100
AcDbEntity
  8
_0
  6
Continuous
 62
     7
370
    30
100
AcDbLine
 10
50.045042
 20
6.535
 30
0.0
 11
50.187
 21
6.393052
 31
0.0
  0
LINE
  5
1C5
330
52F
100
AcDbEntity
  8
_0
  6
Continuous
 62
     7
370
    30
100
AcDbLine
 10
50.045729
 20
6.530781
 30
0.0
 11
50.189062
 21
6.387448
 31
0.0
  0
LINE
  5
1C6
330
52F
100
AcDbEntity
  8
_0
  6
Continuous
 62
     7
370
    30
100
AcDbLine
 10
50.046583
 20
6.526396
 30
0.0
 11
50.191135
 21
6.381844
 31
0.0
  0
LINE
  5
1C7
330
52F
100
AcDbEntity
  8
_0
  6
Continuous
 62
     7
370
    30
100
AcDbLine
 10
50.047438
 20
6.52201
 30
0.0
 11
50.193198
 21
6.37624
 31
0.0
  0
LINE
  5
1C8
330
52F
100
AcDbEntity
  8
_0
  6
Continuous
 62
     7
370
    30
100
AcDbLine
 10
50.467792
 20
6.101646
 30
0.0
 11
50.467865
 21
6.101573
 31
0.0
  0
LINE
  5
1C9
330
52F
100
AcDbEntity
  8
_0
  6
Continuous
 62
     7
370
    30
100
AcDbLine
 10
50.048281
 20
6.517625
 30
0.0
 11
50.195448
 21
6.370458
 31
0.0
  0
LINE
  5
1CA
330
52F
100
AcDbEntity
  8
_0
  6
Continuous
 62
     7
370
    30
100
AcDbLine
 10
50.465438
 20
6.100469
 30
0.0
 11
50.466719
 21
6.099188
 31
0.0
  0
LINE
  5
1CB
330
52F
100
AcDbEntity
  8
_0
  6
Continuous
 62
     7
370
    30
100
AcDbLine
 10
50.049135
 20
6.51324
 30
0.0
 11
50.19776
 21
6.364615
 31
0.0
  0
LINE
  5
1CC
330
52F
100
AcDbEntity
  8
_0
  6
Continuous
 62
     7
370
    30
100
AcDbLine
 10
50.463083
 20
6.099292
 30
0.0
 11
50.465562
 21
6.096802
 31
0.0
  0
LINE
  5
1CD
330
52F
100
AcDbEntity
  8
_0
  6
Continuous
 62
     7
370
    30
100
AcDbLine
 10
50.04999
 20
6.508844
 30
0.0
 11
50.200073
 21
6.35876
 31
0.0
  0
LINE
  5
1CE
330
52F
100
AcDbEntity
  8
_0
  6
Continuous
 62
     7
370
    30
100
AcDbLine
 10
50.460719
 20
6.098115
 30
0.0
 11
50.464406
 21
6.094427
 31
0.0
  0
LINE
  5
1CF
330
52F
100
AcDbEntity
  8
_0
  6
Continuous
 62
     7
370
    30
100
AcDbLine
 10
50.050833
 20
6.504458
 30
0.0
 11
50.202385
 21
6.352917
 31
0.0
  0
LINE
  5
1D0
330
52F
100
AcDbEntity
  8
_0
  6
Continuous
 62
     7
370
    30
100
AcDbLine
 10
50.458365
 20
6.096938
 30
0.0
 11
50.46326
 21
6.092042
 31
0.0
  0
LINE
  5
1D1
330
52F
100
AcDbEntity
  8
_0
  6
Continuous
 62
     7
370
    30
100
AcDbLine
 10
50.051687
 20
6.500073
 30
0.0
 11
50.204687
 21
6.347073
 31
0.0
  0
LINE
  5
1D2
330
52F
100
AcDbEntity
  8
_0
  6
Continuous
 62
     7
370
    30
100
AcDbLine
 10
50.45601
 20
6.09576
 30
0.0
 11
50.462104
 21
6.089656
 31
0.0
  0
LINE
  5
1D3
330
52F
100
AcDbEntity
  8
_0
  6
Continuous
 62
     7
370
    30
100
AcDbLine
 10
50.052542
 20
6.495687
 30
0.0
 11
50.207
 21
6.341229
 31
0.0
  0
LINE
  5
1D4
330
52F
100
AcDbEntity
  8
_0
  6
Continuous
 62
     7
370
    30
100
AcDbLine
 10
50.453646
 20
6.094573
 30
0.0
 11
50.460958
 21
6.087271
 31
0.0
  0
LINE
  5
1D5
330
52F
100
AcDbEntity
  8
_0
  6
Continuous
 62
     7
370
    30
100
AcDbLine
 10
50.053385
 20
6.491302
 30
0.0
 11
50.209521
 21
6.335177
 31
0.0
  0
LINE
  5
1D6
330
52F
100
AcDbEntity
  8
_0
  6
Continuous
 62
     7
370
    30
100
AcDbLine
 10
50.451292
 20
6.093396
 30
0.0
 11
50.459802
 21
6.084885
 31
0.0
  0
LINE
  5
1D7
330
52F
100
AcDbEntity
  8
_0
  6
Continuous
 62
     7
370
    30
100
AcDbLine
 10
50.05424
 20
6.486917
 30
0.0
 11
50.212063
 21
6.329094
 31
0.0
  0
LINE
  5
1D8
330
52F
100
AcDbEntity
  8
_0
  6
Continuous
 62
     7
370
    30
100
AcDbLine
 10
50.448937
 20
6.092219
 30
0.0
 11
50.458646
 21
6.08251
 31
0.0
  0
LINE
  5
1D9
330
52F
100
AcDbEntity
  8
_0
  6
Continuous
 62
     7
370
    30
100
AcDbLine
 10
50.055094
 20
6.482531
 30
0.0
 11
50.214615
 21
6.32301
 31
0.0
  0
LINE
  5
1DA
330
52F
100
AcDbEntity
  8
_0
  6
Continuous
 62
     7
370
    30
100
AcDbLine
 10
50.446583
 20
6.091042
 30
0.0
 11
50.4575
 21
6.080125
 31
0.0
  0
LINE
  5
1DB
330
52F
100
AcDbEntity
  8
_0
  6
Continuous
 62
     7
370
    30
100
AcDbLine
 10
50.056
 20
6.478083
 30
0.0
 11
50.217167
 21
6.316917
 31
0.0
  0
LINE
  5
1DC
330
52F
100
AcDbEntity
  8
_0
  6
Continuous
 62
     7
370
    30
100
AcDbLine
 10
50.444219
 20
6.089865
 30
0.0
 11
50.456344
 21
6.07774
 31
0.0
  0
LINE
  5
1DD
330
52F
100
AcDbEntity
  8
_0
  6
Continuous
 62
     7
370
    30
100
AcDbLine
 10
50.057063
 20
6.47349
 30
0.0
 11
50.219708
 21
6.310833
 31
0.0
  0
LINE
  5
1DE
330
52F
100
AcDbEntity
  8
_0
  6
Continuous
 62
     7
370
    30
100
AcDbLine
 10
50.441865
 20
6.088687
 30
0.0
 11
50.455198
 21
6.075354
 31
0.0
  0
LINE
  5
1DF
330
52F
100
AcDbEntity
  8
_0
  6
Continuous
 62
     7
370
    30
100
AcDbLine
 10
50.058115
 20
6.468896
 30
0.0
 11
50.22226
 21
6.30475
 31
0.0
  0
LINE
  5
1E0
330
52F
100
AcDbEntity
  8
_0
  6
Continuous
 62
     7
370
    30
100
AcDbLine
 10
50.43951
 20
6.08751
 30
0.0
 11
50.454052
 21
6.072969
 31
0.0
  0
LINE
  5
1E1
330
52F
100
AcDbEntity
  8
_0
  6
Continuous
 62
     7
370
    30
100
AcDbLine
 10
50.059167
 20
6.464313
 30
0.0
 11
50.225062
 21
6.298417
 31
0.0
  0
LINE
  5
1E2
330
52F
100
AcDbEntity
  8
_0
  6
Continuous
 62
     7
370
    30
100
AcDbLine
 10
50.437146
 20
6.086323
 30
0.0
 11
50.452958
 21
6.070521
 31
0.0
  0
LINE
  5
1E3
330
52F
100
AcDbEntity
  8
_0
  6
Continuous
 62
     7
370
    30
100
AcDbLine
 10
50.060219
 20
6.459719
 30
0.0
 11
50.227865
 21
6.292073
 31
0.0
  0
LINE
  5
1E4
330
52F
100
AcDbEntity
  8
_0
  6
Continuous
 62
     7
370
    30
100
AcDbLine
 10
50.434792
 20
6.085146
 30
0.0
 11
50.451875
 21
6.068073
 31
0.0
  0
LINE
  5
1E5
330
52F
100
AcDbEntity
  8
_0
  6
Continuous
 62
     7
370
    30
100
AcDbLine
 10
50.061281
 20
6.455125
 30
0.0
 11
50.230677
 21
6.285729
 31
0.0
  0
LINE
  5
1E6
330
52F
100
AcDbEntity
  8
_0
  6
Continuous
 62
     7
370
    30
100
AcDbLine
 10
50.432437
 20
6.083969
 30
0.0
 11
50.450792
 21
6.065625
 31
0.0
  0
LINE
  5
1E7
330
52F
100
AcDbEntity
  8
_0
  6
Continuous
 62
     7
370
    30
100
AcDbLine
 10
50.062333
 20
6.450542
 30
0.0
 11
50.23349
 21
6.279385
 31
0.0
  0
LINE
  5
1E8
330
52F
100
AcDbEntity
  8
_0
  6
Continuous
 62
     7
370
    30
100
AcDbLine
 10
50.430083
 20
6.082792
 30
0.0
 11
50.449698
 21
6.063167
 31
0.0
  0
LINE
  5
1E9
330
52F
100
AcDbEntity
  8
_0
  6
Continuous
 62
     7
370
    30
100
AcDbLine
 10
50.063385
 20
6.445948
 30
0.0
 11
50.236302
 21
6.273042
 31
0.0
  0
LINE
  5
1EA
330
52F
100
AcDbEntity
  8
_0
  6
Continuous
 62
     7
370
    30
100
AcDbLine
 10
50.427719
 20
6.081615
 30
0.0
 11
50.448615
 21
6.060719
 31
0.0
  0
LINE
  5
1EB
330
52F
100
AcDbEntity
  8
_0
  6
Continuous
 62
     7
370
    30
100
AcDbLine
 10
50.064448
 20
6.441354
 30
0.0
 11
50.239146
 21
6.266656
 31
0.0
  0
LINE
  5
1EC
330
52F
100
AcDbEntity
  8
_0
  6
Continuous
 62
     7
370
    30
100
AcDbLine
 10
50.425365
 20
6.080437
 30
0.0
 11
50.447531
 21
6.058271
 31
0.0
  0
LINE
  5
1ED
330
52F
100
AcDbEntity
  8
_0
  6
Continuous
 62
     7
370
    30
100
AcDbLine
 10
50.0655
 20
6.436771
 30
0.0
 11
50.24226
 21
6.26
 31
0.0
  0
LINE
  5
1EE
330
52F
100
AcDbEntity
  8
_0
  6
Continuous
 62
     7
370
    30
100
AcDbLine
 10
50.42301
 20
6.07926
 30
0.0
 11
50.446438
 21
6.055823
 31
0.0
  0
LINE
  5
1EF
330
52F
100
AcDbEntity
  8
_0
  6
Continuous
 62
     7
370
    30
100
AcDbLine
 10
50.066552
 20
6.432177
 30
0.0
 11
50.245375
 21
6.253354
 31
0.0
  0
LINE
  5
1F0
330
52F
100
AcDbEntity
  8
_0
  6
Continuous
 62
     7
370
    30
100
AcDbLine
 10
50.420656
 20
6.078073
 30
0.0
 11
50.445354
 21
6.053375
 31
0.0
  0
LINE
  5
1F1
330
52F
100
AcDbEntity
  8
_0
  6
Continuous
 62
     7
370
    30
100
AcDbLine
 10
50.067604
 20
6.427583
 30
0.0
 11
50.24849
 21
6.246698
 31
0.0
  0
LINE
  5
1F2
330
52F
100
AcDbEntity
  8
_0
  6
Continuous
 62
     7
370
    30
100
AcDbLine
 10
50.418292
 20
6.076896
 30
0.0
 11
50.444271
 21
6.050927
 31
0.0
  0
LINE
  5
1F3
330
52F
100
AcDbEntity
  8
_0
  6
Continuous
 62
     7
370
    30
100
AcDbLine
 10
50.068792
 20
6.422865
 30
0.0
 11
50.251604
 21
6.240052
 31
0.0
  0
LINE
  5
1F4
330
52F
100
AcDbEntity
  8
_0
  6
Continuous
 62
     7
370
    30
100
AcDbLine
 10
50.415937
 20
6.075719
 30
0.0
 11
50.443177
 21
6.048479
 31
0.0
  0
LINE
  5
1F5
330
52F
100
AcDbEntity
  8
_0
  6
Continuous
 62
     7
370
    30
100
AcDbLine
 10
50.070062
 20
6.418062
 30
0.0
 11
50.254719
 21
6.233396
 31
0.0
  0
LINE
  5
1F6
330
52F
100
AcDbEntity
  8
_0
  6
Continuous
 62
     7
370
    30
100
AcDbLine
 10
50.413583
 20
6.074542
 30
0.0
 11
50.442167
 21
6.045958
 31
0.0
  0
LINE
  5
1F7
330
52F
100
AcDbEntity
  8
_0
  6
Continuous
 62
     7
370
    30
100
AcDbLine
 10
50.071333
 20
6.41326
 30
0.0
 11
50.25801
 21
6.226583
 31
0.0
  0
LINE
  5
1F8
330
52F
100
AcDbEntity
  8
_0
  6
Continuous
 62
     7
370
    30
100
AcDbLine
 10
50.411219
 20
6.073365
 30
0.0
 11
50.441167
 21
6.043427
 31
0.0
  0
LINE
  5
1F9
330
52F
100
AcDbEntity
  8
_0
  6
Continuous
 62
     7
370
    30
100
AcDbLine
 10
50.072594
 20
6.408458
 30
0.0
 11
50.26149
 21
6.219562
 31
0.0
  0
LINE
  5
1FA
330
52F
100
AcDbEntity
  8
_0
  6
Continuous
 62
     7
370
    30
100
AcDbLine
 10
50.408865
 20
6.072188
 30
0.0
 11
50.440167
 21
6.040885
 31
0.0
  0
LINE
  5
1FB
330
52F
100
AcDbEntity
  8
_0
  6
Continuous
 62
     7
370
    30
100
AcDbLine
 10
50.073865
 20
6.403656
 30
0.0
 11
50.264979
 21
6.212531
 31
0.0
  0
LINE
  5
1FC
330
52F
100
AcDbEntity
  8
_0
  6
Continuous
 62
     7
370
    30
100
AcDbLine
 10
50.40651
 20
6.07101
 30
0.0
 11
50.439167
 21
6.038354
 31
0.0
  0
LINE
  5
1FD
330
52F
100
AcDbEntity
  8
_0
  6
Continuous
 62
     7
370
    30
100
AcDbLine
 10
50.075135
 20
6.398844
 30
0.0
 11
50.268469
 21
6.20551
 31
0.0
  0
LINE
  5
1FE
330
52F
100
AcDbEntity
  8
_0
  6
Continuous
 62
     7
370
    30
100
AcDbLine
 10
50.404156
 20
6.069833
 30
0.0
 11
50.438156
 21
6.035823
 31
0.0
  0
LINE
  5
1FF
330
52F
100
AcDbEntity
  8
_0
  6
Continuous
 62
     7
370
    30
100
AcDbLine
 10
50.076396
 20
6.394042
 30
0.0
 11
50.271958
 21
6.19849
 31
0.0
  0
LINE
  5
200
330
52F
100
AcDbEntity
  8
_0
  6
Continuous
 62
     7
370
    30
100
AcDbLine
 10
50.401792
 20
6.068646
 30
0.0
 11
50.437156
 21
6.033281
 31
0.0
  0
LINE
  5
201
330
52F
100
AcDbEntity
  8
_0
  6
Continuous
 62
     7
370
    30
100
AcDbLine
 10
50.077667
 20
6.38924
 30
0.0
 11
50.275469
 21
6.191438
 31
0.0
  0
LINE
  5
202
330
52F
100
AcDbEntity
  8
_0
  6
Continuous
 62
     7
370
    30
100
AcDbLine
 10
50.399437
 20
6.067469
 30
0.0
 11
50.436156
 21
6.03075
 31
0.0
  0
LINE
  5
203
330
52F
100
AcDbEntity
  8
_0
  6
Continuous
 62
     7
370
    30
100
AcDbLine
 10
50.078937
 20
6.384437
 30
0.0
 11
50.279427
 21
6.183948
 31
0.0
  0
LINE
  5
204
330
52F
100
AcDbEntity
  8
_0
  6
Continuous
 62
     7
370
    30
100
AcDbLine
 10
50.397083
 20
6.066292
 30
0.0
 11
50.435156
 21
6.028219
 31
0.0
  0
LINE
  5
205
330
52F
100
AcDbEntity
  8
_0
  6
Continuous
 62
     7
370
    30
100
AcDbLine
 10
50.080198
 20
6.379635
 30
0.0
 11
50.283396
 21
6.176448
 31
0.0
  0
LINE
  5
206
330
52F
100
AcDbEntity
  8
_0
  6
Continuous
 62
     7
370
    30
100
AcDbLine
 10
50.394729
 20
6.065115
 30
0.0
 11
50.434156
 21
6.025677
 31
0.0
  0
LINE
  5
207
330
52F
100
AcDbEntity
  8
_0
  6
Continuous
 62
     7
370
    30
100
AcDbLine
 10
50.081469
 20
6.374833
 30
0.0
 11
50.287354
 21
6.168948
 31
0.0
  0
LINE
  5
208
330
52F
100
AcDbEntity
  8
_0
  6
Continuous
 62
     7
370
    30
100
AcDbLine
 10
50.392365
 20
6.063937
 30
0.0
 11
50.43326
 21
6.023042
 31
0.0
  0
LINE
  5
209
330
52F
100
AcDbEntity
  8
_0
  6
Continuous
 62
     7
370
    30
100
AcDbLine
 10
50.08276
 20
6.37001
 30
0.0
 11
50.291312
 21
6.161458
 31
0.0
  0
LINE
  5
20A
330
52F
100
AcDbEntity
  8
_0
  6
Continuous
 62
     7
370
    30
100
AcDbLine
 10
50.39001
 20
6.06276
 30
0.0
 11
50.432375
 21
6.020396
 31
0.0
  0
LINE
  5
20B
330
52F
100
AcDbEntity
  8
_0
  6
Continuous
 62
     7
370
    30
100
AcDbLine
 10
50.08425
 20
6.364979
 30
0.0
 11
50.295292
 21
6.153937
 31
0.0
  0
LINE
  5
20C
330
52F
100
AcDbEntity
  8
_0
  6
Continuous
 62
     7
370
    30
100
AcDbLine
 10
50.387656
 20
6.061583
 30
0.0
 11
50.431479
 21
6.01775
 31
0.0
  0
LINE
  5
20D
330
52F
100
AcDbEntity
  8
_0
  6
Continuous
 62
     7
370
    30
100
AcDbLine
 10
50.08574
 20
6.359958
 30
0.0
 11
50.299885
 21
6.145812
 31
0.0
  0
LINE
  5
20E
330
52F
100
AcDbEntity
  8
_0
  6
Continuous
 62
     7
370
    30
100
AcDbLine
 10
50.385292
 20
6.060396
 30
0.0
 11
50.430594
 21
6.015104
 31
0.0
  0
LINE
  5
20F
330
52F
100
AcDbEntity
  8
_0
  6
Continuous
 62
     7
370
    30
100
AcDbLine
 10
50.087229
 20
6.354938
 30
0.0
 11
50.304479
 21
6.137677
 31
0.0
  0
LINE
  5
210
330
52F
100
AcDbEntity
  8
_0
  6
Continuous
 62
     7
370
    30
100
AcDbLine
 10
50.382937
 20
6.059219
 30
0.0
 11
50.429708
 21
6.012458
 31
0.0
  0
LINE
  5
211
330
52F
100
AcDbEntity
  8
_0
  6
Continuous
 62
     7
370
    30
100
AcDbLine
 10
50.088719
 20
6.349906
 30
0.0
 11
50.309083
 21
6.129542
 31
0.0
  0
LINE
  5
212
330
52F
100
AcDbEntity
  8
_0
  6
Continuous
 62
     7
370
    30
100
AcDbLine
 10
50.380583
 20
6.058042
 30
0.0
 11
50.428812
 21
6.009812
 31
0.0
  0
LINE
  5
213
330
52F
100
AcDbEntity
  8
_0
  6
Continuous
 62
     7
370
    30
100
AcDbLine
 10
50.090208
 20
6.344885
 30
0.0
 11
50.313677
 21
6.121417
 31
0.0
  0
LINE
  5
214
330
52F
100
AcDbEntity
  8
_0
  6
Continuous
 62
     7
370
    30
100
AcDbLine
 10
50.378229
 20
6.056865
 30
0.0
 11
50.427927
 21
6.007167
 31
0.0
  0
LINE
  5
215
330
52F
100
AcDbEntity
  8
_0
  6
Continuous
 62
     7
370
    30
100
AcDbLine
 10
50.091698
 20
6.339854
 30
0.0
 11
50.318719
 21
6.112833
 31
0.0
  0
LINE
  5
216
330
52F
100
AcDbEntity
  8
_0
  6
Continuous
 62
     7
370
    30
100
AcDbLine
 10
50.375865
 20
6.055687
 30
0.0
 11
50.427073
 21
6.004479
 31
0.0
  0
LINE
  5
217
330
52F
100
AcDbEntity
  8
_0
  6
Continuous
 62
     7
370
    30
100
AcDbLine
 10
50.093187
 20
6.334833
 30
0.0
 11
50.324219
 21
6.103802
 31
0.0
  0
LINE
  5
218
330
52F
100
AcDbEntity
  8
_0
  6
Continuous
 62
     7
370
    30
100
AcDbLine
 10
50.37351
 20
6.05451
 30
0.0
 11
50.426323
 21
6.001688
 31
0.0
  0
LINE
  5
219
330
52F
100
AcDbEntity
  8
_0
  6
Continuous
 62
     7
370
    30
100
AcDbLine
 10
50.094677
 20
6.329802
 30
0.0
 11
50.329719
 21
6.094771
 31
0.0
  0
LINE
  5
21A
330
52F
100
AcDbEntity
  8
_0
  6
Continuous
 62
     7
370
    30
100
AcDbLine
 10
50.371156
 20
6.053333
 30
0.0
 11
50.425573
 21
5.998906
 31
0.0
  0
LINE
  5
21B
330
52F
100
AcDbEntity
  8
_0
  6
Continuous
 62
     7
370
    30
100
AcDbLine
 10
50.096167
 20
6.324781
 30
0.0
 11
50.335219
 21
6.085729
 31
0.0
  0
LINE
  5
21C
330
52F
100
AcDbEntity
  8
_0
  6
Continuous
 62
     7
370
    30
100
AcDbLine
 10
50.368792
 20
6.052156
 30
0.0
 11
50.424823
 21
5.996125
 31
0.0
  0
LINE
  5
21D
330
52F
100
AcDbEntity
  8
_0
  6
Continuous
 62
     7
370
    30
100
AcDbLine
 10
50.097656
 20
6.31975
 30
0.0
 11
50.34149
 21
6.075917
 31
0.0
  0
LINE
  5
21E
330
52F
100
AcDbEntity
  8
_0
  6
Continuous
 62
     7
370
    30
100
AcDbLine
 10
50.366437
 20
6.050969
 30
0.0
 11
50.424073
 21
5.993333
 31
0.0
  0
LINE
  5
21F
330
52F
100
AcDbEntity
  8
_0
  6
Continuous
 62
     7
370
    30
100
AcDbLine
 10
50.099146
 20
6.314729
 30
0.0
 11
50.348406
 21
6.065479
 31
0.0
  0
LINE
  5
220
330
52F
100
AcDbEntity
  8
_0
  6
Continuous
 62
     7
370
    30
100
AcDbLine
 10
50.364083
 20
6.049792
 30
0.0
 11
50.423323
 21
5.990552
 31
0.0
  0
LINE
  5
221
330
52F
100
AcDbEntity
  8
_0
  6
Continuous
 62
     7
370
    30
100
AcDbLine
 10
50.100854
 20
6.30949
 30
0.0
 11
50.355312
 21
6.055031
 31
0.0
  0
LINE
  5
222
330
52F
100
AcDbEntity
  8
_0
  6
Continuous
 62
     7
370
    30
100
AcDbLine
 10
50.361729
 20
6.048615
 30
0.0
 11
50.422573
 21
5.987771
 31
0.0
  0
LINE
  5
223
330
52F
100
AcDbEntity
  8
_0
  6
Continuous
 62
     7
370
    30
100
AcDbLine
 10
50.102583
 20
6.304219
 30
0.0
 11
50.421927
 21
5.984875
 31
0.0
  0
LINE
  5
224
330
52F
100
AcDbEntity
  8
_0
  6
Continuous
 62
     7
370
    30
100
AcDbLine
 10
50.104323
 20
6.298948
 30
0.0
 11
50.421344
 21
5.981927
 31
0.0
  0
LINE
  5
225
330
52F
100
AcDbEntity
  8
_0
  6
Continuous
 62
     7
370
    30
100
AcDbLine
 10
50.106052
 20
6.293677
 30
0.0
 11
50.42076
 21
5.978969
 31
0.0
  0
LINE
  5
226
330
52F
100
AcDbEntity
  8
_0
  6
Continuous
 62
     7
370
    30
100
AcDbLine
 10
50.107792
 20
6.288417
 30
0.0
 11
50.420177
 21
5.976021
 31
0.0
  0
LINE
  5
227
330
52F
100
AcDbEntity
  8
_0
  6
Continuous
 62
     7
370
    30
100
AcDbLine
 10
50.109521
 20
6.283146
 30
0.0
 11
50.419594
 21
5.973073
 31
0.0
  0
LINE
  5
228
330
52F
100
AcDbEntity
  8
_0
  6
Continuous
 62
     7
370
    30
100
AcDbLine
 10
50.11125
 20
6.277875
 30
0.0
 11
50.41901
 21
5.970115
 31
0.0
  0
LINE
  5
229
330
52F
100
AcDbEntity
  8
_0
  6
Continuous
 62
     7
370
    30
100
AcDbLine
 10
50.11299
 20
6.272604
 30
0.0
 11
50.418573
 21
5.967021
 31
0.0
  0
LINE
  5
22A
330
52F
100
AcDbEntity
  8
_0
  6
Continuous
 62
     7
370
    30
100
AcDbLine
 10
50.114719
 20
6.267333
 30
0.0
 11
50.418167
 21
5.963885
 31
0.0
  0
LINE
  5
22B
330
52F
100
AcDbEntity
  8
_0
  6
Continuous
 62
     7
370
    30
100
AcDbLine
 10
50.116458
 20
6.262062
 30
0.0
 11
50.417771
 21
5.96075
 31
0.0
  0
LINE
  5
22C
330
52F
100
AcDbEntity
  8
_0
  6
Continuous
 62
     7
370
    30
100
AcDbLine
 10
50.118229
 20
6.25676
 30
0.0
 11
50.417365
 21
5.957615
 31
0.0
  0
LINE
  5
22D
330
52F
100
AcDbEntity
  8
_0
  6
Continuous
 62
     7
370
    30
100
AcDbLine
 10
50.12024
 20
6.251208
 30
0.0
 11
50.416969
 21
5.954479
 31
0.0
  0
LINE
  5
22E
330
52F
100
AcDbEntity
  8
_0
  6
Continuous
 62
     7
370
    30
100
AcDbLine
 10
50.12225
 20
6.245656
 30
0.0
 11
50.416656
 21
5.95125
 31
0.0
  0
LINE
  5
22F
330
52F
100
AcDbEntity
  8
_0
  6
Continuous
 62
     7
370
    30
100
AcDbLine
 10
50.124271
 20
6.240115
 30
0.0
 11
50.416448
 21
5.947938
 31
0.0
  0
LINE
  5
230
330
52F
100
AcDbEntity
  8
_0
  6
Continuous
 62
     7
370
    30
100
AcDbLine
 10
50.126281
 20
6.234563
 30
0.0
 11
50.416229
 21
5.944615
 31
0.0
  0
LINE
  5
231
330
52F
100
AcDbEntity
  8
_0
  6
Continuous
 62
     7
370
    30
100
AcDbLine
 10
50.128292
 20
6.229021
 30
0.0
 11
50.41601
 21
5.941302
 31
0.0
  0
LINE
  5
232
330
52F
100
AcDbEntity
  8
_0
  6
Continuous
 62
     7
370
    30
100
AcDbLine
 10
50.130302
 20
6.223469
 30
0.0
 11
50.415792
 21
5.937979
 31
0.0
  0
LINE
  5
233
330
52F
100
AcDbEntity
  8
_0
  6
Continuous
 62
     7
370
    30
100
AcDbLine
 10
50.132323
 20
6.217917
 30
0.0
 11
50.415677
 21
5.934563
 31
0.0
  0
LINE
  5
234
330
52F
100
AcDbEntity
  8
_0
  6
Continuous
 62
     7
370
    30
100
AcDbLine
 10
50.134333
 20
6.212375
 30
0.0
 11
50.415625
 21
5.931073
 31
0.0
  0
LINE
  5
235
330
52F
100
AcDbEntity
  8
_0
  6
Continuous
 62
     7
370
    30
100
AcDbLine
 10
50.136344
 20
6.206823
 30
0.0
 11
50.415573
 21
5.927583
 31
0.0
  0
LINE
  5
236
330
52F
100
AcDbEntity
  8
_0
  6
Continuous
 62
     7
370
    30
100
AcDbLine
 10
50.138375
 20
6.20125
 30
0.0
 11
50.415531
 21
5.924104
 31
0.0
  0
LINE
  5
237
330
52F
100
AcDbEntity
  8
_0
  6
Continuous
 62
     7
370
    30
100
AcDbLine
 10
50.140729
 20
6.195365
 30
0.0
 11
50.415479
 21
5.920615
 31
0.0
  0
LINE
  5
238
330
52F
100
AcDbEntity
  8
_0
  6
Continuous
 62
     7
370
    30
100
AcDbLine
 10
50.143083
 20
6.189479
 30
0.0
 11
50.415583
 21
5.916979
 31
0.0
  0
LINE
  5
239
330
52F
100
AcDbEntity
  8
_0
  6
Continuous
 62
     7
370
    30
100
AcDbLine
 10
50.145437
 20
6.183583
 30
0.0
 11
50.415719
 21
5.913312
 31
0.0
  0
LINE
  5
23A
330
52F
100
AcDbEntity
  8
_0
  6
Continuous
 62
     7
370
    30
100
AcDbLine
 10
50.147792
 20
6.177698
 30
0.0
 11
50.415844
 21
5.909635
 31
0.0
  0
LINE
  5
23B
330
52F
100
AcDbEntity
  8
_0
  6
Continuous
 62
     7
370
    30
100
AcDbLine
 10
50.150135
 20
6.171812
 30
0.0
 11
50.415979
 21
5.905969
 31
0.0
  0
LINE
  5
23C
330
52F
100
AcDbEntity
  8
_0
  6
Continuous
 62
     7
370
    30
100
AcDbLine
 10
50.15249
 20
6.165927
 30
0.0
 11
50.416146
 21
5.902271
 31
0.0
  0
LINE
  5
23D
330
52F
100
AcDbEntity
  8
_0
  6
Continuous
 62
     7
370
    30
100
AcDbLine
 10
50.154844
 20
6.160042
 30
0.0
 11
50.416479
 21
5.898406
 31
0.0
  0
LINE
  5
23E
330
52F
100
AcDbEntity
  8
_0
  6
Continuous
 62
     7
370
    30
100
AcDbLine
 10
50.157198
 20
6.154146
 30
0.0
 11
50.416812
 21
5.894542
 31
0.0
  0
LINE
  5
23F
330
52F
100
AcDbEntity
  8
_0
  6
Continuous
 62
     7
370
    30
100
AcDbLine
 10
50.159552
 20
6.14826
 30
0.0
 11
50.417135
 21
5.890667
 31
0.0
  0
LINE
  5
240
330
52F
100
AcDbEntity
  8
_0
  6
Continuous
 62
     7
370
    30
100
AcDbLine
 10
50.16226
 20
6.142021
 30
0.0
 11
50.417469
 21
5.886802
 31
0.0
  0
LINE
  5
241
330
52F
100
AcDbEntity
  8
_0
  6
Continuous
 62
     7
370
    30
100
AcDbLine
 10
50.165042
 20
6.135698
 30
0.0
 11
50.417917
 21
5.882823
 31
0.0
  0
LINE
  5
242
330
52F
100
AcDbEntity
  8
_0
  6
Continuous
 62
     7
370
    30
100
AcDbLine
 10
50.167833
 20
6.129365
 30
0.0
 11
50.418458
 21
5.87875
 31
0.0
  0
LINE
  5
243
330
52F
100
AcDbEntity
  8
_0
  6
Continuous
 62
     7
370
    30
100
AcDbLine
 10
50.170625
 20
6.123042
 30
0.0
 11
50.419
 21
5.874667
 31
0.0
  0
LINE
  5
244
330
52F
100
AcDbEntity
  8
_0
  6
Continuous
 62
     7
370
    30
100
AcDbLine
 10
50.173417
 20
6.116719
 30
0.0
 11
50.419542
 21
5.870583
 31
0.0
  0
LINE
  5
245
330
52F
100
AcDbEntity
  8
_0
  6
Continuous
 62
     7
370
    30
100
AcDbLine
 10
50.176208
 20
6.110396
 30
0.0
 11
50.420083
 21
5.86651
 31
0.0
  0
LINE
  5
246
330
52F
100
AcDbEntity
  8
_0
  6
Continuous
 62
     7
370
    30
100
AcDbLine
 10
50.179
 20
6.104062
 30
0.0
 11
50.420833
 21
5.862229
 31
0.0
  0
LINE
  5
247
330
52F
100
AcDbEntity
  8
_0
  6
Continuous
 62
     7
370
    30
100
AcDbLine
 10
50.181792
 20
6.09774
 30
0.0
 11
50.421604
 21
5.857927
 31
0.0
  0
LINE
  5
248
330
52F
100
AcDbEntity
  8
_0
  6
Continuous
 62
     7
370
    30
100
AcDbLine
 10
50.184917
 20
6.091073
 30
0.0
 11
50.422365
 21
5.853625
 31
0.0
  0
LINE
  5
249
330
52F
100
AcDbEntity
  8
_0
  6
Continuous
 62
     7
370
    30
100
AcDbLine
 10
50.188323
 20
6.084135
 30
0.0
 11
50.423125
 21
5.849333
 31
0.0
  0
LINE
  5
24A
330
52F
100
AcDbEntity
  8
_0
  6
Continuous
 62
     7
370
    30
100
AcDbLine
 10
50.191719
 20
6.077198
 30
0.0
 11
50.423958
 21
5.844958
 31
0.0
  0
LINE
  5
24B
330
52F
100
AcDbEntity
  8
_0
  6
Continuous
 62
     7
370
    30
100
AcDbLine
 10
50.195125
 20
6.07026
 30
0.0
 11
50.424948
 21
5.840438
 31
0.0
  0
LINE
  5
24C
330
52F
100
AcDbEntity
  8
_0
  6
Continuous
 62
     7
370
    30
100
AcDbLine
 10
50.198521
 20
6.063323
 30
0.0
 11
50.425927
 21
5.835917
 31
0.0
  0
LINE
  5
24D
330
52F
100
AcDbEntity
  8
_0
  6
Continuous
 62
     7
370
    30
100
AcDbLine
 10
50.201927
 20
6.056385
 30
0.0
 11
50.426917
 21
5.831396
 31
0.0
  0
LINE
  5
24E
330
52F
100
AcDbEntity
  8
_0
  6
Continuous
 62
     7
370
    30
100
AcDbLine
 10
50.205323
 20
6.049458
 30
0.0
 11
50.427896
 21
5.826875
 31
0.0
  0
LINE
  5
24F
330
52F
100
AcDbEntity
  8
_0
  6
Continuous
 62
     7
370
    30
100
AcDbLine
 10
50.209177
 20
6.042063
 30
0.0
 11
50.429021
 21
5.822219
 31
0.0
  0
LINE
  5
250
330
52F
100
AcDbEntity
  8
_0
  6
Continuous
 62
     7
370
    30
100
AcDbLine
 10
50.213521
 20
6.034187
 30
0.0
 11
50.430229
 21
5.817479
 31
0.0
  0
LINE
  5
251
330
52F
100
AcDbEntity
  8
_0
  6
Continuous
 62
     7
370
    30
100
AcDbLine
 10
50.217865
 20
6.026302
 30
0.0
 11
50.431427
 21
5.81274
 31
0.0
  0
LINE
  5
252
330
52F
100
AcDbEntity
  8
_0
  6
Continuous
 62
     7
370
    30
100
AcDbLine
 10
50.222219
 20
6.018417
 30
0.0
 11
50.432635
 21
5.808
 31
0.0
  0
LINE
  5
253
330
52F
100
AcDbEntity
  8
_0
  6
Continuous
 62
     7
370
    30
100
AcDbLine
 10
50.226562
 20
6.010542
 30
0.0
 11
50.433833
 21
5.80326
 31
0.0
  0
LINE
  5
254
330
52F
100
AcDbEntity
  8
_0
  6
Continuous
 62
     7
370
    30
100
AcDbLine
 10
50.230906
 20
6.002656
 30
0.0
 11
50.435219
 21
5.798344
 31
0.0
  0
LINE
  5
255
330
52F
100
AcDbEntity
  8
_0
  6
Continuous
 62
     7
370
    30
100
AcDbLine
 10
50.230312
 20
5.999708
 30
0.0
 11
50.436635
 21
5.793396
 31
0.0
  0
LINE
  5
256
330
52F
100
AcDbEntity
  8
_0
  6
Continuous
 62
     7
370
    30
100
AcDbLine
 10
50.228
 20
5.99849
 30
0.0
 11
50.438052
 21
5.788448
 31
0.0
  0
LINE
  5
257
330
52F
100
AcDbEntity
  8
_0
  6
Continuous
 62
     7
370
    30
100
AcDbLine
 10
50.225698
 20
5.99726
 30
0.0
 11
50.439469
 21
5.78349
 31
0.0
  0
LINE
  5
258
330
52F
100
AcDbEntity
  8
_0
  6
Continuous
 62
     7
370
    30
100
AcDbLine
 10
50.223385
 20
5.996042
 30
0.0
 11
50.440875
 21
5.778542
 31
0.0
  0
LINE
  5
259
330
52F
100
AcDbEntity
  8
_0
  6
Continuous
 62
     7
370
    30
100
AcDbLine
 10
50.221073
 20
5.994813
 30
0.0
 11
50.382635
 21
5.83325
 31
0.0
  0
LINE
  5
25A
330
52F
100
AcDbEntity
  8
_0
  6
Continuous
 62
     7
370
    30
100
AcDbLine
 10
50.21876
 20
5.993594
 30
0.0
 11
50.36076
 21
5.851594
 31
0.0
  0
LINE
  5
25B
330
52F
100
AcDbEntity
  8
_0
  6
Continuous
 62
     7
370
    30
100
AcDbLine
 10
50.216448
 20
5.992375
 30
0.0
 11
50.345573
 21
5.86324
 31
0.0
  0
LINE
  5
25C
330
52F
100
AcDbEntity
  8
_0
  6
Continuous
 62
     7
370
    30
100
AcDbLine
 10
50.214135
 20
5.991146
 30
0.0
 11
50.332937
 21
5.872344
 31
0.0
  0
LINE
  5
25D
330
52F
100
AcDbEntity
  8
_0
  6
Continuous
 62
     7
370
    30
100
AcDbLine
 10
50.211823
 20
5.989927
 30
0.0
 11
50.323156
 21
5.878594
 31
0.0
  0
LINE
  5
25E
330
52F
100
AcDbEntity
  8
_0
  6
Continuous
 62
     7
370
    30
100
AcDbLine
 10
50.20951
 20
5.988698
 30
0.0
 11
50.314219
 21
5.88399
 31
0.0
  0
LINE
  5
25F
330
52F
100
AcDbEntity
  8
_0
  6
Continuous
 62
     7
370
    30
100
AcDbLine
 10
50.207198
 20
5.987479
 30
0.0
 11
50.306594
 21
5.888083
 31
0.0
  0
LINE
  5
260
330
52F
100
AcDbEntity
  8
_0
  6
Continuous
 62
     7
370
    30
100
AcDbLine
 10
50.204885
 20
5.98625
 30
0.0
 11
50.299323
 21
5.891812
 31
0.0
  0
LINE
  5
261
330
52F
100
AcDbEntity
  8
_0
  6
Continuous
 62
     7
370
    30
100
AcDbLine
 10
50.202573
 20
5.985031
 30
0.0
 11
50.292948
 21
5.894656
 31
0.0
  0
LINE
  5
262
330
52F
100
AcDbEntity
  8
_0
  6
Continuous
 62
     7
370
    30
100
AcDbLine
 10
50.20026
 20
5.983802
 30
0.0
 11
50.286573
 21
5.89749
 31
0.0
  0
LINE
  5
263
330
52F
100
AcDbEntity
  8
_0
  6
Continuous
 62
     7
370
    30
100
AcDbLine
 10
50.197948
 20
5.982583
 30
0.0
 11
50.280844
 21
5.899687
 31
0.0
  0
LINE
  5
264
330
52F
100
AcDbEntity
  8
_0
  6
Continuous
 62
     7
370
    30
100
AcDbLine
 10
50.195635
 20
5.981354
 30
0.0
 11
50.275115
 21
5.901875
 31
0.0
  0
LINE
  5
265
330
52F
100
AcDbEntity
  8
_0
  6
Continuous
 62
     7
370
    30
100
AcDbLine
 10
50.193333
 20
5.980135
 30
0.0
 11
50.269542
 21
5.903917
 31
0.0
  0
LINE
  5
266
330
52F
100
AcDbEntity
  8
_0
  6
Continuous
 62
     7
370
    30
100
AcDbLine
 10
50.191021
 20
5.978906
 30
0.0
 11
50.264094
 21
5.905833
 31
0.0
  0
LINE
  5
267
330
52F
100
AcDbEntity
  8
_0
  6
Continuous
 62
     7
370
    30
100
AcDbLine
 10
50.188708
 20
5.977688
 30
0.0
 11
50.258646
 21
5.90774
 31
0.0
  0
LINE
  5
268
330
52F
100
AcDbEntity
  8
_0
  6
Continuous
 62
     7
370
    30
100
AcDbLine
 10
50.186396
 20
5.976458
 30
0.0
 11
50.253427
 21
5.909427
 31
0.0
  0
LINE
  5
269
330
52F
100
AcDbEntity
  8
_0
  6
Continuous
 62
     7
370
    30
100
AcDbLine
 10
50.184083
 20
5.97524
 30
0.0
 11
50.248208
 21
5.911115
 31
0.0
  0
LINE
  5
26A
330
52F
100
AcDbEntity
  8
_0
  6
Continuous
 62
     7
370
    30
100
AcDbLine
 10
50.181771
 20
5.97401
 30
0.0
 11
50.243031
 21
5.91275
 31
0.0
  0
LINE
  5
26B
330
52F
100
AcDbEntity
  8
_0
  6
Continuous
 62
     7
370
    30
100
AcDbLine
 10
50.179458
 20
5.972792
 30
0.0
 11
50.238052
 21
5.914198
 31
0.0
  0
LINE
  5
26C
330
52F
100
AcDbEntity
  8
_0
  6
Continuous
 62
     7
370
    30
100
AcDbLine
 10
50.177146
 20
5.971563
 30
0.0
 11
50.233062
 21
5.915646
 31
0.0
  0
LINE
  5
26D
330
52F
100
AcDbEntity
  8
_0
  6
Continuous
 62
     7
370
    30
100
AcDbLine
 10
50.174833
 20
5.970344
 30
0.0
 11
50.228094
 21
5.917083
 31
0.0
  0
LINE
  5
26E
330
52F
100
AcDbEntity
  8
_0
  6
Continuous
 62
     7
370
    30
100
AcDbLine
 10
50.172521
 20
5.969115
 30
0.0
 11
50.223312
 21
5.918323
 31
0.0
  0
LINE
  5
26F
330
52F
100
AcDbEntity
  8
_0
  6
Continuous
 62
     7
370
    30
100
AcDbLine
 10
50.170208
 20
5.967896
 30
0.0
 11
50.218542
 21
5.919562
 31
0.0
  0
LINE
  5
270
330
52F
100
AcDbEntity
  8
_0
  6
Continuous
 62
     7
370
    30
100
AcDbLine
 10
50.167896
 20
5.966667
 30
0.0
 11
50.21376
 21
5.920812
 31
0.0
  0
LINE
  5
271
330
52F
100
AcDbEntity
  8
_0
  6
Continuous
 62
     7
370
    30
100
AcDbLine
 10
50.165583
 20
5.965448
 30
0.0
 11
50.209073
 21
5.921958
 31
0.0
  0
LINE
  5
272
330
52F
100
AcDbEntity
  8
_0
  6
Continuous
 62
     7
370
    30
100
AcDbLine
 10
50.163281
 20
5.964219
 30
0.0
 11
50.204469
 21
5.923031
 31
0.0
  0
LINE
  5
273
330
52F
100
AcDbEntity
  8
_0
  6
Continuous
 62
     7
370
    30
100
AcDbLine
 10
50.160969
 20
5.963
 30
0.0
 11
50.199865
 21
5.924094
 31
0.0
  0
LINE
  5
274
330
52F
100
AcDbEntity
  8
_0
  6
Continuous
 62
     7
370
    30
100
AcDbLine
 10
50.158656
 20
5.961771
 30
0.0
 11
50.19526
 21
5.925167
 31
0.0
  0
LINE
  5
275
330
52F
100
AcDbEntity
  8
_0
  6
Continuous
 62
     7
370
    30
100
AcDbLine
 10
50.156344
 20
5.960552
 30
0.0
 11
50.190708
 21
5.926188
 31
0.0
  0
LINE
  5
276
330
52F
100
AcDbEntity
  8
_0
  6
Continuous
 62
     7
370
    30
100
AcDbLine
 10
50.154031
 20
5.959323
 30
0.0
 11
50.18624
 21
5.927115
 31
0.0
  0
LINE
  5
277
330
52F
100
AcDbEntity
  8
_0
  6
Continuous
 62
     7
370
    30
100
AcDbLine
 10
50.151719
 20
5.958104
 30
0.0
 11
50.181771
 21
5.928042
 31
0.0
  0
LINE
  5
278
330
52F
100
AcDbEntity
  8
_0
  6
Continuous
 62
     7
370
    30
100
AcDbLine
 10
50.149406
 20
5.956875
 30
0.0
 11
50.177312
 21
5.928979
 31
0.0
  0
LINE
  5
279
330
52F
100
AcDbEntity
  8
_0
  6
Continuous
 62
     7
370
    30
100
AcDbLine
 10
50.147094
 20
5.955656
 30
0.0
 11
50.172844
 21
5.929906
 31
0.0
  0
LINE
  5
27A
330
52F
100
AcDbEntity
  8
_0
  6
Continuous
 62
     7
370
    30
100
AcDbLine
 10
50.144781
 20
5.954427
 30
0.0
 11
50.168437
 21
5.930781
 31
0.0
  0
LINE
  5
27B
330
52F
100
AcDbEntity
  8
_0
  6
Continuous
 62
     7
370
    30
100
AcDbLine
 10
50.142469
 20
5.953208
 30
0.0
 11
50.164073
 21
5.931604
 31
0.0
  0
LINE
  5
27C
330
52F
100
AcDbEntity
  8
_0
  6
Continuous
 62
     7
370
    30
100
AcDbLine
 10
50.140156
 20
5.951979
 30
0.0
 11
50.159719
 21
5.932427
 31
0.0
  0
LINE
  5
27D
330
52F
100
AcDbEntity
  8
_0
  6
Continuous
 62
     7
370
    30
100
AcDbLine
 10
50.137844
 20
5.95076
 30
0.0
 11
50.155365
 21
5.93325
 31
0.0
  0
LINE
  5
27E
330
52F
100
AcDbEntity
  8
_0
  6
Continuous
 62
     7
370
    30
100
AcDbLine
 10
50.135531
 20
5.949531
 30
0.0
 11
50.151
 21
5.934073
 31
0.0
  0
LINE
  5
27F
330
52F
100
AcDbEntity
  8
_0
  6
Continuous
 62
     7
370
    30
100
AcDbLine
 10
50.133229
 20
5.948313
 30
0.0
 11
50.146646
 21
5.934896
 31
0.0
  0
LINE
  5
280
330
52F
100
AcDbEntity
  8
_0
  6
Continuous
 62
     7
370
    30
100
AcDbLine
 10
50.130917
 20
5.947094
 30
0.0
 11
50.142354
 21
5.935646
 31
0.0
  0
LINE
  5
281
330
52F
100
AcDbEntity
  8
_0
  6
Continuous
 62
     7
370
    30
100
AcDbLine
 10
50.128604
 20
5.945865
 30
0.0
 11
50.138073
 21
5.936385
 31
0.0
  0
LINE
  5
282
330
52F
100
AcDbEntity
  8
_0
  6
Continuous
 62
     7
370
    30
100
AcDbLine
 10
50.126292
 20
5.944646
 30
0.0
 11
50.133802
 21
5.937125
 31
0.0
  0
LINE
  5
283
330
52F
100
AcDbEntity
  8
_0
  6
Continuous
 62
     7
370
    30
100
AcDbLine
 10
50.123979
 20
5.943417
 30
0.0
 11
50.129521
 21
5.937865
 31
0.0
  0
LINE
  5
284
330
52F
100
AcDbEntity
  8
_0
  6
Continuous
 62
     7
370
    30
100
AcDbLine
 10
50.121667
 20
5.942198
 30
0.0
 11
50.12525
 21
5.938604
 31
0.0
  0
LINE
  5
285
330
52F
100
AcDbEntity
  8
_0
  6
Continuous
 62
     7
370
    30
100
AcDbLine
 10
50.119354
 20
5.940969
 30
0.0
 11
50.120979
 21
5.939354
 31
0.0
  0
SPLINE
  5
286
330
52F
100
AcDbEntity
  8
_0
  6
Continuous
 62
     7
370
    30
100
AcDbSpline
210
0.0
220
0.0
230
1.0
 70
     8
 71
     3
 72
     9
 73
     5
 74
     0
 42
0.0000000001
 43
0.00000001
 40
0.0
 40
0.0
 40
0.0
 40
0.0
 40
0.5
 40
1.0
 40
1.0
 40
1.0
 40
1.0
 10
50.44097916666666
 20
5.778197916666667
 30
0.0
 10
50.42076041666667
 20
5.845604166666666
 30
0.0
 10
50.40727083333333
 20
5.939958333333333
 30
0.0
 10
50.42749999999999
 20
6.02084375
 30
0.0
 10
50.4679375
 20
6.10171875
 30
0.0
  0
SPLINE
  5
288
330
52F
100
AcDbEntity
  8
_0
  6
Continuous
 62
     7
370
    30
100
AcDbSpline
210
0.0
220
0.0
230
1.0
 70
     8
 71
     3
 72
     9
 73
     5
 74
     0
 42
0.0000000001
 43
0.00000001
 40
0.0
 40
0.0
 40
0.0
 40
0.0
 40
0.5
 40
1.0
 40
1.0
 40
1.0
 40
1.0
 10
50.11744791666666
 20
5.939958333333333
 30
0.0
 10
50.19833333333333
 20
5.926479166666667
 30
0.0
 10
50.27246875
 20
5.906260416666666
 30
0.0
 10
50.34661458333333
 20
5.8725625
 30
0.0
 10
50.44097916666666
 20
5.778197916666667
 30
0.0
  0
LWPOLYLINE
  5
28A
330
52F
100
AcDbEntity
  8
_0
  6
Continuous
 62
     7
370
    30
100
AcDbPolyline
 90
        2
 70
   128
 43
0.0
 10
50.360094
 20
6.047802
 10
50.467937
 20
6.101719
  0
LWPOLYLINE
  5
28B
330
52F
100
AcDbEntity
  8
_0
  6
Continuous
 62
     7
370
    30
100
AcDbPolyline
 90
        2
 70
   128
 43
0.0
 10
50.232031
 20
6.000625
 10
50.117448
 20
5.939958
  0
SPLINE
  5
28C
330
52F
100
AcDbEntity
  8
_0
  6
Continuous
 62
     7
370
    30
100
AcDbSpline
210
0.0
220
0.0
230
1.0
 70
     8
 71
     3
 72
    12
 73
     8
 74
     0
 42
0.0000000001
 43
0.00000001
 40
0.0
 40
0.0
 40
0.0
 40
0.0
 40
0.2
 40
0.4
 40
0.6000000000000001
 40
0.8
 40
1.0
 40
1.0
 40
1.0
 40
1.0
 10
50.27920833333333
 20
7.571041666666666
 30
0.0
 10
50.2118125
 20
7.3890625
 30
0.0
 10
50.14440625
 20
7.146416666666666
 30
0.0
 10
50.10396875
 20
6.8835625
 30
0.0
 10
50.1241875
 20
6.587
 30
0.0
 10
50.19159375
 20
6.35784375
 30
0.0
 10
50.2994375
 20
6.135416666666666
 30
0.0
 10
50.36009375
 20
6.047802083333333
 30
0.0
  0
SPLINE
  5
28E
330
52F
100
AcDbEntity
  8
_0
  6
Continuous
 62
     7
370
    30
100
AcDbSpline
210
0.0
220
0.0
230
1.0
 70
     8
 71
     3
 72
    11
 73
     7
 74
     0
 42
0.0000000001
 43
0.00000001
 40
0.0
 40
0.0
 40
0.0
 40
0.0
 40
0.25
 40
0.5
 40
0.75
 40
1.0
 40
1.0
 40
1.0
 40
1.0
 10
50.27920833333333
 20
7.571041666666666
 30
0.0
 10
50.19159375
 20
7.456458333333333
 30
0.0
 10
50.08374999999999
 20
7.20034375
 30
0.0
 10
50.00960416666666
 20
6.82290625
 30
0.0
 10
50.04330208333333
 20
6.445458333333333
 30
0.0
 10
50.164625
 20
6.115197916666666
 30
0.0
 10
50.23203125
 20
6.000624999999999
 30
0.0
  0
LINE
  5
290
330
52F
100
AcDbEntity
  8
_0
  6
Continuous
 62
     7
370
    30
100
AcDbLine
 10
50.75
 20
5.386906
 30
0.0
 11
50.741104
 21
5.635917
 31
0.0
  0
POINT
  5
291
330
52F
100
AcDbEntity
  8
HATCH
  6
Continuous
 62
     7
370
    30
100
AcDbPoint
 10
50.328125
 20
4.893156
 30
0.0
  0
POINT
  5
292
330
52F
100
AcDbEntity
  8
HATCH
  6
Continuous
 62
     7
370
    30
100
AcDbPoint
 10
50.359375
 20
4.893156
 30
0.0
  0
POINT
  5
293
330
52F
100
AcDbEntity
  8
HATCH
  6
Continuous
 62
     7
370
    30
100
AcDbPoint
 10
50.390625
 20
4.893156
 30
0.0
  0
POINT
  5
294
330
52F
100
AcDbEntity
  8
HATCH
  6
Continuous
 62
     7
370
    30
100
AcDbPoint
 10
50.421875
 20
4.893156
 30
0.0
  0
POINT
  5
295
330
52F
100
AcDbEntity
  8
HATCH
  6
Continuous
 62
     7
370
    30
100
AcDbPoint
 10
50.453125
 20
4.893156
 30
0.0
  0
POINT
  5
296
330
52F
100
AcDbEntity
  8
HATCH
  6
Continuous
 62
     7
370
    30
100
AcDbPoint
 10
50.484375
 20
4.893156
 30
0.0
  0
POINT
  5
297
330
52F
100
AcDbEntity
  8
HATCH
  6
Continuous
 62
     7
370
    30
100
AcDbPoint
 10
50.515625
 20
4.893156
 30
0.0
  0
POINT
  5
298
330
52F
100
AcDbEntity
  8
HATCH
  6
Continuous
 62
     7
370
    30
100
AcDbPoint
 10
50.546875
 20
4.893156
 30
0.0
  0
POINT
  5
299
330
52F
100
AcDbEntity
  8
HATCH
  6
Continuous
 62
     7
370
    30
100
AcDbPoint
 10
50.578125
 20
4.893156
 30
0.0
  0
POINT
  5
29A
330
52F
100
AcDbEntity
  8
HATCH
  6
Continuous
 62
     7
370
    30
100
AcDbPoint
 10
50.609375
 20
4.893156
 30
0.0
  0
POINT
  5
29B
330
52F
100
AcDbEntity
  8
HATCH
  6
Continuous
 62
     7
370
    30
100
AcDbPoint
 10
50.640625
 20
4.893156
 30
0.0
  0
POINT
  5
29C
330
52F
100
AcDbEntity
  8
HATCH
  6
Continuous
 62
     7
370
    30
100
AcDbPoint
 10
50.671875
 20
4.893156
 30
0.0
  0
POINT
  5
29D
330
52F
100
AcDbEntity
  8
HATCH
  6
Continuous
 62
     7
370
    30
100
AcDbPoint
 10
50.703125
 20
4.893156
 30
0.0
  0
POINT
  5
29E
330
52F
100
AcDbEntity
  8
HATCH
  6
Continuous
 62
     7
370
    30
100
AcDbPoint
 10
50.734375
 20
4.893156
 30
0.0
  0
POINT
  5
29F
330
52F
100
AcDbEntity
  8
HATCH
  6
Continuous
 62
     7
370
    30
100
AcDbPoint
 10
50.3125
 20
4.924406
 30
0.0
  0
POINT
  5
2A0
330
52F
100
AcDbEntity
  8
HATCH
  6
Continuous
 62
     7
370
    30
100
AcDbPoint
 10
50.34375
 20
4.924406
 30
0.0
  0
POINT
  5
2A1
330
52F
100
AcDbEntity
  8
HATCH
  6
Continuous
 62
     7
370
    30
100
AcDbPoint
 10
50.375
 20
4.924406
 30
0.0
  0
POINT
  5
2A2
330
52F
100
AcDbEntity
  8
HATCH
  6
Continuous
 62
     7
370
    30
100
AcDbPoint
 10
50.40625
 20
4.924406
 30
0.0
  0
POINT
  5
2A3
330
52F
100
AcDbEntity
  8
HATCH
  6
Continuous
 62
     7
370
    30
100
AcDbPoint
 10
50.4375
 20
4.924406
 30
0.0
  0
POINT
  5
2A4
330
52F
100
AcDbEntity
  8
HATCH
  6
Continuous
 62
     7
370
    30
100
AcDbPoint
 10
50.46875
 20
4.924406
 30
0.0
  0
POINT
  5
2A5
330
52F
100
AcDbEntity
  8
HATCH
  6
Continuous
 62
     7
370
    30
100
AcDbPoint
 10
50.5
 20
4.924406
 30
0.0
  0
POINT
  5
2A6
330
52F
100
AcDbEntity
  8
HATCH
  6
Continuous
 62
     7
370
    30
100
AcDbPoint
 10
50.53125
 20
4.924406
 30
0.0
  0
POINT
  5
2A7
330
52F
100
AcDbEntity
  8
HATCH
  6
Continuous
 62
     7
370
    30
100
AcDbPoint
 10
50.5625
 20
4.924406
 30
0.0
  0
POINT
  5
2A8
330
52F
100
AcDbEntity
  8
HATCH
  6
Continuous
 62
     7
370
    30
100
AcDbPoint
 10
50.59375
 20
4.924406
 30
0.0
  0
POINT
  5
2A9
330
52F
100
AcDbEntity
  8
HATCH
  6
Continuous
 62
     7
370
    30
100
AcDbPoint
 10
50.625
 20
4.924406
 30
0.0
  0
POINT
  5
2AA
330
52F
100
AcDbEntity
  8
HATCH
  6
Continuous
 62
     7
370
    30
100
AcDbPoint
 10
50.65625
 20
4.924406
 30
0.0
  0
POINT
  5
2AB
330
52F
100
AcDbEntity
  8
HATCH
  6
Continuous
 62
     7
370
    30
100
AcDbPoint
 10
50.6875
 20
4.924406
 30
0.0
  0
POINT
  5
2AC
330
52F
100
AcDbEntity
  8
HATCH
  6
Continuous
 62
     7
370
    30
100
AcDbPoint
 10
50.71875
 20
4.924406
 30
0.0
  0
POINT
  5
2AD
330
52F
100
AcDbEntity
  8
HATCH
  6
Continuous
 62
     7
370
    30
100
AcDbPoint
 10
50.75
 20
4.924406
 30
0.0
  0
POINT
  5
2AE
330
52F
100
AcDbEntity
  8
HATCH
  6
Continuous
 62
     7
370
    30
100
AcDbPoint
 10
50.328125
 20
4.955656
 30
0.0
  0
POINT
  5
2AF
330
52F
100
AcDbEntity
  8
HATCH
  6
Continuous
 62
     7
370
    30
100
AcDbPoint
 10
50.359375
 20
4.955656
 30
0.0
  0
POINT
  5
2B0
330
52F
100
AcDbEntity
  8
HATCH
  6
Continuous
 62
     7
370
    30
100
AcDbPoint
 10
50.390625
 20
4.955656
 30
0.0
  0
POINT
  5
2B1
330
52F
100
AcDbEntity
  8
HATCH
  6
Continuous
 62
     7
370
    30
100
AcDbPoint
 10
50.421875
 20
4.955656
 30
0.0
  0
POINT
  5
2B2
330
52F
100
AcDbEntity
  8
HATCH
  6
Continuous
 62
     7
370
    30
100
AcDbPoint
 10
50.453125
 20
4.955656
 30
0.0
  0
POINT
  5
2B3
330
52F
100
AcDbEntity
  8
HATCH
  6
Continuous
 62
     7
370
    30
100
AcDbPoint
 10
50.484375
 20
4.955656
 30
0.0
  0
POINT
  5
2B4
330
52F
100
AcDbEntity
  8
HATCH
  6
Continuous
 62
     7
370
    30
100
AcDbPoint
 10
50.515625
 20
4.955656
 30
0.0
  0
POINT
  5
2B5
330
52F
100
AcDbEntity
  8
HATCH
  6
Continuous
 62
     7
370
    30
100
AcDbPoint
 10
50.546875
 20
4.955656
 30
0.0
  0
POINT
  5
2B6
330
52F
100
AcDbEntity
  8
HATCH
  6
Continuous
 62
     7
370
    30
100
AcDbPoint
 10
50.578125
 20
4.955656
 30
0.0
  0
POINT
  5
2B7
330
52F
100
AcDbEntity
  8
HATCH
  6
Continuous
 62
     7
370
    30
100
AcDbPoint
 10
50.609375
 20
4.955656
 30
0.0
  0
POINT
  5
2B8
330
52F
100
AcDbEntity
  8
HATCH
  6
Continuous
 62
     7
370
    30
100
AcDbPoint
 10
50.640625
 20
4.955656
 30
0.0
  0
POINT
  5
2B9
330
52F
100
AcDbEntity
  8
HATCH
  6
Continuous
 62
     7
370
    30
100
AcDbPoint
 10
50.671875
 20
4.955656
 30
0.0
  0
POINT
  5
2BA
330
52F
100
AcDbEntity
  8
HATCH
  6
Continuous
 62
     7
370
    30
100
AcDbPoint
 10
50.703125
 20
4.955656
 30
0.0
  0
POINT
  5
2BB
330
52F
100
AcDbEntity
  8
HATCH
  6
Continuous
 62
     7
370
    30
100
AcDbPoint
 10
50.734375
 20
4.955656
 30
0.0
  0
POINT
  5
2BC
330
52F
100
AcDbEntity
  8
HATCH
  6
Continuous
 62
     7
370
    30
100
AcDbPoint
 10
50.3125
 20
4.986906
 30
0.0
  0
POINT
  5
2BD
330
52F
100
AcDbEntity
  8
HATCH
  6
Continuous
 62
     7
370
    30
100
AcDbPoint
 10
50.34375
 20
4.986906
 30
0.0
  0
POINT
  5
2BE
330
52F
100
AcDbEntity
  8
HATCH
  6
Continuous
 62
     7
370
    30
100
AcDbPoint
 10
50.375
 20
4.986906
 30
0.0
  0
POINT
  5
2BF
330
52F
100
AcDbEntity
  8
HATCH
  6
Continuous
 62
     7
370
    30
100
AcDbPoint
 10
50.40625
 20
4.986906
 30
0.0
  0
POINT
  5
2C0
330
52F
100
AcDbEntity
  8
HATCH
  6
Continuous
 62
     7
370
    30
100
AcDbPoint
 10
50.4375
 20
4.986906
 30
0.0
  0
POINT
  5
2C1
330
52F
100
AcDbEntity
  8
HATCH
  6
Continuous
 62
     7
370
    30
100
AcDbPoint
 10
50.46875
 20
4.986906
 30
0.0
  0
POINT
  5
2C2
330
52F
100
AcDbEntity
  8
HATCH
  6
Continuous
 62
     7
370
    30
100
AcDbPoint
 10
50.5
 20
4.986906
 30
0.0
  0
POINT
  5
2C3
330
52F
100
AcDbEntity
  8
HATCH
  6
Continuous
 62
     7
370
    30
100
AcDbPoint
 10
50.53125
 20
4.986906
 30
0.0
  0
POINT
  5
2C4
330
52F
100
AcDbEntity
  8
HATCH
  6
Continuous
 62
     7
370
    30
100
AcDbPoint
 10
50.5625
 20
4.986906
 30
0.0
  0
POINT
  5
2C5
330
52F
100
AcDbEntity
  8
HATCH
  6
Continuous
 62
     7
370
    30
100
AcDbPoint
 10
50.59375
 20
4.986906
 30
0.0
  0
POINT
  5
2C6
330
52F
100
AcDbEntity
  8
HATCH
  6
Continuous
 62
     7
370
    30
100
AcDbPoint
 10
50.625
 20
4.986906
 30
0.0
  0
POINT
  5
2C7
330
52F
100
AcDbEntity
  8
HATCH
  6
Continuous
 62
     7
370
    30
100
AcDbPoint
 10
50.65625
 20
4.986906
 30
0.0
  0
POINT
  5
2C8
330
52F
100
AcDbEntity
  8
HATCH
  6
Continuous
 62
     7
370
    30
100
AcDbPoint
 10
50.6875
 20
4.986906
 30
0.0
  0
POINT
  5
2C9
330
52F
100
AcDbEntity
  8
HATCH
  6
Continuous
 62
     7
370
    30
100
AcDbPoint
 10
50.71875
 20
4.986906
 30
0.0
  0
POINT
  5
2CA
330
52F
100
AcDbEntity
  8
HATCH
  6
Continuous
 62
     7
370
    30
100
AcDbPoint
 10
50.75
 20
4.986906
 30
0.0
  0
POINT
  5
2CB
330
52F
100
AcDbEntity
  8
HATCH
  6
Continuous
 62
     7
370
    30
100
AcDbPoint
 10
50.328125
 20
5.018156
 30
0.0
  0
POINT
  5
2CC
330
52F
100
AcDbEntity
  8
HATCH
  6
Continuous
 62
     7
370
    30
100
AcDbPoint
 10
50.359375
 20
5.018156
 30
0.0
  0
POINT
  5
2CD
330
52F
100
AcDbEntity
  8
HATCH
  6
Continuous
 62
     7
370
    30
100
AcDbPoint
 10
50.390625
 20
5.018156
 30
0.0
  0
POINT
  5
2CE
330
52F
100
AcDbEntity
  8
HATCH
  6
Continuous
 62
     7
370
    30
100
AcDbPoint
 10
50.421875
 20
5.018156
 30
0.0
  0
POINT
  5
2CF
330
52F
100
AcDbEntity
  8
HATCH
  6
Continuous
 62
     7
370
    30
100
AcDbPoint
 10
50.453125
 20
5.018156
 30
0.0
  0
POINT
  5
2D0
330
52F
100
AcDbEntity
  8
HATCH
  6
Continuous
 62
     7
370
    30
100
AcDbPoint
 10
50.484375
 20
5.018156
 30
0.0
  0
POINT
  5
2D1
330
52F
100
AcDbEntity
  8
HATCH
  6
Continuous
 62
     7
370
    30
100
AcDbPoint
 10
50.515625
 20
5.018156
 30
0.0
  0
POINT
  5
2D2
330
52F
100
AcDbEntity
  8
HATCH
  6
Continuous
 62
     7
370
    30
100
AcDbPoint
 10
50.546875
 20
5.018156
 30
0.0
  0
POINT
  5
2D3
330
52F
100
AcDbEntity
  8
HATCH
  6
Continuous
 62
     7
370
    30
100
AcDbPoint
 10
50.578125
 20
5.018156
 30
0.0
  0
POINT
  5
2D4
330
52F
100
AcDbEntity
  8
HATCH
  6
Continuous
 62
     7
370
    30
100
AcDbPoint
 10
50.609375
 20
5.018156
 30
0.0
  0
POINT
  5
2D5
330
52F
100
AcDbEntity
  8
HATCH
  6
Continuous
 62
     7
370
    30
100
AcDbPoint
 10
50.640625
 20
5.018156
 30
0.0
  0
POINT
  5
2D6
330
52F
100
AcDbEntity
  8
HATCH
  6
Continuous
 62
     7
370
    30
100
AcDbPoint
 10
50.671875
 20
5.018156
 30
0.0
  0
POINT
  5
2D7
330
52F
100
AcDbEntity
  8
HATCH
  6
Continuous
 62
     7
370
    30
100
AcDbPoint
 10
50.703125
 20
5.018156
 30
0.0
  0
POINT
  5
2D8
330
52F
100
AcDbEntity
  8
HATCH
  6
Continuous
 62
     7
370
    30
100
AcDbPoint
 10
50.734375
 20
5.018156
 30
0.0
  0
POINT
  5
2D9
330
52F
100
AcDbEntity
  8
HATCH
  6
Continuous
 62
     7
370
    30
100
AcDbPoint
 10
50.3125
 20
5.049406
 30
0.0
  0
POINT
  5
2DA
330
52F
100
AcDbEntity
  8
HATCH
  6
Continuous
 62
     7
370
    30
100
AcDbPoint
 10
50.34375
 20
5.049406
 30
0.0
  0
POINT
  5
2DB
330
52F
100
AcDbEntity
  8
HATCH
  6
Continuous
 62
     7
370
    30
100
AcDbPoint
 10
50.375
 20
5.049406
 30
0.0
  0
POINT
  5
2DC
330
52F
100
AcDbEntity
  8
HATCH
  6
Continuous
 62
     7
370
    30
100
AcDbPoint
 10
50.40625
 20
5.049406
 30
0.0
  0
POINT
  5
2DD
330
52F
100
AcDbEntity
  8
HATCH
  6
Continuous
 62
     7
370
    30
100
AcDbPoint
 10
50.4375
 20
5.049406
 30
0.0
  0
POINT
  5
2DE
330
52F
100
AcDbEntity
  8
HATCH
  6
Continuous
 62
     7
370
    30
100
AcDbPoint
 10
50.46875
 20
5.049406
 30
0.0
  0
POINT
  5
2DF
330
52F
100
AcDbEntity
  8
HATCH
  6
Continuous
 62
     7
370
    30
100
AcDbPoint
 10
50.5
 20
5.049406
 30
0.0
  0
POINT
  5
2E0
330
52F
100
AcDbEntity
  8
HATCH
  6
Continuous
 62
     7
370
    30
100
AcDbPoint
 10
50.53125
 20
5.049406
 30
0.0
  0
POINT
  5
2E1
330
52F
100
AcDbEntity
  8
HATCH
  6
Continuous
 62
     7
370
    30
100
AcDbPoint
 10
50.5625
 20
5.049406
 30
0.0
  0
POINT
  5
2E2
330
52F
100
AcDbEntity
  8
HATCH
  6
Continuous
 62
     7
370
    30
100
AcDbPoint
 10
50.59375
 20
5.049406
 30
0.0
  0
POINT
  5
2E3
330
52F
100
AcDbEntity
  8
HATCH
  6
Continuous
 62
     7
370
    30
100
AcDbPoint
 10
50.625
 20
5.049406
 30
0.0
  0
POINT
  5
2E4
330
52F
100
AcDbEntity
  8
HATCH
  6
Continuous
 62
     7
370
    30
100
AcDbPoint
 10
50.65625
 20
5.049406
 30
0.0
  0
POINT
  5
2E5
330
52F
100
AcDbEntity
  8
HATCH
  6
Continuous
 62
     7
370
    30
100
AcDbPoint
 10
50.6875
 20
5.049406
 30
0.0
  0
POINT
  5
2E6
330
52F
100
AcDbEntity
  8
HATCH
  6
Continuous
 62
     7
370
    30
100
AcDbPoint
 10
50.71875
 20
5.049406
 30
0.0
  0
POINT
  5
2E7
330
52F
100
AcDbEntity
  8
HATCH
  6
Continuous
 62
     7
370
    30
100
AcDbPoint
 10
50.75
 20
5.049406
 30
0.0
  0
POINT
  5
2E8
330
52F
100
AcDbEntity
  8
HATCH
  6
Continuous
 62
     7
370
    30
100
AcDbPoint
 10
50.328125
 20
5.080656
 30
0.0
  0
POINT
  5
2E9
330
52F
100
AcDbEntity
  8
HATCH
  6
Continuous
 62
     7
370
    30
100
AcDbPoint
 10
50.359375
 20
5.080656
 30
0.0
  0
POINT
  5
2EA
330
52F
100
AcDbEntity
  8
HATCH
  6
Continuous
 62
     7
370
    30
100
AcDbPoint
 10
50.390625
 20
5.080656
 30
0.0
  0
POINT
  5
2EB
330
52F
100
AcDbEntity
  8
HATCH
  6
Continuous
 62
     7
370
    30
100
AcDbPoint
 10
50.421875
 20
5.080656
 30
0.0
  0
POINT
  5
2EC
330
52F
100
AcDbEntity
  8
HATCH
  6
Continuous
 62
     7
370
    30
100
AcDbPoint
 10
50.453125
 20
5.080656
 30
0.0
  0
POINT
  5
2ED
330
52F
100
AcDbEntity
  8
HATCH
  6
Continuous
 62
     7
370
    30
100
AcDbPoint
 10
50.484375
 20
5.080656
 30
0.0
  0
POINT
  5
2EE
330
52F
100
AcDbEntity
  8
HATCH
  6
Continuous
 62
     7
370
    30
100
AcDbPoint
 10
50.515625
 20
5.080656
 30
0.0
  0
POINT
  5
2EF
330
52F
100
AcDbEntity
  8
HATCH
  6
Continuous
 62
     7
370
    30
100
AcDbPoint
 10
50.546875
 20
5.080656
 30
0.0
  0
POINT
  5
2F0
330
52F
100
AcDbEntity
  8
HATCH
  6
Continuous
 62
     7
370
    30
100
AcDbPoint
 10
50.578125
 20
5.080656
 30
0.0
  0
POINT
  5
2F1
330
52F
100
AcDbEntity
  8
HATCH
  6
Continuous
 62
     7
370
    30
100
AcDbPoint
 10
50.609375
 20
5.080656
 30
0.0
  0
POINT
  5
2F2
330
52F
100
AcDbEntity
  8
HATCH
  6
Continuous
 62
     7
370
    30
100
AcDbPoint
 10
50.640625
 20
5.080656
 30
0.0
  0
POINT
  5
2F3
330
52F
100
AcDbEntity
  8
HATCH
  6
Continuous
 62
     7
370
    30
100
AcDbPoint
 10
50.671875
 20
5.080656
 30
0.0
  0
POINT
  5
2F4
330
52F
100
AcDbEntity
  8
HATCH
  6
Continuous
 62
     7
370
    30
100
AcDbPoint
 10
50.703125
 20
5.080656
 30
0.0
  0
POINT
  5
2F5
330
52F
100
AcDbEntity
  8
HATCH
  6
Continuous
 62
     7
370
    30
100
AcDbPoint
 10
50.734375
 20
5.080656
 30
0.0
  0
POINT
  5
2F6
330
52F
100
AcDbEntity
  8
HATCH
  6
Continuous
 62
     7
370
    30
100
AcDbPoint
 10
50.3125
 20
5.111906
 30
0.0
  0
POINT
  5
2F7
330
52F
100
AcDbEntity
  8
HATCH
  6
Continuous
 62
     7
370
    30
100
AcDbPoint
 10
50.34375
 20
5.111906
 30
0.0
  0
POINT
  5
2F8
330
52F
100
AcDbEntity
  8
HATCH
  6
Continuous
 62
     7
370
    30
100
AcDbPoint
 10
50.375
 20
5.111906
 30
0.0
  0
POINT
  5
2F9
330
52F
100
AcDbEntity
  8
HATCH
  6
Continuous
 62
     7
370
    30
100
AcDbPoint
 10
50.40625
 20
5.111906
 30
0.0
  0
POINT
  5
2FA
330
52F
100
AcDbEntity
  8
HATCH
  6
Continuous
 62
     7
370
    30
100
AcDbPoint
 10
50.4375
 20
5.111906
 30
0.0
  0
POINT
  5
2FB
330
52F
100
AcDbEntity
  8
HATCH
  6
Continuous
 62
     7
370
    30
100
AcDbPoint
 10
50.46875
 20
5.111906
 30
0.0
  0
POINT
  5
2FC
330
52F
100
AcDbEntity
  8
HATCH
  6
Continuous
 62
     7
370
    30
100
AcDbPoint
 10
50.5
 20
5.111906
 30
0.0
  0
POINT
  5
2FD
330
52F
100
AcDbEntity
  8
HATCH
  6
Continuous
 62
     7
370
    30
100
AcDbPoint
 10
50.53125
 20
5.111906
 30
0.0
  0
POINT
  5
2FE
330
52F
100
AcDbEntity
  8
HATCH
  6
Continuous
 62
     7
370
    30
100
AcDbPoint
 10
50.5625
 20
5.111906
 30
0.0
  0
POINT
  5
2FF
330
52F
100
AcDbEntity
  8
HATCH
  6
Continuous
 62
     7
370
    30
100
AcDbPoint
 10
50.59375
 20
5.111906
 30
0.0
  0
POINT
  5
300
330
52F
100
AcDbEntity
  8
HATCH
  6
Continuous
 62
     7
370
    30
100
AcDbPoint
 10
50.625
 20
5.111906
 30
0.0
  0
POINT
  5
301
330
52F
100
AcDbEntity
  8
HATCH
  6
Continuous
 62
     7
370
    30
100
AcDbPoint
 10
50.65625
 20
5.111906
 30
0.0
  0
POINT
  5
302
330
52F
100
AcDbEntity
  8
HATCH
  6
Continuous
 62
     7
370
    30
100
AcDbPoint
 10
50.6875
 20
5.111906
 30
0.0
  0
POINT
  5
303
330
52F
100
AcDbEntity
  8
HATCH
  6
Continuous
 62
     7
370
    30
100
AcDbPoint
 10
50.71875
 20
5.111906
 30
0.0
  0
POINT
  5
304
330
52F
100
AcDbEntity
  8
HATCH
  6
Continuous
 62
     7
370
    30
100
AcDbPoint
 10
50.75
 20
5.111906
 30
0.0
  0
POINT
  5
305
330
52F
100
AcDbEntity
  8
HATCH
  6
Continuous
 62
     7
370
    30
100
AcDbPoint
 10
50.328125
 20
5.143156
 30
0.0
  0
POINT
  5
306
330
52F
100
AcDbEntity
  8
HATCH
  6
Continuous
 62
     7
370
    30
100
AcDbPoint
 10
50.359375
 20
5.143156
 30
0.0
  0
POINT
  5
307
330
52F
100
AcDbEntity
  8
HATCH
  6
Continuous
 62
     7
370
    30
100
AcDbPoint
 10
50.390625
 20
5.143156
 30
0.0
  0
POINT
  5
308
330
52F
100
AcDbEntity
  8
HATCH
  6
Continuous
 62
     7
370
    30
100
AcDbPoint
 10
50.421875
 20
5.143156
 30
0.0
  0
POINT
  5
309
330
52F
100
AcDbEntity
  8
HATCH
  6
Continuous
 62
     7
370
    30
100
AcDbPoint
 10
50.453125
 20
5.143156
 30
0.0
  0
POINT
  5
30A
330
52F
100
AcDbEntity
  8
HATCH
  6
Continuous
 62
     7
370
    30
100
AcDbPoint
 10
50.484375
 20
5.143156
 30
0.0
  0
POINT
  5
30B
330
52F
100
AcDbEntity
  8
HATCH
  6
Continuous
 62
     7
370
    30
100
AcDbPoint
 10
50.515625
 20
5.143156
 30
0.0
  0
POINT
  5
30C
330
52F
100
AcDbEntity
  8
HATCH
  6
Continuous
 62
     7
370
    30
100
AcDbPoint
 10
50.546875
 20
5.143156
 30
0.0
  0
POINT
  5
30D
330
52F
100
AcDbEntity
  8
HATCH
  6
Continuous
 62
     7
370
    30
100
AcDbPoint
 10
50.578125
 20
5.143156
 30
0.0
  0
POINT
  5
30E
330
52F
100
AcDbEntity
  8
HATCH
  6
Continuous
 62
     7
370
    30
100
AcDbPoint
 10
50.609375
 20
5.143156
 30
0.0
  0
POINT
  5
30F
330
52F
100
AcDbEntity
  8
HATCH
  6
Continuous
 62
     7
370
    30
100
AcDbPoint
 10
50.640625
 20
5.143156
 30
0.0
  0
POINT
  5
310
330
52F
100
AcDbEntity
  8
HATCH
  6
Continuous
 62
     7
370
    30
100
AcDbPoint
 10
50.671875
 20
5.143156
 30
0.0
  0
POINT
  5
311
330
52F
100
AcDbEntity
  8
HATCH
  6
Continuous
 62
     7
370
    30
100
AcDbPoint
 10
50.703125
 20
5.143156
 30
0.0
  0
POINT
  5
312
330
52F
100
AcDbEntity
  8
HATCH
  6
Continuous
 62
     7
370
    30
100
AcDbPoint
 10
50.734375
 20
5.143156
 30
0.0
  0
POINT
  5
313
330
52F
100
AcDbEntity
  8
HATCH
  6
Continuous
 62
     7
370
    30
100
AcDbPoint
 10
50.3125
 20
5.174406
 30
0.0
  0
POINT
  5
314
330
52F
100
AcDbEntity
  8
HATCH
  6
Continuous
 62
     7
370
    30
100
AcDbPoint
 10
50.34375
 20
5.174406
 30
0.0
  0
POINT
  5
315
330
52F
100
AcDbEntity
  8
HATCH
  6
Continuous
 62
     7
370
    30
100
AcDbPoint
 10
50.375
 20
5.174406
 30
0.0
  0
POINT
  5
316
330
52F
100
AcDbEntity
  8
HATCH
  6
Continuous
 62
     7
370
    30
100
AcDbPoint
 10
50.40625
 20
5.174406
 30
0.0
  0
POINT
  5
317
330
52F
100
AcDbEntity
  8
HATCH
  6
Continuous
 62
     7
370
    30
100
AcDbPoint
 10
50.4375
 20
5.174406
 30
0.0
  0
POINT
  5
318
330
52F
100
AcDbEntity
  8
HATCH
  6
Continuous
 62
     7
370
    30
100
AcDbPoint
 10
50.46875
 20
5.174406
 30
0.0
  0
POINT
  5
319
330
52F
100
AcDbEntity
  8
HATCH
  6
Continuous
 62
     7
370
    30
100
AcDbPoint
 10
50.5
 20
5.174406
 30
0.0
  0
POINT
  5
31A
330
52F
100
AcDbEntity
  8
HATCH
  6
Continuous
 62
     7
370
    30
100
AcDbPoint
 10
50.53125
 20
5.174406
 30
0.0
  0
POINT
  5
31B
330
52F
100
AcDbEntity
  8
HATCH
  6
Continuous
 62
     7
370
    30
100
AcDbPoint
 10
50.5625
 20
5.174406
 30
0.0
  0
POINT
  5
31C
330
52F
100
AcDbEntity
  8
HATCH
  6
Continuous
 62
     7
370
    30
100
AcDbPoint
 10
50.59375
 20
5.174406
 30
0.0
  0
POINT
  5
31D
330
52F
100
AcDbEntity
  8
HATCH
  6
Continuous
 62
     7
370
    30
100
AcDbPoint
 10
50.625
 20
5.174406
 30
0.0
  0
POINT
  5
31E
330
52F
100
AcDbEntity
  8
HATCH
  6
Continuous
 62
     7
370
    30
100
AcDbPoint
 10
50.65625
 20
5.174406
 30
0.0
  0
POINT
  5
31F
330
52F
100
AcDbEntity
  8
HATCH
  6
Continuous
 62
     7
370
    30
100
AcDbPoint
 10
50.6875
 20
5.174406
 30
0.0
  0
POINT
  5
320
330
52F
100
AcDbEntity
  8
HATCH
  6
Continuous
 62
     7
370
    30
100
AcDbPoint
 10
50.71875
 20
5.174406
 30
0.0
  0
POINT
  5
321
330
52F
100
AcDbEntity
  8
HATCH
  6
Continuous
 62
     7
370
    30
100
AcDbPoint
 10
50.75
 20
5.174406
 30
0.0
  0
POINT
  5
322
330
52F
100
AcDbEntity
  8
HATCH
  6
Continuous
 62
     7
370
    30
100
AcDbPoint
 10
50.328125
 20
5.205656
 30
0.0
  0
POINT
  5
323
330
52F
100
AcDbEntity
  8
HATCH
  6
Continuous
 62
     7
370
    30
100
AcDbPoint
 10
50.359375
 20
5.205656
 30
0.0
  0
POINT
  5
324
330
52F
100
AcDbEntity
  8
HATCH
  6
Continuous
 62
     7
370
    30
100
AcDbPoint
 10
50.390625
 20
5.205656
 30
0.0
  0
POINT
  5
325
330
52F
100
AcDbEntity
  8
HATCH
  6
Continuous
 62
     7
370
    30
100
AcDbPoint
 10
50.421875
 20
5.205656
 30
0.0
  0
POINT
  5
326
330
52F
100
AcDbEntity
  8
HATCH
  6
Continuous
 62
     7
370
    30
100
AcDbPoint
 10
50.453125
 20
5.205656
 30
0.0
  0
POINT
  5
327
330
52F
100
AcDbEntity
  8
HATCH
  6
Continuous
 62
     7
370
    30
100
AcDbPoint
 10
50.484375
 20
5.205656
 30
0.0
  0
POINT
  5
328
330
52F
100
AcDbEntity
  8
HATCH
  6
Continuous
 62
     7
370
    30
100
AcDbPoint
 10
50.515625
 20
5.205656
 30
0.0
  0
POINT
  5
329
330
52F
100
AcDbEntity
  8
HATCH
  6
Continuous
 62
     7
370
    30
100
AcDbPoint
 10
50.546875
 20
5.205656
 30
0.0
  0
POINT
  5
32A
330
52F
100
AcDbEntity
  8
HATCH
  6
Continuous
 62
     7
370
    30
100
AcDbPoint
 10
50.578125
 20
5.205656
 30
0.0
  0
POINT
  5
32B
330
52F
100
AcDbEntity
  8
HATCH
  6
Continuous
 62
     7
370
    30
100
AcDbPoint
 10
50.609375
 20
5.205656
 30
0.0
  0
POINT
  5
32C
330
52F
100
AcDbEntity
  8
HATCH
  6
Continuous
 62
     7
370
    30
100
AcDbPoint
 10
50.640625
 20
5.205656
 30
0.0
  0
POINT
  5
32D
330
52F
100
AcDbEntity
  8
HATCH
  6
Continuous
 62
     7
370
    30
100
AcDbPoint
 10
50.671875
 20
5.205656
 30
0.0
  0
POINT
  5
32E
330
52F
100
AcDbEntity
  8
HATCH
  6
Continuous
 62
     7
370
    30
100
AcDbPoint
 10
50.703125
 20
5.205656
 30
0.0
  0
POINT
  5
32F
330
52F
100
AcDbEntity
  8
HATCH
  6
Continuous
 62
     7
370
    30
100
AcDbPoint
 10
50.734375
 20
5.205656
 30
0.0
  0
POINT
  5
330
330
52F
100
AcDbEntity
  8
HATCH
  6
Continuous
 62
     7
370
    30
100
AcDbPoint
 10
50.3125
 20
5.236906
 30
0.0
  0
POINT
  5
331
330
52F
100
AcDbEntity
  8
HATCH
  6
Continuous
 62
     7
370
    30
100
AcDbPoint
 10
50.34375
 20
5.236906
 30
0.0
  0
POINT
  5
332
330
52F
100
AcDbEntity
  8
HATCH
  6
Continuous
 62
     7
370
    30
100
AcDbPoint
 10
50.375
 20
5.236906
 30
0.0
  0
POINT
  5
333
330
52F
100
AcDbEntity
  8
HATCH
  6
Continuous
 62
     7
370
    30
100
AcDbPoint
 10
50.40625
 20
5.236906
 30
0.0
  0
POINT
  5
334
330
52F
100
AcDbEntity
  8
HATCH
  6
Continuous
 62
     7
370
    30
100
AcDbPoint
 10
50.4375
 20
5.236906
 30
0.0
  0
POINT
  5
335
330
52F
100
AcDbEntity
  8
HATCH
  6
Continuous
 62
     7
370
    30
100
AcDbPoint
 10
50.46875
 20
5.236906
 30
0.0
  0
POINT
  5
336
330
52F
100
AcDbEntity
  8
HATCH
  6
Continuous
 62
     7
370
    30
100
AcDbPoint
 10
50.5
 20
5.236906
 30
0.0
  0
POINT
  5
337
330
52F
100
AcDbEntity
  8
HATCH
  6
Continuous
 62
     7
370
    30
100
AcDbPoint
 10
50.53125
 20
5.236906
 30
0.0
  0
POINT
  5
338
330
52F
100
AcDbEntity
  8
HATCH
  6
Continuous
 62
     7
370
    30
100
AcDbPoint
 10
50.5625
 20
5.236906
 30
0.0
  0
POINT
  5
339
330
52F
100
AcDbEntity
  8
HATCH
  6
Continuous
 62
     7
370
    30
100
AcDbPoint
 10
50.59375
 20
5.236906
 30
0.0
  0
POINT
  5
33A
330
52F
100
AcDbEntity
  8
HATCH
  6
Continuous
 62
     7
370
    30
100
AcDbPoint
 10
50.625
 20
5.236906
 30
0.0
  0
POINT
  5
33B
330
52F
100
AcDbEntity
  8
HATCH
  6
Continuous
 62
     7
370
    30
100
AcDbPoint
 10
50.65625
 20
5.236906
 30
0.0
  0
POINT
  5
33C
330
52F
100
AcDbEntity
  8
HATCH
  6
Continuous
 62
     7
370
    30
100
AcDbPoint
 10
50.6875
 20
5.236906
 30
0.0
  0
POINT
  5
33D
330
52F
100
AcDbEntity
  8
HATCH
  6
Continuous
 62
     7
370
    30
100
AcDbPoint
 10
50.71875
 20
5.236906
 30
0.0
  0
POINT
  5
33E
330
52F
100
AcDbEntity
  8
HATCH
  6
Continuous
 62
     7
370
    30
100
AcDbPoint
 10
50.75
 20
5.236906
 30
0.0
  0
POINT
  5
33F
330
52F
100
AcDbEntity
  8
HATCH
  6
Continuous
 62
     7
370
    30
100
AcDbPoint
 10
50.328125
 20
5.268156
 30
0.0
  0
POINT
  5
340
330
52F
100
AcDbEntity
  8
HATCH
  6
Continuous
 62
     7
370
    30
100
AcDbPoint
 10
50.359375
 20
5.268156
 30
0.0
  0
POINT
  5
341
330
52F
100
AcDbEntity
  8
HATCH
  6
Continuous
 62
     7
370
    30
100
AcDbPoint
 10
50.390625
 20
5.268156
 30
0.0
  0
POINT
  5
342
330
52F
100
AcDbEntity
  8
HATCH
  6
Continuous
 62
     7
370
    30
100
AcDbPoint
 10
50.421875
 20
5.268156
 30
0.0
  0
POINT
  5
343
330
52F
100
AcDbEntity
  8
HATCH
  6
Continuous
 62
     7
370
    30
100
AcDbPoint
 10
50.453125
 20
5.268156
 30
0.0
  0
POINT
  5
344
330
52F
100
AcDbEntity
  8
HATCH
  6
Continuous
 62
     7
370
    30
100
AcDbPoint
 10
50.484375
 20
5.268156
 30
0.0
  0
POINT
  5
345
330
52F
100
AcDbEntity
  8
HATCH
  6
Continuous
 62
     7
370
    30
100
AcDbPoint
 10
50.515625
 20
5.268156
 30
0.0
  0
POINT
  5
346
330
52F
100
AcDbEntity
  8
HATCH
  6
Continuous
 62
     7
370
    30
100
AcDbPoint
 10
50.546875
 20
5.268156
 30
0.0
  0
POINT
  5
347
330
52F
100
AcDbEntity
  8
HATCH
  6
Continuous
 62
     7
370
    30
100
AcDbPoint
 10
50.578125
 20
5.268156
 30
0.0
  0
POINT
  5
348
330
52F
100
AcDbEntity
  8
HATCH
  6
Continuous
 62
     7
370
    30
100
AcDbPoint
 10
50.609375
 20
5.268156
 30
0.0
  0
POINT
  5
349
330
52F
100
AcDbEntity
  8
HATCH
  6
Continuous
 62
     7
370
    30
100
AcDbPoint
 10
50.640625
 20
5.268156
 30
0.0
  0
POINT
  5
34A
330
52F
100
AcDbEntity
  8
HATCH
  6
Continuous
 62
     7
370
    30
100
AcDbPoint
 10
50.671875
 20
5.268156
 30
0.0
  0
POINT
  5
34B
330
52F
100
AcDbEntity
  8
HATCH
  6
Continuous
 62
     7
370
    30
100
AcDbPoint
 10
50.703125
 20
5.268156
 30
0.0
  0
POINT
  5
34C
330
52F
100
AcDbEntity
  8
HATCH
  6
Continuous
 62
     7
370
    30
100
AcDbPoint
 10
50.734375
 20
5.268156
 30
0.0
  0
POINT
  5
34D
330
52F
100
AcDbEntity
  8
HATCH
  6
Continuous
 62
     7
370
    30
100
AcDbPoint
 10
50.3125
 20
5.299406
 30
0.0
  0
POINT
  5
34E
330
52F
100
AcDbEntity
  8
HATCH
  6
Continuous
 62
     7
370
    30
100
AcDbPoint
 10
50.34375
 20
5.299406
 30
0.0
  0
POINT
  5
34F
330
52F
100
AcDbEntity
  8
HATCH
  6
Continuous
 62
     7
370
    30
100
AcDbPoint
 10
50.375
 20
5.299406
 30
0.0
  0
POINT
  5
350
330
52F
100
AcDbEntity
  8
HATCH
  6
Continuous
 62
     7
370
    30
100
AcDbPoint
 10
50.40625
 20
5.299406
 30
0.0
  0
POINT
  5
351
330
52F
100
AcDbEntity
  8
HATCH
  6
Continuous
 62
     7
370
    30
100
AcDbPoint
 10
50.4375
 20
5.299406
 30
0.0
  0
POINT
  5
352
330
52F
100
AcDbEntity
  8
HATCH
  6
Continuous
 62
     7
370
    30
100
AcDbPoint
 10
50.46875
 20
5.299406
 30
0.0
  0
POINT
  5
353
330
52F
100
AcDbEntity
  8
HATCH
  6
Continuous
 62
     7
370
    30
100
AcDbPoint
 10
50.5
 20
5.299406
 30
0.0
  0
POINT
  5
354
330
52F
100
AcDbEntity
  8
HATCH
  6
Continuous
 62
     7
370
    30
100
AcDbPoint
 10
50.53125
 20
5.299406
 30
0.0
  0
POINT
  5
355
330
52F
100
AcDbEntity
  8
HATCH
  6
Continuous
 62
     7
370
    30
100
AcDbPoint
 10
50.5625
 20
5.299406
 30
0.0
  0
POINT
  5
356
330
52F
100
AcDbEntity
  8
HATCH
  6
Continuous
 62
     7
370
    30
100
AcDbPoint
 10
50.59375
 20
5.299406
 30
0.0
  0
POINT
  5
357
330
52F
100
AcDbEntity
  8
HATCH
  6
Continuous
 62
     7
370
    30
100
AcDbPoint
 10
50.625
 20
5.299406
 30
0.0
  0
POINT
  5
358
330
52F
100
AcDbEntity
  8
HATCH
  6
Continuous
 62
     7
370
    30
100
AcDbPoint
 10
50.65625
 20
5.299406
 30
0.0
  0
POINT
  5
359
330
52F
100
AcDbEntity
  8
HATCH
  6
Continuous
 62
     7
370
    30
100
AcDbPoint
 10
50.6875
 20
5.299406
 30
0.0
  0
POINT
  5
35A
330
52F
100
AcDbEntity
  8
HATCH
  6
Continuous
 62
     7
370
    30
100
AcDbPoint
 10
50.71875
 20
5.299406
 30
0.0
  0
POINT
  5
35B
330
52F
100
AcDbEntity
  8
HATCH
  6
Continuous
 62
     7
370
    30
100
AcDbPoint
 10
50.75
 20
5.299406
 30
0.0
  0
POINT
  5
35C
330
52F
100
AcDbEntity
  8
HATCH
  6
Continuous
 62
     7
370
    30
100
AcDbPoint
 10
50.328125
 20
5.330656
 30
0.0
  0
POINT
  5
35D
330
52F
100
AcDbEntity
  8
HATCH
  6
Continuous
 62
     7
370
    30
100
AcDbPoint
 10
50.359375
 20
5.330656
 30
0.0
  0
POINT
  5
35E
330
52F
100
AcDbEntity
  8
HATCH
  6
Continuous
 62
     7
370
    30
100
AcDbPoint
 10
50.390625
 20
5.330656
 30
0.0
  0
POINT
  5
35F
330
52F
100
AcDbEntity
  8
HATCH
  6
Continuous
 62
     7
370
    30
100
AcDbPoint
 10
50.421875
 20
5.330656
 30
0.0
  0
POINT
  5
360
330
52F
100
AcDbEntity
  8
HATCH
  6
Continuous
 62
     7
370
    30
100
AcDbPoint
 10
50.453125
 20
5.330656
 30
0.0
  0
POINT
  5
361
330
52F
100
AcDbEntity
  8
HATCH
  6
Continuous
 62
     7
370
    30
100
AcDbPoint
 10
50.484375
 20
5.330656
 30
0.0
  0
POINT
  5
362
330
52F
100
AcDbEntity
  8
HATCH
  6
Continuous
 62
     7
370
    30
100
AcDbPoint
 10
50.515625
 20
5.330656
 30
0.0
  0
POINT
  5
363
330
52F
100
AcDbEntity
  8
HATCH
  6
Continuous
 62
     7
370
    30
100
AcDbPoint
 10
50.546875
 20
5.330656
 30
0.0
  0
POINT
  5
364
330
52F
100
AcDbEntity
  8
HATCH
  6
Continuous
 62
     7
370
    30
100
AcDbPoint
 10
50.578125
 20
5.330656
 30
0.0
  0
POINT
  5
365
330
52F
100
AcDbEntity
  8
HATCH
  6
Continuous
 62
     7
370
    30
100
AcDbPoint
 10
50.609375
 20
5.330656
 30
0.0
  0
POINT
  5
366
330
52F
100
AcDbEntity
  8
HATCH
  6
Continuous
 62
     7
370
    30
100
AcDbPoint
 10
50.640625
 20
5.330656
 30
0.0
  0
POINT
  5
367
330
52F
100
AcDbEntity
  8
HATCH
  6
Continuous
 62
     7
370
    30
100
AcDbPoint
 10
50.671875
 20
5.330656
 30
0.0
  0
POINT
  5
368
330
52F
100
AcDbEntity
  8
HATCH
  6
Continuous
 62
     7
370
    30
100
AcDbPoint
 10
50.703125
 20
5.330656
 30
0.0
  0
POINT
  5
369
330
52F
100
AcDbEntity
  8
HATCH
  6
Continuous
 62
     7
370
    30
100
AcDbPoint
 10
50.734375
 20
5.330656
 30
0.0
  0
POINT
  5
36A
330
52F
100
AcDbEntity
  8
HATCH
  6
Continuous
 62
     7
370
    30
100
AcDbPoint
 10
50.3125
 20
5.361906
 30
0.0
  0
POINT
  5
36B
330
52F
100
AcDbEntity
  8
HATCH
  6
Continuous
 62
     7
370
    30
100
AcDbPoint
 10
50.34375
 20
5.361906
 30
0.0
  0
POINT
  5
36C
330
52F
100
AcDbEntity
  8
HATCH
  6
Continuous
 62
     7
370
    30
100
AcDbPoint
 10
50.375
 20
5.361906
 30
0.0
  0
POINT
  5
36D
330
52F
100
AcDbEntity
  8
HATCH
  6
Continuous
 62
     7
370
    30
100
AcDbPoint
 10
50.40625
 20
5.361906
 30
0.0
  0
POINT
  5
36E
330
52F
100
AcDbEntity
  8
HATCH
  6
Continuous
 62
     7
370
    30
100
AcDbPoint
 10
50.4375
 20
5.361906
 30
0.0
  0
POINT
  5
36F
330
52F
100
AcDbEntity
  8
HATCH
  6
Continuous
 62
     7
370
    30
100
AcDbPoint
 10
50.46875
 20
5.361906
 30
0.0
  0
POINT
  5
370
330
52F
100
AcDbEntity
  8
HATCH
  6
Continuous
 62
     7
370
    30
100
AcDbPoint
 10
50.5
 20
5.361906
 30
0.0
  0
POINT
  5
371
330
52F
100
AcDbEntity
  8
HATCH
  6
Continuous
 62
     7
370
    30
100
AcDbPoint
 10
50.53125
 20
5.361906
 30
0.0
  0
POINT
  5
372
330
52F
100
AcDbEntity
  8
HATCH
  6
Continuous
 62
     7
370
    30
100
AcDbPoint
 10
50.5625
 20
5.361906
 30
0.0
  0
POINT
  5
373
330
52F
100
AcDbEntity
  8
HATCH
  6
Continuous
 62
     7
370
    30
100
AcDbPoint
 10
50.59375
 20
5.361906
 30
0.0
  0
POINT
  5
374
330
52F
100
AcDbEntity
  8
HATCH
  6
Continuous
 62
     7
370
    30
100
AcDbPoint
 10
50.625
 20
5.361906
 30
0.0
  0
POINT
  5
375
330
52F
100
AcDbEntity
  8
HATCH
  6
Continuous
 62
     7
370
    30
100
AcDbPoint
 10
50.65625
 20
5.361906
 30
0.0
  0
POINT
  5
376
330
52F
100
AcDbEntity
  8
HATCH
  6
Continuous
 62
     7
370
    30
100
AcDbPoint
 10
50.6875
 20
5.361906
 30
0.0
  0
POINT
  5
377
330
52F
100
AcDbEntity
  8
HATCH
  6
Continuous
 62
     7
370
    30
100
AcDbPoint
 10
50.71875
 20
5.361906
 30
0.0
  0
POINT
  5
378
330
52F
100
AcDbEntity
  8
HATCH
  6
Continuous
 62
     7
370
    30
100
AcDbPoint
 10
50.75
 20
5.361906
 30
0.0
  0
POINT
  5
379
330
52F
100
AcDbEntity
  8
HATCH
  6
Continuous
 62
     7
370
    30
100
AcDbPoint
 10
50.3125
 20
4.861906
 30
0.0
  0
POINT
  5
37A
330
52F
100
AcDbEntity
  8
HATCH
  6
Continuous
 62
     7
370
    30
100
AcDbPoint
 10
50.34375
 20
4.861906
 30
0.0
  0
POINT
  5
37B
330
52F
100
AcDbEntity
  8
HATCH
  6
Continuous
 62
     7
370
    30
100
AcDbPoint
 10
50.375
 20
4.861906
 30
0.0
  0
POINT
  5
37C
330
52F
100
AcDbEntity
  8
HATCH
  6
Continuous
 62
     7
370
    30
100
AcDbPoint
 10
50.40625
 20
4.861906
 30
0.0
  0
POINT
  5
37D
330
52F
100
AcDbEntity
  8
HATCH
  6
Continuous
 62
     7
370
    30
100
AcDbPoint
 10
50.4375
 20
4.861906
 30
0.0
  0
POINT
  5
37E
330
52F
100
AcDbEntity
  8
HATCH
  6
Continuous
 62
     7
370
    30
100
AcDbPoint
 10
50.46875
 20
4.861906
 30
0.0
  0
POINT
  5
37F
330
52F
100
AcDbEntity
  8
HATCH
  6
Continuous
 62
     7
370
    30
100
AcDbPoint
 10
50.5
 20
4.861906
 30
0.0
  0
POINT
  5
380
330
52F
100
AcDbEntity
  8
HATCH
  6
Continuous
 62
     7
370
    30
100
AcDbPoint
 10
50.53125
 20
4.861906
 30
0.0
  0
POINT
  5
381
330
52F
100
AcDbEntity
  8
HATCH
  6
Continuous
 62
     7
370
    30
100
AcDbPoint
 10
50.5625
 20
4.861906
 30
0.0
  0
POINT
  5
382
330
52F
100
AcDbEntity
  8
HATCH
  6
Continuous
 62
     7
370
    30
100
AcDbPoint
 10
50.59375
 20
4.861906
 30
0.0
  0
POINT
  5
383
330
52F
100
AcDbEntity
  8
HATCH
  6
Continuous
 62
     7
370
    30
100
AcDbPoint
 10
50.625
 20
4.861906
 30
0.0
  0
POINT
  5
384
330
52F
100
AcDbEntity
  8
HATCH
  6
Continuous
 62
     7
370
    30
100
AcDbPoint
 10
50.65625
 20
4.861906
 30
0.0
  0
POINT
  5
385
330
52F
100
AcDbEntity
  8
HATCH
  6
Continuous
 62
     7
370
    30
100
AcDbPoint
 10
50.6875
 20
4.861906
 30
0.0
  0
POINT
  5
386
330
52F
100
AcDbEntity
  8
HATCH
  6
Continuous
 62
     7
370
    30
100
AcDbPoint
 10
50.71875
 20
4.861906
 30
0.0
  0
POINT
  5
387
330
52F
100
AcDbEntity
  8
HATCH
  6
Continuous
 62
     7
370
    30
100
AcDbPoint
 10
50.75
 20
4.861906
 30
0.0
  0
POINT
  5
388
330
52F
100
AcDbEntity
  8
HATCH
  6
Continuous
 62
     7
370
    30
100
AcDbPoint
 10
50.328125
 20
4.830656
 30
0.0
  0
POINT
  5
389
330
52F
100
AcDbEntity
  8
HATCH
  6
Continuous
 62
     7
370
    30
100
AcDbPoint
 10
50.359375
 20
4.830656
 30
0.0
  0
POINT
  5
38A
330
52F
100
AcDbEntity
  8
HATCH
  6
Continuous
 62
     7
370
    30
100
AcDbPoint
 10
50.390625
 20
4.830656
 30
0.0
  0
POINT
  5
38B
330
52F
100
AcDbEntity
  8
HATCH
  6
Continuous
 62
     7
370
    30
100
AcDbPoint
 10
50.421875
 20
4.830656
 30
0.0
  0
POINT
  5
38C
330
52F
100
AcDbEntity
  8
HATCH
  6
Continuous
 62
     7
370
    30
100
AcDbPoint
 10
50.453125
 20
4.830656
 30
0.0
  0
POINT
  5
38D
330
52F
100
AcDbEntity
  8
HATCH
  6
Continuous
 62
     7
370
    30
100
AcDbPoint
 10
50.484375
 20
4.830656
 30
0.0
  0
POINT
  5
38E
330
52F
100
AcDbEntity
  8
HATCH
  6
Continuous
 62
     7
370
    30
100
AcDbPoint
 10
50.515625
 20
4.830656
 30
0.0
  0
POINT
  5
38F
330
52F
100
AcDbEntity
  8
HATCH
  6
Continuous
 62
     7
370
    30
100
AcDbPoint
 10
50.546875
 20
4.830656
 30
0.0
  0
POINT
  5
390
330
52F
100
AcDbEntity
  8
HATCH
  6
Continuous
 62
     7
370
    30
100
AcDbPoint
 10
50.578125
 20
4.830656
 30
0.0
  0
POINT
  5
391
330
52F
100
AcDbEntity
  8
HATCH
  6
Continuous
 62
     7
370
    30
100
AcDbPoint
 10
50.609375
 20
4.830656
 30
0.0
  0
POINT
  5
392
330
52F
100
AcDbEntity
  8
HATCH
  6
Continuous
 62
     7
370
    30
100
AcDbPoint
 10
50.640625
 20
4.830656
 30
0.0
  0
POINT
  5
393
330
52F
100
AcDbEntity
  8
HATCH
  6
Continuous
 62
     7
370
    30
100
AcDbPoint
 10
50.671875
 20
4.830656
 30
0.0
  0
POINT
  5
394
330
52F
100
AcDbEntity
  8
HATCH
  6
Continuous
 62
     7
370
    30
100
AcDbPoint
 10
50.703125
 20
4.830656
 30
0.0
  0
POINT
  5
395
330
52F
100
AcDbEntity
  8
HATCH
  6
Continuous
 62
     7
370
    30
100
AcDbPoint
 10
50.734375
 20
4.830656
 30
0.0
  0
POINT
  5
396
330
52F
100
AcDbEntity
  8
HATCH
  6
Continuous
 62
     7
370
    30
100
AcDbPoint
 10
50.3125
 20
4.799406
 30
0.0
  0
POINT
  5
397
330
52F
100
AcDbEntity
  8
HATCH
  6
Continuous
 62
     7
370
    30
100
AcDbPoint
 10
50.34375
 20
4.799406
 30
0.0
  0
POINT
  5
398
330
52F
100
AcDbEntity
  8
HATCH
  6
Continuous
 62
     7
370
    30
100
AcDbPoint
 10
50.375
 20
4.799406
 30
0.0
  0
POINT
  5
399
330
52F
100
AcDbEntity
  8
HATCH
  6
Continuous
 62
     7
370
    30
100
AcDbPoint
 10
50.40625
 20
4.799406
 30
0.0
  0
POINT
  5
39A
330
52F
100
AcDbEntity
  8
HATCH
  6
Continuous
 62
     7
370
    30
100
AcDbPoint
 10
50.4375
 20
4.799406
 30
0.0
  0
POINT
  5
39B
330
52F
100
AcDbEntity
  8
HATCH
  6
Continuous
 62
     7
370
    30
100
AcDbPoint
 10
50.46875
 20
4.799406
 30
0.0
  0
POINT
  5
39C
330
52F
100
AcDbEntity
  8
HATCH
  6
Continuous
 62
     7
370
    30
100
AcDbPoint
 10
50.5
 20
4.799406
 30
0.0
  0
POINT
  5
39D
330
52F
100
AcDbEntity
  8
HATCH
  6
Continuous
 62
     7
370
    30
100
AcDbPoint
 10
50.53125
 20
4.799406
 30
0.0
  0
POINT
  5
39E
330
52F
100
AcDbEntity
  8
HATCH
  6
Continuous
 62
     7
370
    30
100
AcDbPoint
 10
50.5625
 20
4.799406
 30
0.0
  0
POINT
  5
39F
330
52F
100
AcDbEntity
  8
HATCH
  6
Continuous
 62
     7
370
    30
100
AcDbPoint
 10
50.59375
 20
4.799406
 30
0.0
  0
POINT
  5
3A0
330
52F
100
AcDbEntity
  8
HATCH
  6
Continuous
 62
     7
370
    30
100
AcDbPoint
 10
50.625
 20
4.799406
 30
0.0
  0
POINT
  5
3A1
330
52F
100
AcDbEntity
  8
HATCH
  6
Continuous
 62
     7
370
    30
100
AcDbPoint
 10
50.65625
 20
4.799406
 30
0.0
  0
POINT
  5
3A2
330
52F
100
AcDbEntity
  8
HATCH
  6
Continuous
 62
     7
370
    30
100
AcDbPoint
 10
50.6875
 20
4.799406
 30
0.0
  0
POINT
  5
3A3
330
52F
100
AcDbEntity
  8
HATCH
  6
Continuous
 62
     7
370
    30
100
AcDbPoint
 10
50.71875
 20
4.799406
 30
0.0
  0
POINT
  5
3A4
330
52F
100
AcDbEntity
  8
HATCH
  6
Continuous
 62
     7
370
    30
100
AcDbPoint
 10
50.75
 20
4.799406
 30
0.0
  0
POINT
  5
3A5
330
52F
100
AcDbEntity
  8
HATCH
  6
Continuous
 62
     7
370
    30
100
AcDbPoint
 10
50.328125
 20
4.768156
 30
0.0
  0
POINT
  5
3A6
330
52F
100
AcDbEntity
  8
HATCH
  6
Continuous
 62
     7
370
    30
100
AcDbPoint
 10
50.359375
 20
4.768156
 30
0.0
  0
POINT
  5
3A7
330
52F
100
AcDbEntity
  8
HATCH
  6
Continuous
 62
     7
370
    30
100
AcDbPoint
 10
50.390625
 20
4.768156
 30
0.0
  0
POINT
  5
3A8
330
52F
100
AcDbEntity
  8
HATCH
  6
Continuous
 62
     7
370
    30
100
AcDbPoint
 10
50.421875
 20
4.768156
 30
0.0
  0
POINT
  5
3A9
330
52F
100
AcDbEntity
  8
HATCH
  6
Continuous
 62
     7
370
    30
100
AcDbPoint
 10
50.453125
 20
4.768156
 30
0.0
  0
POINT
  5
3AA
330
52F
100
AcDbEntity
  8
HATCH
  6
Continuous
 62
     7
370
    30
100
AcDbPoint
 10
50.578125
 20
4.768156
 30
0.0
  0
POINT
  5
3AB
330
52F
100
AcDbEntity
  8
HATCH
  6
Continuous
 62
     7
370
    30
100
AcDbPoint
 10
50.609375
 20
4.768156
 30
0.0
  0
POINT
  5
3AC
330
52F
100
AcDbEntity
  8
HATCH
  6
Continuous
 62
     7
370
    30
100
AcDbPoint
 10
50.640625
 20
4.768156
 30
0.0
  0
POINT
  5
3AD
330
52F
100
AcDbEntity
  8
HATCH
  6
Continuous
 62
     7
370
    30
100
AcDbPoint
 10
50.671875
 20
4.768156
 30
0.0
  0
POINT
  5
3AE
330
52F
100
AcDbEntity
  8
HATCH
  6
Continuous
 62
     7
370
    30
100
AcDbPoint
 10
50.703125
 20
4.768156
 30
0.0
  0
POINT
  5
3AF
330
52F
100
AcDbEntity
  8
HATCH
  6
Continuous
 62
     7
370
    30
100
AcDbPoint
 10
50.734375
 20
4.768156
 30
0.0
  0
POINT
  5
3B0
330
52F
100
AcDbEntity
  8
HATCH
  6
Continuous
 62
     7
370
    30
100
AcDbPoint
 10
50.3125
 20
4.736906
 30
0.0
  0
POINT
  5
3B1
330
52F
100
AcDbEntity
  8
HATCH
  6
Continuous
 62
     7
370
    30
100
AcDbPoint
 10
50.34375
 20
4.736906
 30
0.0
  0
POINT
  5
3B2
330
52F
100
AcDbEntity
  8
HATCH
  6
Continuous
 62
     7
370
    30
100
AcDbPoint
 10
50.375
 20
4.736906
 30
0.0
  0
POINT
  5
3B3
330
52F
100
AcDbEntity
  8
HATCH
  6
Continuous
 62
     7
370
    30
100
AcDbPoint
 10
50.40625
 20
4.736906
 30
0.0
  0
POINT
  5
3B4
330
52F
100
AcDbEntity
  8
HATCH
  6
Continuous
 62
     7
370
    30
100
AcDbPoint
 10
50.4375
 20
4.736906
 30
0.0
  0
POINT
  5
3B5
330
52F
100
AcDbEntity
  8
HATCH
  6
Continuous
 62
     7
370
    30
100
AcDbPoint
 10
50.625
 20
4.736906
 30
0.0
  0
POINT
  5
3B6
330
52F
100
AcDbEntity
  8
HATCH
  6
Continuous
 62
     7
370
    30
100
AcDbPoint
 10
50.65625
 20
4.736906
 30
0.0
  0
POINT
  5
3B7
330
52F
100
AcDbEntity
  8
HATCH
  6
Continuous
 62
     7
370
    30
100
AcDbPoint
 10
50.6875
 20
4.736906
 30
0.0
  0
POINT
  5
3B8
330
52F
100
AcDbEntity
  8
HATCH
  6
Continuous
 62
     7
370
    30
100
AcDbPoint
 10
50.71875
 20
4.736906
 30
0.0
  0
POINT
  5
3B9
330
52F
100
AcDbEntity
  8
HATCH
  6
Continuous
 62
     7
370
    30
100
AcDbPoint
 10
50.75
 20
4.736906
 30
0.0
  0
POINT
  5
3BA
330
52F
100
AcDbEntity
  8
HATCH
  6
Continuous
 62
     7
370
    30
100
AcDbPoint
 10
50.328125
 20
4.705656
 30
0.0
  0
POINT
  5
3BB
330
52F
100
AcDbEntity
  8
HATCH
  6
Continuous
 62
     7
370
    30
100
AcDbPoint
 10
50.359375
 20
4.705656
 30
0.0
  0
POINT
  5
3BC
330
52F
100
AcDbEntity
  8
HATCH
  6
Continuous
 62
     7
370
    30
100
AcDbPoint
 10
50.390625
 20
4.705656
 30
0.0
  0
POINT
  5
3BD
330
52F
100
AcDbEntity
  8
HATCH
  6
Continuous
 62
     7
370
    30
100
AcDbPoint
 10
50.421875
 20
4.705656
 30
0.0
  0
POINT
  5
3BE
330
52F
100
AcDbEntity
  8
HATCH
  6
Continuous
 62
     7
370
    30
100
AcDbPoint
 10
50.640625
 20
4.705656
 30
0.0
  0
POINT
  5
3BF
330
52F
100
AcDbEntity
  8
HATCH
  6
Continuous
 62
     7
370
    30
100
AcDbPoint
 10
50.671875
 20
4.705656
 30
0.0
  0
POINT
  5
3C0
330
52F
100
AcDbEntity
  8
HATCH
  6
Continuous
 62
     7
370
    30
100
AcDbPoint
 10
50.703125
 20
4.705656
 30
0.0
  0
POINT
  5
3C1
330
52F
100
AcDbEntity
  8
HATCH
  6
Continuous
 62
     7
370
    30
100
AcDbPoint
 10
50.734375
 20
4.705656
 30
0.0
  0
POINT
  5
3C2
330
52F
100
AcDbEntity
  8
HATCH
  6
Continuous
 62
     7
370
    30
100
AcDbPoint
 10
50.3125
 20
4.674406
 30
0.0
  0
POINT
  5
3C3
330
52F
100
AcDbEntity
  8
HATCH
  6
Continuous
 62
     7
370
    30
100
AcDbPoint
 10
50.34375
 20
4.674406
 30
0.0
  0
POINT
  5
3C4
330
52F
100
AcDbEntity
  8
HATCH
  6
Continuous
 62
     7
370
    30
100
AcDbPoint
 10
50.375
 20
4.674406
 30
0.0
  0
POINT
  5
3C5
330
52F
100
AcDbEntity
  8
HATCH
  6
Continuous
 62
     7
370
    30
100
AcDbPoint
 10
50.40625
 20
4.674406
 30
0.0
  0
POINT
  5
3C6
330
52F
100
AcDbEntity
  8
HATCH
  6
Continuous
 62
     7
370
    30
100
AcDbPoint
 10
50.4375
 20
4.674406
 30
0.0
  0
POINT
  5
3C7
330
52F
100
AcDbEntity
  8
HATCH
  6
Continuous
 62
     7
370
    30
100
AcDbPoint
 10
50.625
 20
4.674406
 30
0.0
  0
POINT
  5
3C8
330
52F
100
AcDbEntity
  8
HATCH
  6
Continuous
 62
     7
370
    30
100
AcDbPoint
 10
50.65625
 20
4.674406
 30
0.0
  0
POINT
  5
3C9
330
52F
100
AcDbEntity
  8
HATCH
  6
Continuous
 62
     7
370
    30
100
AcDbPoint
 10
50.6875
 20
4.674406
 30
0.0
  0
POINT
  5
3CA
330
52F
100
AcDbEntity
  8
HATCH
  6
Continuous
 62
     7
370
    30
100
AcDbPoint
 10
50.71875
 20
4.674406
 30
0.0
  0
POINT
  5
3CB
330
52F
100
AcDbEntity
  8
HATCH
  6
Continuous
 62
     7
370
    30
100
AcDbPoint
 10
50.75
 20
4.674406
 30
0.0
  0
POINT
  5
3CC
330
52F
100
AcDbEntity
  8
HATCH
  6
Continuous
 62
     7
370
    30
100
AcDbPoint
 10
50.328125
 20
4.643156
 30
0.0
  0
POINT
  5
3CD
330
52F
100
AcDbEntity
  8
HATCH
  6
Continuous
 62
     7
370
    30
100
AcDbPoint
 10
50.359375
 20
4.643156
 30
0.0
  0
POINT
  5
3CE
330
52F
100
AcDbEntity
  8
HATCH
  6
Continuous
 62
     7
370
    30
100
AcDbPoint
 10
50.390625
 20
4.643156
 30
0.0
  0
POINT
  5
3CF
330
52F
100
AcDbEntity
  8
HATCH
  6
Continuous
 62
     7
370
    30
100
AcDbPoint
 10
50.421875
 20
4.643156
 30
0.0
  0
POINT
  5
3D0
330
52F
100
AcDbEntity
  8
HATCH
  6
Continuous
 62
     7
370
    30
100
AcDbPoint
 10
50.453125
 20
4.643156
 30
0.0
  0
POINT
  5
3D1
330
52F
100
AcDbEntity
  8
HATCH
  6
Continuous
 62
     7
370
    30
100
AcDbPoint
 10
50.609375
 20
4.643156
 30
0.0
  0
POINT
  5
3D2
330
52F
100
AcDbEntity
  8
HATCH
  6
Continuous
 62
     7
370
    30
100
AcDbPoint
 10
50.640625
 20
4.643156
 30
0.0
  0
POINT
  5
3D3
330
52F
100
AcDbEntity
  8
HATCH
  6
Continuous
 62
     7
370
    30
100
AcDbPoint
 10
50.671875
 20
4.643156
 30
0.0
  0
POINT
  5
3D4
330
52F
100
AcDbEntity
  8
HATCH
  6
Continuous
 62
     7
370
    30
100
AcDbPoint
 10
50.703125
 20
4.643156
 30
0.0
  0
POINT
  5
3D5
330
52F
100
AcDbEntity
  8
HATCH
  6
Continuous
 62
     7
370
    30
100
AcDbPoint
 10
50.734375
 20
4.643156
 30
0.0
  0
POINT
  5
3D6
330
52F
100
AcDbEntity
  8
HATCH
  6
Continuous
 62
     7
370
    30
100
AcDbPoint
 10
50.3125
 20
4.611906
 30
0.0
  0
POINT
  5
3D7
330
52F
100
AcDbEntity
  8
HATCH
  6
Continuous
 62
     7
370
    30
100
AcDbPoint
 10
50.34375
 20
4.611906
 30
0.0
  0
POINT
  5
3D8
330
52F
100
AcDbEntity
  8
HATCH
  6
Continuous
 62
     7
370
    30
100
AcDbPoint
 10
50.375
 20
4.611906
 30
0.0
  0
POINT
  5
3D9
330
52F
100
AcDbEntity
  8
HATCH
  6
Continuous
 62
     7
370
    30
100
AcDbPoint
 10
50.40625
 20
4.611906
 30
0.0
  0
POINT
  5
3DA
330
52F
100
AcDbEntity
  8
HATCH
  6
Continuous
 62
     7
370
    30
100
AcDbPoint
 10
50.4375
 20
4.611906
 30
0.0
  0
POINT
  5
3DB
330
52F
100
AcDbEntity
  8
HATCH
  6
Continuous
 62
     7
370
    30
100
AcDbPoint
 10
50.46875
 20
4.611906
 30
0.0
  0
POINT
  5
3DC
330
52F
100
AcDbEntity
  8
HATCH
  6
Continuous
 62
     7
370
    30
100
AcDbPoint
 10
50.5
 20
4.611906
 30
0.0
  0
POINT
  5
3DD
330
52F
100
AcDbEntity
  8
HATCH
  6
Continuous
 62
     7
370
    30
100
AcDbPoint
 10
50.53125
 20
4.611906
 30
0.0
  0
POINT
  5
3DE
330
52F
100
AcDbEntity
  8
HATCH
  6
Continuous
 62
     7
370
    30
100
AcDbPoint
 10
50.5625
 20
4.611906
 30
0.0
  0
POINT
  5
3DF
330
52F
100
AcDbEntity
  8
HATCH
  6
Continuous
 62
     7
370
    30
100
AcDbPoint
 10
50.59375
 20
4.611906
 30
0.0
  0
POINT
  5
3E0
330
52F
100
AcDbEntity
  8
HATCH
  6
Continuous
 62
     7
370
    30
100
AcDbPoint
 10
50.625
 20
4.611906
 30
0.0
  0
POINT
  5
3E1
330
52F
100
AcDbEntity
  8
HATCH
  6
Continuous
 62
     7
370
    30
100
AcDbPoint
 10
50.65625
 20
4.611906
 30
0.0
  0
POINT
  5
3E2
330
52F
100
AcDbEntity
  8
HATCH
  6
Continuous
 62
     7
370
    30
100
AcDbPoint
 10
50.6875
 20
4.611906
 30
0.0
  0
POINT
  5
3E3
330
52F
100
AcDbEntity
  8
HATCH
  6
Continuous
 62
     7
370
    30
100
AcDbPoint
 10
50.71875
 20
4.611906
 30
0.0
  0
POINT
  5
3E4
330
52F
100
AcDbEntity
  8
HATCH
  6
Continuous
 62
     7
370
    30
100
AcDbPoint
 10
50.75
 20
4.611906
 30
0.0
  0
POINT
  5
3E5
330
52F
100
AcDbEntity
  8
HATCH
  6
Continuous
 62
     7
370
    30
100
AcDbPoint
 10
50.328125
 20
4.580656
 30
0.0
  0
POINT
  5
3E6
330
52F
100
AcDbEntity
  8
HATCH
  6
Continuous
 62
     7
370
    30
100
AcDbPoint
 10
50.359375
 20
4.580656
 30
0.0
  0
POINT
  5
3E7
330
52F
100
AcDbEntity
  8
HATCH
  6
Continuous
 62
     7
370
    30
100
AcDbPoint
 10
50.390625
 20
4.580656
 30
0.0
  0
POINT
  5
3E8
330
52F
100
AcDbEntity
  8
HATCH
  6
Continuous
 62
     7
370
    30
100
AcDbPoint
 10
50.421875
 20
4.580656
 30
0.0
  0
POINT
  5
3E9
330
52F
100
AcDbEntity
  8
HATCH
  6
Continuous
 62
     7
370
    30
100
AcDbPoint
 10
50.453125
 20
4.580656
 30
0.0
  0
POINT
  5
3EA
330
52F
100
AcDbEntity
  8
HATCH
  6
Continuous
 62
     7
370
    30
100
AcDbPoint
 10
50.484375
 20
4.580656
 30
0.0
  0
POINT
  5
3EB
330
52F
100
AcDbEntity
  8
HATCH
  6
Continuous
 62
     7
370
    30
100
AcDbPoint
 10
50.515625
 20
4.580656
 30
0.0
  0
POINT
  5
3EC
330
52F
100
AcDbEntity
  8
HATCH
  6
Continuous
 62
     7
370
    30
100
AcDbPoint
 10
50.546875
 20
4.580656
 30
0.0
  0
POINT
  5
3ED
330
52F
100
AcDbEntity
  8
HATCH
  6
Continuous
 62
     7
370
    30
100
AcDbPoint
 10
50.578125
 20
4.580656
 30
0.0
  0
POINT
  5
3EE
330
52F
100
AcDbEntity
  8
HATCH
  6
Continuous
 62
     7
370
    30
100
AcDbPoint
 10
50.609375
 20
4.580656
 30
0.0
  0
POINT
  5
3EF
330
52F
100
AcDbEntity
  8
HATCH
  6
Continuous
 62
     7
370
    30
100
AcDbPoint
 10
50.640625
 20
4.580656
 30
0.0
  0
POINT
  5
3F0
330
52F
100
AcDbEntity
  8
HATCH
  6
Continuous
 62
     7
370
    30
100
AcDbPoint
 10
50.671875
 20
4.580656
 30
0.0
  0
POINT
  5
3F1
330
52F
100
AcDbEntity
  8
HATCH
  6
Continuous
 62
     7
370
    30
100
AcDbPoint
 10
50.703125
 20
4.580656
 30
0.0
  0
POINT
  5
3F2
330
52F
100
AcDbEntity
  8
HATCH
  6
Continuous
 62
     7
370
    30
100
AcDbPoint
 10
50.734375
 20
4.580656
 30
0.0
  0
POINT
  5
3F3
330
52F
100
AcDbEntity
  8
HATCH
  6
Continuous
 62
     7
370
    30
100
AcDbPoint
 10
50.3125
 20
4.549406
 30
0.0
  0
POINT
  5
3F4
330
52F
100
AcDbEntity
  8
HATCH
  6
Continuous
 62
     7
370
    30
100
AcDbPoint
 10
50.34375
 20
4.549406
 30
0.0
  0
POINT
  5
3F5
330
52F
100
AcDbEntity
  8
HATCH
  6
Continuous
 62
     7
370
    30
100
AcDbPoint
 10
50.375
 20
4.549406
 30
0.0
  0
POINT
  5
3F6
330
52F
100
AcDbEntity
  8
HATCH
  6
Continuous
 62
     7
370
    30
100
AcDbPoint
 10
50.40625
 20
4.549406
 30
0.0
  0
POINT
  5
3F7
330
52F
100
AcDbEntity
  8
HATCH
  6
Continuous
 62
     7
370
    30
100
AcDbPoint
 10
50.4375
 20
4.549406
 30
0.0
  0
POINT
  5
3F8
330
52F
100
AcDbEntity
  8
HATCH
  6
Continuous
 62
     7
370
    30
100
AcDbPoint
 10
50.46875
 20
4.549406
 30
0.0
  0
POINT
  5
3F9
330
52F
100
AcDbEntity
  8
HATCH
  6
Continuous
 62
     7
370
    30
100
AcDbPoint
 10
50.5
 20
4.549406
 30
0.0
  0
POINT
  5
3FA
330
52F
100
AcDbEntity
  8
HATCH
  6
Continuous
 62
     7
370
    30
100
AcDbPoint
 10
50.53125
 20
4.549406
 30
0.0
  0
POINT
  5
3FB
330
52F
100
AcDbEntity
  8
HATCH
  6
Continuous
 62
     7
370
    30
100
AcDbPoint
 10
50.5625
 20
4.549406
 30
0.0
  0
POINT
  5
3FC
330
52F
100
AcDbEntity
  8
HATCH
  6
Continuous
 62
     7
370
    30
100
AcDbPoint
 10
50.59375
 20
4.549406
 30
0.0
  0
POINT
  5
3FD
330
52F
100
AcDbEntity
  8
HATCH
  6
Continuous
 62
     7
370
    30
100
AcDbPoint
 10
50.625
 20
4.549406
 30
0.0
  0
POINT
  5
3FE
330
52F
100
AcDbEntity
  8
HATCH
  6
Continuous
 62
     7
370
    30
100
AcDbPoint
 10
50.65625
 20
4.549406
 30
0.0
  0
POINT
  5
3FF
330
52F
100
AcDbEntity
  8
HATCH
  6
Continuous
 62
     7
370
    30
100
AcDbPoint
 10
50.6875
 20
4.549406
 30
0.0
  0
POINT
  5
400
330
52F
100
AcDbEntity
  8
HATCH
  6
Continuous
 62
     7
370
    30
100
AcDbPoint
 10
50.71875
 20
4.549406
 30
0.0
  0
POINT
  5
401
330
52F
100
AcDbEntity
  8
HATCH
  6
Continuous
 62
     7
370
    30
100
AcDbPoint
 10
50.75
 20
4.549406
 30
0.0
  0
POINT
  5
402
330
52F
100
AcDbEntity
  8
HATCH
  6
Continuous
 62
     7
370
    30
100
AcDbPoint
 10
50.328125
 20
4.518156
 30
0.0
  0
POINT
  5
403
330
52F
100
AcDbEntity
  8
HATCH
  6
Continuous
 62
     7
370
    30
100
AcDbPoint
 10
50.359375
 20
4.518156
 30
0.0
  0
POINT
  5
404
330
52F
100
AcDbEntity
  8
HATCH
  6
Continuous
 62
     7
370
    30
100
AcDbPoint
 10
50.390625
 20
4.518156
 30
0.0
  0
POINT
  5
405
330
52F
100
AcDbEntity
  8
HATCH
  6
Continuous
 62
     7
370
    30
100
AcDbPoint
 10
50.421875
 20
4.518156
 30
0.0
  0
POINT
  5
406
330
52F
100
AcDbEntity
  8
HATCH
  6
Continuous
 62
     7
370
    30
100
AcDbPoint
 10
50.453125
 20
4.518156
 30
0.0
  0
POINT
  5
407
330
52F
100
AcDbEntity
  8
HATCH
  6
Continuous
 62
     7
370
    30
100
AcDbPoint
 10
50.484375
 20
4.518156
 30
0.0
  0
POINT
  5
408
330
52F
100
AcDbEntity
  8
HATCH
  6
Continuous
 62
     7
370
    30
100
AcDbPoint
 10
50.515625
 20
4.518156
 30
0.0
  0
POINT
  5
409
330
52F
100
AcDbEntity
  8
HATCH
  6
Continuous
 62
     7
370
    30
100
AcDbPoint
 10
50.546875
 20
4.518156
 30
0.0
  0
POINT
  5
40A
330
52F
100
AcDbEntity
  8
HATCH
  6
Continuous
 62
     7
370
    30
100
AcDbPoint
 10
50.578125
 20
4.518156
 30
0.0
  0
POINT
  5
40B
330
52F
100
AcDbEntity
  8
HATCH
  6
Continuous
 62
     7
370
    30
100
AcDbPoint
 10
50.609375
 20
4.518156
 30
0.0
  0
POINT
  5
40C
330
52F
100
AcDbEntity
  8
HATCH
  6
Continuous
 62
     7
370
    30
100
AcDbPoint
 10
50.640625
 20
4.518156
 30
0.0
  0
POINT
  5
40D
330
52F
100
AcDbEntity
  8
HATCH
  6
Continuous
 62
     7
370
    30
100
AcDbPoint
 10
50.671875
 20
4.518156
 30
0.0
  0
POINT
  5
40E
330
52F
100
AcDbEntity
  8
HATCH
  6
Continuous
 62
     7
370
    30
100
AcDbPoint
 10
50.703125
 20
4.518156
 30
0.0
  0
POINT
  5
40F
330
52F
100
AcDbEntity
  8
HATCH
  6
Continuous
 62
     7
370
    30
100
AcDbPoint
 10
50.734375
 20
4.518156
 30
0.0
  0
POINT
  5
410
330
52F
100
AcDbEntity
  8
HATCH
  6
Continuous
 62
     7
370
    30
100
AcDbPoint
 10
50.3125
 20
4.486906
 30
0.0
  0
POINT
  5
411
330
52F
100
AcDbEntity
  8
HATCH
  6
Continuous
 62
     7
370
    30
100
AcDbPoint
 10
50.34375
 20
4.486906
 30
0.0
  0
POINT
  5
412
330
52F
100
AcDbEntity
  8
HATCH
  6
Continuous
 62
     7
370
    30
100
AcDbPoint
 10
50.375
 20
4.486906
 30
0.0
  0
POINT
  5
413
330
52F
100
AcDbEntity
  8
HATCH
  6
Continuous
 62
     7
370
    30
100
AcDbPoint
 10
50.40625
 20
4.486906
 30
0.0
  0
POINT
  5
414
330
52F
100
AcDbEntity
  8
HATCH
  6
Continuous
 62
     7
370
    30
100
AcDbPoint
 10
50.4375
 20
4.486906
 30
0.0
  0
POINT
  5
415
330
52F
100
AcDbEntity
  8
HATCH
  6
Continuous
 62
     7
370
    30
100
AcDbPoint
 10
50.46875
 20
4.486906
 30
0.0
  0
POINT
  5
416
330
52F
100
AcDbEntity
  8
HATCH
  6
Continuous
 62
     7
370
    30
100
AcDbPoint
 10
50.5
 20
4.486906
 30
0.0
  0
POINT
  5
417
330
52F
100
AcDbEntity
  8
HATCH
  6
Continuous
 62
     7
370
    30
100
AcDbPoint
 10
50.53125
 20
4.486906
 30
0.0
  0
POINT
  5
418
330
52F
100
AcDbEntity
  8
HATCH
  6
Continuous
 62
     7
370
    30
100
AcDbPoint
 10
50.5625
 20
4.486906
 30
0.0
  0
POINT
  5
419
330
52F
100
AcDbEntity
  8
HATCH
  6
Continuous
 62
     7
370
    30
100
AcDbPoint
 10
50.59375
 20
4.486906
 30
0.0
  0
POINT
  5
41A
330
52F
100
AcDbEntity
  8
HATCH
  6
Continuous
 62
     7
370
    30
100
AcDbPoint
 10
50.625
 20
4.486906
 30
0.0
  0
POINT
  5
41B
330
52F
100
AcDbEntity
  8
HATCH
  6
Continuous
 62
     7
370
    30
100
AcDbPoint
 10
50.65625
 20
4.486906
 30
0.0
  0
POINT
  5
41C
330
52F
100
AcDbEntity
  8
HATCH
  6
Continuous
 62
     7
370
    30
100
AcDbPoint
 10
50.6875
 20
4.486906
 30
0.0
  0
POINT
  5
41D
330
52F
100
AcDbEntity
  8
HATCH
  6
Continuous
 62
     7
370
    30
100
AcDbPoint
 10
50.71875
 20
4.486906
 30
0.0
  0
POINT
  5
41E
330
52F
100
AcDbEntity
  8
HATCH
  6
Continuous
 62
     7
370
    30
100
AcDbPoint
 10
50.75
 20
4.486906
 30
0.0
  0
POINT
  5
41F
330
52F
100
AcDbEntity
  8
HATCH
  6
Continuous
 62
     7
370
    30
100
AcDbPoint
 10
50.328125
 20
4.455656
 30
0.0
  0
POINT
  5
420
330
52F
100
AcDbEntity
  8
HATCH
  6
Continuous
 62
     7
370
    30
100
AcDbPoint
 10
50.359375
 20
4.455656
 30
0.0
  0
POINT
  5
421
330
52F
100
AcDbEntity
  8
HATCH
  6
Continuous
 62
     7
370
    30
100
AcDbPoint
 10
50.390625
 20
4.455656
 30
0.0
  0
POINT
  5
422
330
52F
100
AcDbEntity
  8
HATCH
  6
Continuous
 62
     7
370
    30
100
AcDbPoint
 10
50.421875
 20
4.455656
 30
0.0
  0
POINT
  5
423
330
52F
100
AcDbEntity
  8
HATCH
  6
Continuous
 62
     7
370
    30
100
AcDbPoint
 10
50.453125
 20
4.455656
 30
0.0
  0
POINT
  5
424
330
52F
100
AcDbEntity
  8
HATCH
  6
Continuous
 62
     7
370
    30
100
AcDbPoint
 10
50.484375
 20
4.455656
 30
0.0
  0
POINT
  5
425
330
52F
100
AcDbEntity
  8
HATCH
  6
Continuous
 62
     7
370
    30
100
AcDbPoint
 10
50.515625
 20
4.455656
 30
0.0
  0
POINT
  5
426
330
52F
100
AcDbEntity
  8
HATCH
  6
Continuous
 62
     7
370
    30
100
AcDbPoint
 10
50.546875
 20
4.455656
 30
0.0
  0
POINT
  5
427
330
52F
100
AcDbEntity
  8
HATCH
  6
Continuous
 62
     7
370
    30
100
AcDbPoint
 10
50.578125
 20
4.455656
 30
0.0
  0
POINT
  5
428
330
52F
100
AcDbEntity
  8
HATCH
  6
Continuous
 62
     7
370
    30
100
AcDbPoint
 10
50.609375
 20
4.455656
 30
0.0
  0
POINT
  5
429
330
52F
100
AcDbEntity
  8
HATCH
  6
Continuous
 62
     7
370
    30
100
AcDbPoint
 10
50.640625
 20
4.455656
 30
0.0
  0
POINT
  5
42A
330
52F
100
AcDbEntity
  8
HATCH
  6
Continuous
 62
     7
370
    30
100
AcDbPoint
 10
50.671875
 20
4.455656
 30
0.0
  0
POINT
  5
42B
330
52F
100
AcDbEntity
  8
HATCH
  6
Continuous
 62
     7
370
    30
100
AcDbPoint
 10
50.703125
 20
4.455656
 30
0.0
  0
POINT
  5
42C
330
52F
100
AcDbEntity
  8
HATCH
  6
Continuous
 62
     7
370
    30
100
AcDbPoint
 10
50.734375
 20
4.455656
 30
0.0
  0
CIRCLE
  5
42D
330
52F
100
AcDbEntity
  8
_0
  6
Continuous
 62
     7
370
    30
100
AcDbCircle
 10
50.525
 20
4.698578
 30
0.0
 40
0.0864359078103059
  0
LINE
  5
42E
330
52F
100
AcDbEntity
  8
HATCH
  6
Continuous
 62
     7
370
    30
100
AcDbLine
 10
51.607208
 20
5.411052
 30
0.0
 11
51.864448
 21
5.668302
 31
0.0
  0
LINE
  5
42F
330
52F
100
AcDbEntity
  8
HATCH
  6
Continuous
 62
     7
370
    30
100
AcDbLine
 10
51.51625
 20
5.40849
 30
0.0
 11
51.7735
 21
5.66574
 31
0.0
  0
LINE
  5
430
330
52F
100
AcDbEntity
  8
HATCH
  6
Continuous
 62
     7
370
    30
100
AcDbLine
 10
51.425302
 20
5.405927
 30
0.0
 11
51.682552
 21
5.663177
 31
0.0
  0
LINE
  5
431
330
52F
100
AcDbEntity
  8
HATCH
  6
Continuous
 62
     7
370
    30
100
AcDbLine
 10
51.334354
 20
5.403365
 30
0.0
 11
51.591604
 21
5.660615
 31
0.0
  0
LINE
  5
432
330
52F
100
AcDbEntity
  8
HATCH
  6
Continuous
 62
     7
370
    30
100
AcDbLine
 10
51.243406
 20
5.400802
 30
0.0
 11
51.500646
 21
5.658052
 31
0.0
  0
LINE
  5
433
330
52F
100
AcDbEntity
  8
HATCH
  6
Continuous
 62
     7
370
    30
100
AcDbLine
 10
51.152458
 20
5.39824
 30
0.0
 11
51.409698
 21
5.65549
 31
0.0
  0
LINE
  5
434
330
52F
100
AcDbEntity
  8
HATCH
  6
Continuous
 62
     7
370
    30
100
AcDbLine
 10
51.0615
 20
5.395677
 30
0.0
 11
51.31875
 21
5.652927
 31
0.0
  0
LINE
  5
435
330
52F
100
AcDbEntity
  8
HATCH
  6
Continuous
 62
     7
370
    30
100
AcDbLine
 10
50.970552
 20
5.393115
 30
0.0
 11
51.227802
 21
5.650365
 31
0.0
  0
LINE
  5
436
330
52F
100
AcDbEntity
  8
HATCH
  6
Continuous
 62
     7
370
    30
100
AcDbLine
 10
50.879604
 20
5.390552
 30
0.0
 11
51.136844
 21
5.647802
 31
0.0
  0
LINE
  5
437
330
52F
100
AcDbEntity
  8
HATCH
  6
Continuous
 62
     7
370
    30
100
AcDbLine
 10
50.788656
 20
5.388
 30
0.0
 11
51.045896
 21
5.64524
 31
0.0
  0
LINE
  5
438
330
52F
100
AcDbEntity
  8
HATCH
  6
Continuous
 62
     7
370
    30
100
AcDbLine
 10
50.75
 20
5.437729
 30
0.0
 11
50.954948
 21
5.642677
 31
0.0
  0
LINE
  5
439
330
52F
100
AcDbEntity
  8
HATCH
  6
Continuous
 62
     7
370
    30
100
AcDbLine
 10
50.75
 20
5.526125
 30
0.0
 11
50.864
 21
5.640115
 31
0.0
  0
LINE
  5
43A
330
52F
100
AcDbEntity
  8
HATCH
  6
Continuous
 62
     7
370
    30
100
AcDbLine
 10
50.75
 20
5.61451
 30
0.0
 11
50.773052
 21
5.637552
 31
0.0
  0
LINE
  5
43B
330
52F
100
AcDbEntity
  8
HATCH
  6
Continuous
 62
     7
370
    30
100
AcDbLine
 10
51.698156
 20
5.413615
 30
0.0
 11
51.955406
 21
5.670865
 31
0.0
  0
LINE
  5
43C
330
52F
100
AcDbEntity
  8
HATCH
  6
Continuous
 62
     7
370
    30
100
AcDbLine
 10
51.789104
 20
5.416177
 30
0.0
 11
52.046354
 21
5.673427
 31
0.0
  0
LINE
  5
43D
330
52F
100
AcDbEntity
  8
HATCH
  6
Continuous
 62
     7
370
    30
100
AcDbLine
 10
51.880052
 20
5.41874
 30
0.0
 11
52.137302
 21
5.67599
 31
0.0
  0
LINE
  5
43E
330
52F
100
AcDbEntity
  8
HATCH
  6
Continuous
 62
     7
370
    30
100
AcDbLine
 10
51.97101
 20
5.421302
 30
0.0
 11
52.22825
 21
5.678552
 31
0.0
  0
LINE
  5
43F
330
52F
100
AcDbEntity
  8
HATCH
  6
Continuous
 62
     7
370
    30
100
AcDbLine
 10
52.061958
 20
5.423865
 30
0.0
 11
52.319198
 21
5.681104
 31
0.0
  0
LINE
  5
440
330
52F
100
AcDbEntity
  8
HATCH
  6
Continuous
 62
     7
370
    30
100
AcDbLine
 10
52.152906
 20
5.426427
 30
0.0
 11
52.410156
 21
5.683667
 31
0.0
  0
LINE
  5
441
330
52F
100
AcDbEntity
  8
HATCH
  6
Continuous
 62
     7
370
    30
100
AcDbLine
 10
52.243854
 20
5.42899
 30
0.0
 11
52.501104
 21
5.686229
 31
0.0
  0
LINE
  5
442
330
52F
100
AcDbEntity
  8
HATCH
  6
Continuous
 62
     7
370
    30
100
AcDbLine
 10
52.334812
 20
5.431552
 30
0.0
 11
52.525
 21
5.62174
 31
0.0
  0
LINE
  5
443
330
52F
100
AcDbEntity
  8
HATCH
  6
Continuous
 62
     7
370
    30
100
AcDbLine
 10
52.42576
 20
5.434115
 30
0.0
 11
52.525
 21
5.533354
 31
0.0
  0
LINE
  5
444
330
52F
100
AcDbEntity
  8
HATCH
  6
Continuous
 62
     7
370
    30
100
AcDbLine
 10
52.516708
 20
5.436677
 30
0.0
 11
52.525
 21
5.444969
 31
0.0
  0
LINE
  5
445
330
52F
100
AcDbEntity
  8
HATCH
  6
Continuous
 62
     7
370
    30
100
AcDbLine
 10
52.567656
 20
8.279781
 30
0.0
 11
52.401115
 21
8.446323
 31
0.0
  0
LINE
  5
446
330
52F
100
AcDbEntity
  8
HATCH
  6
Continuous
 62
     7
370
    30
100
AcDbLine
 10
52.645812
 20
8.272344
 30
0.0
 11
52.479271
 21
8.438885
 31
0.0
  0
LINE
  5
447
330
52F
100
AcDbEntity
  8
HATCH
  6
Continuous
 62
     7
370
    30
100
AcDbLine
 10
52.723969
 20
8.264896
 30
0.0
 11
52.557427
 21
8.431437
 31
0.0
  0
LINE
  5
448
330
52F
100
AcDbEntity
  8
HATCH
  6
Continuous
 62
     7
370
    30
100
AcDbLine
 10
52.802115
 20
8.257458
 30
0.0
 11
52.635583
 21
8.42399
 31
0.0
  0
LINE
  5
449
330
52F
100
AcDbEntity
  8
HATCH
  6
Continuous
 62
     7
370
    30
100
AcDbLine
 10
52.880271
 20
8.25001
 30
0.0
 11
52.713729
 21
8.416552
 31
0.0
  0
LINE
  5
44A
330
52F
100
AcDbEntity
  8
HATCH
  6
Continuous
 62
     7
370
    30
100
AcDbLine
 10
52.958427
 20
8.242573
 30
0.0
 11
52.791885
 21
8.409104
 31
0.0
  0
LINE
  5
44B
330
52F
100
AcDbEntity
  8
HATCH
  6
Continuous
 62
     7
370
    30
100
AcDbLine
 10
53.025
 20
8.246708
 30
0.0
 11
52.870042
 21
8.401667
 31
0.0
  0
LINE
  5
44C
330
52F
100
AcDbEntity
  8
HATCH
  6
Continuous
 62
     7
370
    30
100
AcDbLine
 10
53.025
 20
8.317417
 30
0.0
 11
52.948198
 21
8.394219
 31
0.0
  0
LINE
  5
44D
330
52F
100
AcDbEntity
  8
HATCH
  6
Continuous
 62
     7
370
    30
100
AcDbLine
 10
52.4895
 20
8.287229
 30
0.0
 11
52.322958
 21
8.453771
 31
0.0
  0
LINE
  5
44E
330
52F
100
AcDbEntity
  8
HATCH
  6
Continuous
 62
     7
370
    30
100
AcDbLine
 10
52.411344
 20
8.294667
 30
0.0
 11
52.244812
 21
8.461208
 31
0.0
  0
LINE
  5
44F
330
52F
100
AcDbEntity
  8
HATCH
  6
Continuous
 62
     7
370
    30
100
AcDbLine
 10
52.333198
 20
8.302115
 30
0.0
 11
52.166656
 21
8.468656
 31
0.0
  0
LINE
  5
450
330
52F
100
AcDbEntity
  8
HATCH
  6
Continuous
 62
     7
370
    30
100
AcDbLine
 10
52.255042
 20
8.309552
 30
0.0
 11
52.0885
 21
8.476094
 31
0.0
  0
LINE
  5
451
330
52F
100
AcDbEntity
  8
HATCH
  6
Continuous
 62
     7
370
    30
100
AcDbLine
 10
52.176885
 20
8.317
 30
0.0
 11
52.010344
 21
8.483542
 31
0.0
  0
LINE
  5
452
330
52F
100
AcDbEntity
  8
HATCH
  6
Continuous
 62
     7
370
    30
100
AcDbLine
 10
52.098729
 20
8.324448
 30
0.0
 11
51.975
 21
8.448177
 31
0.0
  0
LINE
  5
453
330
52F
100
AcDbEntity
  8
HATCH
  6
Continuous
 62
     7
370
    30
100
AcDbLine
 10
52.020583
 20
8.331885
 30
0.0
 11
51.975
 21
8.377469
 31
0.0
  0
LINE
  5
454
330
52F
100
AcDbEntity
  8
HATCH
  6
Continuous
 62
     7
370
    30
100
AcDbLine
 10
51.382344
 20
8.279781
 30
0.0
 11
51.548885
 21
8.446323
 31
0.0
  0
LINE
  5
455
330
52F
100
AcDbEntity
  8
HATCH
  6
Continuous
 62
     7
370
    30
100
AcDbLine
 10
51.304187
 20
8.272344
 30
0.0
 11
51.470729
 21
8.438885
 31
0.0
  0
LINE
  5
456
330
52F
100
AcDbEntity
  8
HATCH
  6
Continuous
 62
     7
370
    30
100
AcDbLine
 10
51.226031
 20
8.264896
 30
0.0
 11
51.392573
 21
8.431437
 31
0.0
  0
LINE
  5
457
330
52F
100
AcDbEntity
  8
HATCH
  6
Continuous
 62
     7
370
    30
100
AcDbLine
 10
51.147885
 20
8.257458
 30
0.0
 11
51.314417
 21
8.42399
 31
0.0
  0
LINE
  5
458
330
52F
100
AcDbEntity
  8
HATCH
  6
Continuous
 62
     7
370
    30
100
AcDbLine
 10
51.069729
 20
8.25001
 30
0.0
 11
51.236271
 21
8.416552
 31
0.0
  0
LINE
  5
459
330
52F
100
AcDbEntity
  8
HATCH
  6
Continuous
 62
     7
370
    30
100
AcDbLine
 10
50.991573
 20
8.242573
 30
0.0
 11
51.158115
 21
8.409104
 31
0.0
  0
LINE
  5
45A
330
52F
100
AcDbEntity
  8
HATCH
  6
Continuous
 62
     7
370
    30
100
AcDbLine
 10
50.925
 20
8.246708
 30
0.0
 11
51.079958
 21
8.401667
 31
0.0
  0
LINE
  5
45B
330
52F
100
AcDbEntity
  8
HATCH
  6
Continuous
 62
     7
370
    30
100
AcDbLine
 10
50.925
 20
8.317417
 30
0.0
 11
51.001802
 21
8.394219
 31
0.0
  0
LINE
  5
45C
330
52F
100
AcDbEntity
  8
HATCH
  6
Continuous
 62
     7
370
    30
100
AcDbLine
 10
51.4605
 20
8.287229
 30
0.0
 11
51.627042
 21
8.453771
 31
0.0
  0
LINE
  5
45D
330
52F
100
AcDbEntity
  8
HATCH
  6
Continuous
 62
     7
370
    30
100
AcDbLine
 10
51.538656
 20
8.294667
 30
0.0
 11
51.705188
 21
8.461208
 31
0.0
  0
LINE
  5
45E
330
52F
100
AcDbEntity
  8
HATCH
  6
Continuous
 62
     7
370
    30
100
AcDbLine
 10
51.616802
 20
8.302115
 30
0.0
 11
51.783344
 21
8.468656
 31
0.0
  0
LINE
  5
45F
330
52F
100
AcDbEntity
  8
HATCH
  6
Continuous
 62
     7
370
    30
100
AcDbLine
 10
51.694958
 20
8.309552
 30
0.0
 11
51.8615
 21
8.476094
 31
0.0
  0
LINE
  5
460
330
52F
100
AcDbEntity
  8
HATCH
  6
Continuous
 62
     7
370
    30
100
AcDbLine
 10
51.773115
 20
8.317
 30
0.0
 11
51.939656
 21
8.483542
 31
0.0
  0
LINE
  5
461
330
52F
100
AcDbEntity
  8
HATCH
  6
Continuous
 62
     7
370
    30
100
AcDbLine
 10
51.851271
 20
8.324448
 30
0.0
 11
51.975
 21
8.448177
 31
0.0
  0
LINE
  5
462
330
52F
100
AcDbEntity
  8
HATCH
  6
Continuous
 62
     7
370
    30
100
AcDbLine
 10
51.929417
 20
8.331885
 30
0.0
 11
51.975
 21
8.377469
 31
0.0
  0
LINE
  5
469
330
52F
100
AcDbEntity
  8
DIM
  6
Continuous
 62
     7
370
    13
100
AcDbLine
 10
50.8
 20
4.436906
 30
0.0
 11
51.511521
 21
4.436906
 31
0.0
  0
LINE
  5
46B
330
52F
100
AcDbEntity
  8
DIM
  6
Continuous
 62
     7
370
    13
100
AcDbLine
 10
50.75
 20
4.386906
 30
0.0
 11
50.75
 21
4.007427
 31
0.0
  0
LINE
  5
46C
330
52F
100
AcDbEntity
  8
DIM
  6
Continuous
 62
     7
370
    13
100
AcDbLine
 10
50.3
 20
4.386906
 30
0.0
 11
50.3
 21
4.007427
 31
0.0
  0
LINE
  5
46D
330
52F
100
AcDbEntity
  8
HATCH
  6
Continuous
 62
     7
370
    30
100
AcDbLine
 10
50.066812
 20
5.386906
 30
0.0
 11
50.75
 21
5.462813
 31
0.0
  0
LINE
  5
46E
330
52F
100
AcDbEntity
  8
HATCH
  6
Continuous
 62
     7
370
    30
100
AcDbLine
 10
49.544542
 20
5.386906
 30
0.0
 11
50.75
 21
5.520844
 31
0.0
  0
LINE
  5
46F
330
52F
100
AcDbEntity
  8
HATCH
  6
Continuous
 62
     7
370
    30
100
AcDbLine
 10
49.4
 20
5.436125
 30
0.0
 11
50.75
 21
5.586125
 31
0.0
  0
LINE
  5
470
330
52F
100
AcDbEntity
  8
_0
  6
Continuous
 62
     7
370
    30
100
AcDbLine
 10
48.338094
 20
4.761906
 30
0.0
 11
50.3
 21
4.761906
 31
0.0
  0
LINE
  5
471
330
52F
100
AcDbEntity
  8
_0
  6
Continuous
 62
     7
370
    30
100
AcDbLine
 10
48.338094
 20
4.636906
 30
0.0
 11
50.3
 21
4.636906
 31
0.0
  0
LINE
  5
472
330
52F
100
AcDbEntity
  8
_0
  6
Continuous
 62
     7
370
    30
100
AcDbLine
 10
52.525
 20
5.593031
 30
0.0
 11
52.525
 21
5.686906
 31
0.0
  0
LINE
  5
473
330
52F
100
AcDbEntity
  8
_0
  6
Continuous
 62
     7
370
    30
100
AcDbLine
 10
52.515156
 20
5.544271
 30
0.0
 11
52.525
 21
5.536708
 31
0.0
  0
LINE
  5
474
330
52F
100
AcDbEntity
  8
_0
  6
Continuous
 62
     7
370
    30
100
AcDbLine
 10
52.564542
 20
5.577594
 30
0.0
 11
52.515156
 21
5.544271
 31
0.0
  0
LINE
  5
475
330
52F
100
AcDbEntity
  8
_0
  6
Continuous
 62
     7
370
    30
100
AcDbLine
 10
52.484292
 20
5.557854
 30
0.0
 11
52.564542
 21
5.577594
 31
0.0
  0
LINE
  5
476
330
52F
100
AcDbEntity
  8
_0
  6
Continuous
 62
     7
370
    30
100
AcDbLine
 10
52.544792
 20
5.589937
 30
0.0
 11
52.484292
 21
5.557854
 31
0.0
  0
LINE
  5
477
330
52F
100
AcDbEntity
  8
_0
  6
Continuous
 62
     7
370
    30
100
AcDbLine
 10
52.525
 20
5.593031
 30
0.0
 11
52.544792
 21
5.589937
 31
0.0
  0
LINE
  5
478
330
52F
100
AcDbEntity
  8
_0
  6
Continuous
 62
     7
370
    30
100
AcDbLine
 10
52.525
 20
5.436906
 30
0.0
 11
50.75
 21
5.386906
 31
0.0
  0
LINE
  5
479
330
52F
100
AcDbEntity
  8
_0
  6
Continuous
 62
     7
370
    30
100
AcDbLine
 10
52.525
 20
5.686906
 30
0.0
 11
50.75
 21
5.636906
 31
0.0
  0
LINE
  5
47A
330
52F
100
AcDbEntity
  8
_0
  6
Continuous
 62
     7
370
    30
100
AcDbLine
 10
52.525
 20
5.436906
 30
0.0
 11
52.525
 21
5.536708
 31
0.0
  0
LINE
  5
47B
330
52F
100
AcDbEntity
  8
_0
  6
Continuous
 62
     7
370
    30
100
AcDbLine
 10
48.405284
 20
5.08902
 30
0.0
 11
49.4
 21
5.486906
 31
0.0
  0
LINE
  5
47C
330
52F
100
AcDbEntity
  8
_0
  6
Continuous
 62
     7
370
    30
100
AcDbLine
 10
49.4
 20
5.486906
 30
0.0
 11
50.75
 21
5.636906
 31
0.0
  0
LINE
  5
47D
330
52F
100
AcDbEntity
  8
_0
  6
Continuous
 62
     7
370
    30
100
AcDbLine
 10
50.3
 20
4.436906
 30
0.0
 11
50.3
 21
5.386906
 31
0.0
  0
LINE
  5
47E
330
52F
100
AcDbEntity
  8
_0
  6
Continuous
 62
     7
370
    30
100
AcDbLine
 10
49.15
 20
5.386906
 30
0.0
 11
50.75
 21
5.386906
 31
0.0
  0
LINE
  5
47F
330
52F
100
AcDbEntity
  8
_0
  6
Continuous
 62
     7
370
    30
100
AcDbLine
 10
50.3
 20
4.436906
 30
0.0
 11
50.75
 21
4.436906
 31
0.0
  0
LINE
  5
480
330
52F
100
AcDbEntity
  8
_0
  6
Continuous
 62
     7
370
    30
100
AcDbLine
 10
50.75
 20
4.436906
 30
0.0
 11
50.75
 21
5.386906
 31
0.0
  0
CIRCLE
  5
481
330
52F
100
AcDbEntity
  8
_0
  6
Continuous
 62
     7
370
    30
100
AcDbCircle
 10
50.460617
 20
8.283668
 30
0.0
 40
0.6594912056580156
  0
LINE
  5
482
330
52F
100
AcDbEntity
  8
_0
  6
Continuous
 62
     7
370
    30
100
AcDbLine
 10
50.925
 20
8.136906
 30
0.0
 11
50.925
 21
8.386906
 31
0.0
  0
LINE
  5
483
330
52F
100
AcDbEntity
  8
_0
  6
Continuous
 62
     7
370
    30
100
AcDbLine
 10
51.975
 20
8.486906
 30
0.0
 11
50.925
 21
8.386906
 31
0.0
  0
LINE
  5
484
330
52F
100
AcDbEntity
  8
_0
  6
Continuous
 62
     7
370
    30
100
AcDbLine
 10
50.925
 20
8.386906
 30
0.0
 11
49.675
 21
8.036906
 31
0.0
  0
LINE
  5
485
330
52F
100
AcDbEntity
  8
_0
  6
Continuous
 62
     7
370
    30
100
AcDbLine
 10
51.975
 20
8.336229
 30
0.0
 11
50.925
 21
8.236229
 31
0.0
  0
LINE
  5
486
330
52F
100
AcDbEntity
  8
_0
  6
Continuous
 62
     7
370
    30
100
AcDbLine
 10
50.925
 20
8.136906
 30
0.0
 11
50.032146
 21
8.136906
 31
0.0
  0
LINE
  5
487
330
52F
100
AcDbEntity
  8
_0
  6
Continuous
 62
     7
370
    30
100
AcDbLine
 10
50.8
 20
8.161906
 30
0.0
 11
50.121427
 21
8.161906
 31
0.0
  0
LINE
  5
488
330
52F
100
AcDbEntity
  8
_0
  6
Continuous
 62
     7
370
    30
100
AcDbLine
 10
50.8
 20
8.136906
 30
0.0
 11
50.8
 21
8.351906
 31
0.0
  0
LINE
  5
489
330
52F
100
AcDbEntity
  8
_0
  6
Continuous
 62
     7
370
    30
100
AcDbLine
 10
53.15
 20
8.136906
 30
0.0
 11
53.15
 21
8.351906
 31
0.0
  0
LINE
  5
48A
330
52F
100
AcDbEntity
  8
_0
  6
Continuous
 62
     7
370
    30
100
AcDbLine
 10
53.15
 20
8.161906
 30
0.0
 11
53.828573
 21
8.161906
 31
0.0
  0
LINE
  5
48B
330
52F
100
AcDbEntity
  8
_0
  6
Continuous
 62
     7
370
    30
100
AcDbLine
 10
53.025
 20
8.136906
 30
0.0
 11
53.917854
 21
8.136906
 31
0.0
  0
LINE
  5
48C
330
52F
100
AcDbEntity
  8
_0
  6
Continuous
 62
     7
370
    30
100
AcDbLine
 10
51.975
 20
8.336229
 30
0.0
 11
53.025
 21
8.236229
 31
0.0
  0
LINE
  5
48D
330
52F
100
AcDbEntity
  8
_0
  6
Continuous
 62
     7
370
    30
100
AcDbLine
 10
53.025
 20
8.386906
 30
0.0
 11
54.275
 21
8.036906
 31
0.0
  0
LINE
  5
48E
330
52F
100
AcDbEntity
  8
_0
  6
Continuous
 62
     7
370
    30
100
AcDbLine
 10
51.975
 20
8.486906
 30
0.0
 11
53.025
 21
8.386906
 31
0.0
  0
LINE
  5
48F
330
52F
100
AcDbEntity
  8
_0
  6
Continuous
 62
     7
370
    30
100
AcDbLine
 10
53.025
 20
8.136906
 30
0.0
 11
53.025
 21
8.386906
 31
0.0
  0
LINE
  5
490
330
52F
100
AcDbEntity
  8
_0
  6
Continuous
 62
     7
370
    13
100
AcDbLine
 10
51.975
 20
7.903698
 30
0.0
 11
51.975
 21
8.903698
 31
0.0
  0
LINE
  5
496
330
52F
100
AcDbEntity
  8
BORDER
  6
Continuous
 62
     7
370
    30
100
AcDbLine
 10
52.675
 20
0.986906
 30
0.0
 11
52.675
 21
1.486906
 31
0.0
  0
LINE
  5
497
330
52F
100
AcDbEntity
  8
BORDER
  6
Continuous
 62
     7
370
    30
100
AcDbLine
 10
53.775
 20
0.986906
 30
0.0
 11
53.775
 21
1.486906
 31
0.0
  0
LINE
  5
498
330
52F
100
AcDbEntity
  8
BORDER
  6
Continuous
 62
     7
370
    30
100
AcDbLine
 10
47.625
 20
1.486906
 30
0.0
 11
54.875
 21
1.486906
 31
0.0
  0
LINE
  5
499
330
52F
100
AcDbEntity
  8
BORDER
  6
Continuous
 62
     7
370
    30
100
AcDbLine
 10
47.625
 20
0.986906
 30
0.0
 11
47.625
 21
10.086906
 31
0.0
  0
LINE
  5
49A
330
52F
100
AcDbEntity
  8
BORDER
  6
Continuous
 62
     7
370
    30
100
AcDbLine
 10
47.625
 20
10.086906
 30
0.0
 11
54.875
 21
10.086906
 31
0.0
  0
LINE
  5
49B
330
52F
100
AcDbEntity
  8
BORDER
  6
Continuous
 62
     7
370
    30
100
AcDbLine
 10
54.875
 20
0.986906
 30
0.0
 11
54.875
 21
10.086906
 31
0.0
  0
LINE
  5
49E
330
52F
100
AcDbEntity
  8
TEXT
  6
Continuous
 62
     7
370
    13
100
AcDbLine
 10
49.465271
 20
4.611552
 30
0.0
 11
49.465271
 21
4.091177
 31
0.0
  0
LINE
  5
49F
330
52F
100
AcDbEntity
  8
TEXT
  6
Continuous
 62
     7
370
    13
100
AcDbLine
 10
49.465271
 20
4.091177
 30
0.0
 11
49.288208
 21
4.091177
 31
0.0
  0
LINE
  5
4A0
330
52F
100
AcDbEntity
  8
TEXT
  6
Continuous
 62
     7
370
    13
100
AcDbLine
 10
50.665188
 20
4.548396
 30
0.0
 11
51.268396
 21
4.002552
 31
0.0
  0
LINE
  5
4A1
330
52F
100
AcDbEntity
  8
TEXT
  6
Continuous
 62
     7
370
    13
100
AcDbLine
 10
51.268396
 20
4.002552
 30
0.0
 11
51.396792
 21
4.002552
 31
0.0
  0
LINE
  5
4A2
330
52F
100
AcDbEntity
  8
TEXT
  6
Continuous
 62
     7
370
    13
100
AcDbLine
 10
50.299
 20
5.193104
 30
0.0
 11
49.594135
 21
4.9355
 31
0.0
  0
LINE
  5
4A3
330
52F
100
AcDbEntity
  8
TEXT
  6
Continuous
 62
     7
370
    13
100
AcDbLine
 10
49.594135
 20
4.9355
 30
0.0
 11
49.500042
 21
4.9355
 31
0.0
  0
LINE
  5
4A4
330
52F
100
AcDbEntity
  8
TEXT
  6
Continuous
 62
     7
370
    13
100
AcDbLine
 10
49.699531
 20
5.525073
 30
0.0
 11
49.468521
 21
5.859385
 31
0.0
  0
LINE
  5
4A5
330
52F
100
AcDbEntity
  8
TEXT
  6
Continuous
 62
     7
370
    13
100
AcDbLine
 10
49.468521
 20
5.859385
 30
0.0
 11
49.379052
 21
5.859385
 31
0.0
  0
LINE
  5
4A6
330
52F
100
AcDbEntity
  8
_0
  6
Continuous
 62
     7
370
    13
100
AcDbLine
 10
50.75
 20
4.116688
 30
0.0
 11
50.3
 21
4.116688
 31
0.0
  0
LINE
  5
4A7
330
52F
100
AcDbEntity
  8
TEXT
  6
Continuous
 62
     7
370
    13
100
AcDbLine
 10
51.436531
 20
5.664698
 30
0.0
 11
51.811646
 21
6.281042
 31
0.0
  0
LINE
  5
4A8
330
52F
100
AcDbEntity
  8
TEXT
  6
Continuous
 62
     7
370
    13
100
AcDbLine
 10
51.811646
 20
6.281042
 30
0.0
 11
51.946542
 21
6.281042
 31
0.0
  0
LINE
  5
4A9
330
52F
100
AcDbEntity
  8
DIM
  6
Continuous
 62
     7
370
    13
100
AcDbLine
 10
51.413021
 20
4.432396
 30
0.0
 11
51.413021
 21
5.372979
 31
0.0
  0
LINE
  5
4AA
330
52F
100
AcDbEntity
  8
DEFPOINTS
  6
Continuous
 62
     7
370
    30
100
AcDbLine
 10
51.511521
 20
4.436906
 30
0.0
 11
51.511521
 21
4.436906
 31
0.0
  0
LINE
  5
4AB
330
52F
100
AcDbEntity
  8
DEFPOINTS
  6
Continuous
 62
     7
370
    30
100
AcDbLine
 10
51.554396
 20
5.413219
 30
0.0
 11
51.554396
 21
5.413219
 31
0.0
  0
LINE
  5
4AC
330
52F
100
AcDbEntity
  8
DEFPOINTS
  6
Continuous
 62
     7
370
    30
100
AcDbLine
 10
51.413021
 20
5.413219
 30
0.0
 11
51.413021
 21
5.413219
 31
0.0
  0
LINE
  5
4AD
330
52F
100
AcDbEntity
  8
BORDER
  6
Continuous
 62
     7
370
    30
100
AcDbLine
 10
55.25
 20
11.081542
 30
0.0
 11
55.25
 21
10.875
 31
0.0
  0
LINE
  5
4AE
330
52F
100
AcDbEntity
  8
BORDER
  6
Continuous
 62
     7
370
    30
100
AcDbLine
 10
47.25
 20
11.081542
 30
0.0
 11
47.25
 21
10.875
 31
0.0
  0
LINE
  5
4AF
330
52F
100
AcDbEntity
  8
BORDER
  6
Continuous
 62
     7
370
    30
100
AcDbLine
 10
55.456542
 20
10.875
 30
0.0
 11
55.25
 21
10.875
 31
0.0
  0
LINE
  5
4B0
330
52F
100
AcDbEntity
  8
BORDER
  6
Continuous
 62
     7
370
    30
100
AcDbLine
 10
55.456542
 20
0.125
 30
0.0
 11
55.25
 21
0.125
 31
0.0
  0
LINE
  5
4B1
330
52F
100
AcDbEntity
  8
BORDER
  6
Continuous
 62
     7
370
    30
100
AcDbLine
 10
47.25
 20
10.875
 30
0.0
 11
47.043458
 21
10.875
 31
0.0
  0
LINE
  5
4B2
330
52F
100
AcDbEntity
  8
BORDER
  6
Continuous
 62
     7
370
    30
100
AcDbLine
 10
55.25
 20
0.125
 30
0.0
 11
55.25
 21
-0.081542
 31
0.0
  0
LINE
  5
4B3
330
52F
100
AcDbEntity
  8
BORDER
  6
Continuous
 62
     7
370
    30
100
AcDbLine
 10
47.25
 20
0.125
 30
0.0
 11
47.25
 21
-0.081542
 31
0.0
  0
LINE
  5
4B4
330
52F
100
AcDbEntity
  8
BORDER
  6
Continuous
 62
     7
370
    30
100
AcDbLine
 10
47.25
 20
0.125
 30
0.0
 11
47.043458
 21
0.125
 31
0.0
  0
INSERT
  5
4B5
330
52F
100
AcDbEntity
  8
DIM
  6
Continuous
 62
     7
370
    13
100
AcDbBlockReference
  2
LARROW
 10
49.699531
 20
5.525073
 30
0.0
 41
12.000001
 42
12.000001
 43
12.000001
 50
304.644529
  0
INSERT
  5
4B7
330
52F
100
AcDbEntity
  8
DIM
  6
Continuous
 62
     7
370
    13
100
AcDbBlockReference
  2
LARROW
 10
51.436531
 20
5.664698
 30
0.0
 41
11.999998
 42
11.999998
 43
11.999998
 50
238.674783
  0
INSERT
  5
4B9
330
52F
100
AcDbEntity
  8
DIM
  6
Continuous
 62
     7
370
    13
100
AcDbBlockReference
  2
LARROW
 10
51.413021
 20
5.372979
 30
0.0
 41
12.0
 42
12.0
 43
12.0
 50
90.0
  0
INSERT
  5
4BB
330
52F
100
AcDbEntity
  8
DIM
  6
Continuous
 62
     7
370
    13
100
AcDbBlockReference
  2
LARROW
 10
51.413021
 20
4.432396
 30
0.0
 41
12.0
 42
12.0
 43
12.0
 50
270.0
  0
INSERT
  5
4BD
330
52F
100
AcDbEntity
  8
DIM
  6
Continuous
 62
     7
370
    13
100
AcDbBlockReference
  2
LARROW
 10
50.665188
 20
4.548396
 30
0.0
 41
11.999998
 42
11.999998
 43
11.999998
 50
137.857976
  0
INSERT
  5
4BF
330
52F
100
AcDbEntity
  8
DIM
  6
Continuous
 62
     7
370
    13
100
AcDbBlockReference
  2
LARROW
 10
50.3
 20
4.116688
 30
0.0
 41
12.0
 42
12.0
 43
12.0
 50
180.0
  0
INSERT
  5
4C1
330
52F
100
AcDbEntity
  8
DIM
  6
Continuous
 62
     7
370
    13
100
AcDbBlockReference
  2
LARROW
 10
50.75
 20
4.116688
 30
0.0
 41
12.0
 42
12.0
 43
12.0
  0
INSERT
  5
4C3
330
52F
100
AcDbEntity
  8
DIM
  6
Continuous
 62
     7
370
    13
100
AcDbBlockReference
  2
LARROW
 10
49.465271
 20
4.611552
 30
0.0
 41
12.0
 42
12.0
 43
12.0
 50
90.0
  0
INSERT
  5
4C5
330
52F
100
AcDbEntity
  8
DIM
  6
Continuous
 62
     7
370
    13
100
AcDbBlockReference
  2
LARROW
 10
50.299
 20
5.193104
 30
0.0
 41
12.000002
 42
12.000002
 43
12.000002
 50
20.075641
  0
SPLINE
  5
4CA
330
52F
100
AcDbEntity
  8
2-35J
  6
Continuous
 62
     7
370
    13
100
AcDbSpline
210
0.0
220
0.0
230
1.0
 70
     8
 71
     3
 72
    35
 73
    31
 74
     0
 42
0.0000000001
 43
0.00000001
 40
0.0
 40
0.0
 40
0.0
 40
0.0
 40
0.1223375911490099
 40
0.1223375911490099
 40
0.1223375911490099
 40
0.3248075976006027
 40
0.3248075976006027
 40
0.3248075976006027
 40
0.4523442919227025
 40
0.4523442919227025
 40
0.4523442919227025
 40
0.5912440189181823
 40
0.5912440189181823
 40
0.5912440189181823
 40
0.6845130806637163
 40
0.6845130806637163
 40
0.6845130806637163
 40
0.7804651699996087
 40
0.7804651699996087
 40
0.7804651699996087
 40
0.8320243278230733
 40
0.8320243278230733
 40
0.8320243278230733
 40
0.9125069562336606
 40
0.9125069562336606
 40
0.9125069562336606
 40
0.975547831243029
 40
0.975547831243029
 40
0.975547831243029
 40
1.0
 40
1.0
 40
1.0
 40
1.0
 10
51.87340625
 20
5.139010416666666
 30
0.0
 10
51.83030902777778
 20
5.131916666666666
 30
0.0
 10
51.78721180555555
 20
5.124822916666666
 30
0.0
 10
51.74411458333334
 20
5.117729166666667
 30
0.0
 10
51.67278822502086
 20
5.105988935436214
 30
0.0
 10
51.6146842733704
 20
5.053144187193025
 30
0.0
 10
51.55515625
 20
5.011322916666667
 30
0.0
 10
51.51765930191745
 20
4.984979525421912
 30
0.0
 10
51.49000463413185
 20
4.946474415132363
 30
0.0
 10
51.45569791666667
 20
4.9176875
 30
0.0
 10
51.41833460161954
 20
4.886335780605195
 30
0.0
 10
51.34785307323141
 20
4.871133885515474
 30
0.0
 10
51.31314583333333
 20
4.875125
 30
0.0
 10
51.28984044770664
 20
4.877804972893704
 30
0.0
 10
51.30493183071546
 20
4.961471261714315
 30
0.0
 10
51.33304166666667
 20
4.973020833333333
 30
0.0
 10
51.36196012515578
 20
4.984902646091382
 30
0.0
 10
51.40808368861446
 20
4.992034817578085
 30
0.0
 10
51.4358125
 20
4.973020833333333
 30
0.0
 10
51.45071237526462
 20
4.962803807093329
 30
0.0
 10
51.46443773925288
 20
4.94920122089414
 30
0.0
 10
51.47559375
 20
4.93471875
 30
0.0
 10
51.4930080194607
 20
4.9121119547643
 30
0.0
 10
51.48401929627835
 20
4.869574949720772
 30
0.0
 10
51.50542708333333
 20
4.85384375
 30
0.0
 10
51.52219549230072
 20
4.841521729522669
 30
0.0
 10
51.55463115033336
 20
4.851978323278388
 30
0.0
 10
51.57172916666666
 20
4.866614583333333
 30
0.0
 10
51.57836111111111
 20
4.872291666666666
 30
0.0
 10
51.58499305555555
 20
4.87796875
 30
0.0
 10
51.591625
 20
4.883645833333333
 30
0.0
  0
TEXT
  5
463
330
52F
100
AcDbEntity
  8
TITLE
  6
Continuous
 62
     7
370
    30
100
AcDbText
 10
48.22961
 20
1.0825
 30
0.0
 40
0.117
  1
UNDERDRAIN IN HIGHWAY SYSTEMS
 41
1.333333
  7
Style-Arial
100
AcDbText
  0
TEXT
  5
464
330
52F
100
AcDbEntity
  8
TEXT
  6
Continuous
 62
     7
370
    30
100
AcDbText
 10
47.835301
 20
4.032
 30
0.0
 40
0.117
  1
OUTLET PIPE
 41
1.333333
  7
Style-Arial
100
AcDbText
  0
TEXT
  5
465
330
52F
100
AcDbEntity
  8
TEXT
  6
Continuous
 62
     7
370
    30
100
AcDbText
 10
51.460323
 20
3.946698
 30
0.0
 40
0.117
  1
FILTER MATERIAL
 41
1.333333
  7
Style-Arial
100
AcDbText
  0
TEXT
  5
466
330
52F
100
AcDbEntity
  8
TEXT
  6
Continuous
 62
     7
370
    30
100
AcDbText
 10
48.119762
 20
4.873573
 30
0.0
 40
0.117
  1
GEOTEXTILE
 41
1.333333
  7
Style-Arial
100
AcDbText
  0
TEXT
  5
467
330
52F
100
AcDbEntity
  8
TEXT
  6
Continuous
 62
     7
370
    30
100
AcDbText
 10
48.123498
 20
5.797094
 30
0.0
 40
0.117
  1
SHOULDER
 41
1.333333
  7
Style-Arial
100
AcDbText
  0
TEXT
  5
468
330
52F
100
AcDbEntity
  8
TEXT
  6
Continuous
 62
     7
370
    30
100
AcDbText
 10
51.986708
 20
6.226646
 30
0.0
 40
0.117
  1
PAVEMENT SURFACE
 41
1.333333
  7
Style-Arial
100
AcDbText
  0
TEXT
  5
46A
330
52F
100
AcDbEntity
  8
DIM
  6
Continuous
 62
     7
370
    30
100
AcDbText
 10
50.389365
 20
4.220813
 30
0.0
 40
0.117
  1
18"
 41
1.333333
  7
Style-Arial
100
AcDbText
  0
TEXT
  5
491
330
52F
100
AcDbEntity
  8
BORDER
  6
Continuous
 62
     7
370
    30
100
AcDbText
 10
53.909064
 20
1.277142
 30
0.0
 40
0.117
  1
FIGURE
 41
1.333333
  7
Style-Arial
100
AcDbText
  0
TEXT
  5
492
330
52F
100
AcDbEntity
  8
BORDER
  6
Continuous
 62
     7
370
    30
100
AcDbText
 10
54.079868
 20
1.104824
 30
0.0
 40
0.117
  1
2-35g
 41
1.333333
  7
Style-Arial
100
AcDbText
  0
TEXT
  5
493
330
52F
100
AcDbEntity
  8
BORDER
  6
Continuous
 62
     7
370
    30
100
AcDbText
 10
52.948488
 20
1.297557
 30
0.0
 40
0.117
  1
DATE
 41
1.333333
  7
Style-Arial
100
AcDbText
  0
TEXT
  5
494
330
52F
100
AcDbEntity
  8
BORDER
  6
Continuous
 62
     7
370
    30
100
AcDbText
 10
52.715165
 20
1.105939
 30
0.0
 40
0.117
  1
AUG 1992
 41
1.333333
  7
Style-Arial
100
AcDbText
  0
TEXT
  5
495
330
52F
100
AcDbEntity
  8
TITLE
  6
Continuous
 62
     7
370
    30
100
AcDbText
 10
48.070062
 20
1.290865
 30
0.0
 40
0.117
  1
CROSS-SECTION SHOWING PAVEMENT
 41
1.333333
  7
Style-Arial
100
AcDbText
  0
TEXT
  5
49C
330
52F
100
AcDbEntity
  8
LEGEND
  6
Continuous
 62
     7
370
    30
100
AcDbText
 10
47.965208
 20
1.817646
 30
0.0
 40
0.117
  1
REFERENCE: TM 5-818-8 ENGINEERING
 41
1.333333
  7
Style-Arial
100
AcDbText
  0
TEXT
  5
49D
330
52F
100
AcDbEntity
  8
LEGEND
  6
Continuous
 62
     7
370
    30
100
AcDbText
 10
49.438032
 20
1.625781
 30
0.0
 40
0.117
  1
USE OF GEOTEXTILES
 41
1.333333
  7
Style-Arial
100
AcDbText
  0
TEXT
  5
4C7
330
52F
100
AcDbEntity
  8
TEXT
  6
Continuous
 62
     7
370
    30
100
AcDbText
 10
51.908042
 20
5.100042
 30
0.0
 40
0.117
  1
DEPTH IS A FUNCTION
 41
1.333333
  7
Style-Arial
100
AcDbText
  0
TEXT
  5
4C8
330
52F
100
AcDbEntity
  8
TEXT
  6
Continuous
 62
     7
370
    30
100
AcDbText
 10
51.899365
 20
4.910604
 30
0.0
 40
0.117
  1
OF BASE/SUBBASE
 41
1.333333
  7
Style-Arial
100
AcDbText
  0
TEXT
  5
51A
330
52F
100
AcDbEntity
  8
TEXT
  6
Continuous
 62
     7
370
    30
100
AcDbText
 10
51.899365
 20
4.690939
 30
0.0
 40
0.117
  1
THICKNESS AND FROST
 41
1.333333
  7
Style-Arial
100
AcDbText
  0
TEXT
  5
4C9
330
52F
100
AcDbEntity
  8
TEXT
  6
Continuous
 62
     7
370
    30
100
AcDbText
 10
51.899365
 20
4.447806
 30
0.0
 40
0.117
  1
PENETRATION
 41
1.333333
  7
Style-Arial
100
AcDbText
  0
ENDSEC
  0
SECTION
  2
OBJECTS
  0
DICTIONARY
  5
523
330
0
100
AcDbDictionary
281
     1
  3
ACAD_COLOR
350
542
  3
ACAD_GROUP
350
53F
  3
ACAD_LAYOUT
350
533
  3
ACAD_MATERIAL
350
541
  3
ACAD_MLINESTYLE
350
52D
  3
ACAD_PLOTSETTINGS
350
540
  3
ACAD_PLOTSTYLENAME
350
522
  3
ACAD_TABLESTYLE
350
559
  3
AcadDim
350
54F
  3
MicroStation
350
547
  0
DICTIONARY
  5
51F
330
51E
100
AcDbDictionary
280
     1
281
     1
  3
ACAD_LAYERFILTERS
360
546
  3
ACAD_LAYERSTATES
360
520
  0
DICTIONARY
  5
555
330
52F
100
AcDbDictionary
280
     1
281
     1
  3
ACAD_SORTENTS
360
556
  0
DICTIONARY
  5
542
102
{ACAD_REACTORS
330
523
102
}
330
523
100
AcDbDictionary
281
     1
  0
DICTIONARY
  5
53F
102
{ACAD_REACTORS
330
523
102
}
330
523
100
AcDbDictionary
281
     1
  0
DICTIONARY
  5
533
102
{ACAD_REACTORS
330
523
102
}
330
523
100
AcDbDictionary
281
     1
  3
Layout1
350
537
  3
Model
350
532
  0
DICTIONARY
  5
541
102
{ACAD_REACTORS
330
523
102
}
330
523
100
AcDbDictionary
281
     1
  0
DICTIONARY
  5
52D
102
{ACAD_REACTORS
330
523
102
}
330
523
100
AcDbDictionary
281
     1
  3
Standard
350
52C
  0
DICTIONARY
  5
540
102
{ACAD_REACTORS
330
523
102
}
330
523
100
AcDbDictionary
281
     1
  0
ACDBDICTIONARYWDFLT
  5
522
102
{ACAD_REACTORS
330
523
102
}
330
523
100
AcDbDictionary
281
     1
  3
Normal
350
521
100
AcDbDictionaryWithDefault
340
521
  0
DICTIONARY
  5
559
102
{ACAD_REACTORS
330
523
102
}
330
523
100
AcDbDictionary
281
     1
  0
XRECORD
  5
54F
102
{ACAD_REACTORS
330
523
102
}
330
523
100
AcDbXrecord
280
     1
 90
   990106
  3
 
 60
     0
 61
     0
 62
     1
 63
     1
 64
     0
 65
     0
 66
     0
 67
     3
 68
     1
 69
     1
 70
     0
 71
     0
 72
     0
 40
0.0
170
     0
  0
DICTIONARY
  5
547
102
{ACAD_REACTORS
330
523
102
}
330
523
100
AcDbDictionary
281
     1
  3
ApplicationElement 1301
350
515
  3
ApplicationElement 1307
350
51B
  3
ModelApplicationElement 0 1300
350
514
  0
DICTIONARY
  5
546
102
{ACAD_REACTORS
330
51F
102
}
330
51F
100
AcDbDictionary
281
     1
  0
DICTIONARY
  5
520
102
{ACAD_REACTORS
330
51F
102
}
330
51F
100
AcDbDictionary
281
     1
  0
SORTENTSTABLE
  5
556
102
{ACAD_REACTORS
330
555
102
}
330
555
100
AcDbSortentsTable
330
52F
331
463
  5
4B1
331
464
  5
4B2
331
465
  5
4B3
331
466
  5
4B4
331
467
  5
4B5
331
468
  5
4B7
331
469
  5
463
331
46A
  5
4B9
331
46B
  5
464
331
46C
  5
465
331
46D
  5
466
331
46E
  5
467
331
46F
  5
468
331
470
  5
469
331
471
  5
46A
331
472
  5
46B
331
473
  5
46C
331
474
  5
46D
331
475
  5
46E
331
476
  5
46F
331
477
  5
470
331
478
  5
471
331
479
  5
472
331
47A
  5
473
331
47B
  5
474
331
47C
  5
475
331
47D
  5
476
331
47E
  5
477
331
47F
  5
478
331
480
  5
479
331
481
  5
47A
331
482
  5
47B
331
483
  5
47C
331
484
  5
47D
331
485
  5
47E
331
486
  5
47F
331
487
  5
480
331
488
  5
481
331
489
  5
482
331
48A
  5
483
331
48B
  5
484
331
48C
  5
485
331
48D
  5
486
331
48E
  5
487
331
48F
  5
488
331
490
  5
489
331
491
  5
4BB
331
492
  5
4BD
331
493
  5
4BF
331
494
  5
4C1
331
495
  5
4C3
331
496
  5
48A
331
497
  5
48B
331
498
  5
48C
331
499
  5
48D
331
49A
  5
48E
331
49B
  5
48F
331
49C
  5
4C5
331
49D
  5
4C7
331
49E
  5
490
331
49F
  5
491
331
4A0
  5
492
331
4A1
  5
493
331
4A2
  5
494
331
4A3
  5
495
331
4A4
  5
496
331
4A5
  5
497
331
4A6
  5
498
331
4A7
  5
499
331
4A8
  5
49A
331
4A9
  5
49B
331
4AA
  5
49C
331
4AB
  5
49D
331
4AC
  5
49E
331
4AD
  5
49F
331
4AE
  5
4A0
331
4AF
  5
4A1
331
4B0
  5
4A2
331
4B1
  5
4A3
331
4B2
  5
4A4
331
4B3
  5
4A5
331
4B4
  5
4A6
331
4B5
  5
4A7
331
4B7
  5
4A8
331
4B9
  5
4A9
331
4BB
  5
4AA
331
4BD
  5
4AB
331
4BF
  5
4AC
331
4C1
  5
4AD
331
4C3
  5
4AE
331
4C5
  5
4AF
331
4C7
  5
4C8
331
4C8
  5
4C9
331
4C9
  5
51A
331
4CA
  5
4B0
331
51A
  5
4CA
  0
LAYOUT
  5
537
102
{ACAD_REACTORS
330
533
330
533
102
}
102
{ACAD_XDICTIONARY
360
538
102
}
330
533
100
AcDbPlotSettings
  1

  2
none_device
  4
Letter_(8.50_x_11.00_Inches)
  6

 40
6.35
 41
6.35
 42
6.350006
 43
6.350006
 44
215.899994
 45
279.399994
 46
0.0
 47
0.0
 48
0.0
 49
0.0
140
0.0
141
0.0
142
1.0
143
1.0
 70
   688
 72
     0
 73
     1
 74
     5
  7

 75
    16
 76
     0
 77
     2
 78
   300
147
1.0
148
0.0
149
0.0
100
AcDbLayout
  1
Layout1
 70
     1
 71
     1
 10
-0.25
 20
-0.25
 11
10.75
 21
8.25
 12
0.0
 22
0.0
 32
0.0
 14
1.049744
 24
0.799667
 34
-0.001526
 15
9.450623
 25
7.200577
 35
0.0
146
0.0
 13
0.0
 23
0.0
 33
0.0
 16
1.0
 26
0.0
 36
0.0
 17
0.0
 27
1.0
 37
0.0
 76
     0
330
534
1001
ACAD_PSEXT
1000
None
1000
None
1000
Not applicable
1000
The layout will not be plotted unless a new plotter configuration name is selected.
1070
     0
  0
LAYOUT
  5
532
102
{ACAD_REACTORS
330
533
330
533
102
}
330
533
100
AcDbPlotSettings
  1

  2
none_device
  4
ANSI_A_(8.50_x_11.00_Inches)
  6

 40
6.35
 41
19.049999
 42
6.350006
 43
19.049988
 44
215.899994
 45
279.399994
 46
0.0
 47
0.0
 48
0.0
 49
0.0
140
0.0
141
0.0
142
1.0
143
2.584895
 70
 11952
 72
     0
 73
     1
 74
     0
  7

 75
     0
 76
     0
 77
     2
 78
   300
147
0.386863
148
0.0
149
0.0
100
AcDbLayout
  1
Model
 70
     1
 71
     0
 10
0.0
 20
0.0
 11
12.0
 21
9.0
 12
0.0
 22
0.0
 32
0.0
 14
0.0
 24
0.0
 34
0.0
 15
0.0
 25
0.0
 35
0.0
146
0.0
 13
0.0
 23
0.0
 33
0.0
 16
1.0
 26
0.0
 36
0.0
 17
0.0
 27
1.0
 37
0.0
 76
     0
330
52F
331
49
  0
MLINESTYLE
  5
52C
102
{ACAD_REACTORS
330
52D
102
}
330
52D
100
AcDbMlineStyle
  2
STANDARD
 70
     0
  3

 62
   256
 51
90.0
 52
90.0
 71
     2
 49
0.5
 62
   256
  6
BYLAYER
 49
-0.5
 62
   256
  6
BYLAYER
  0
ACDBPLACEHOLDER
  5
521
102
{ACAD_REACTORS
330
522
102
}
330
522
  0
XRECORD
  5
515
102
{ACAD_REACTORS
330
547
102
}
330
547
100
AcDbXrecord
280
     1
310
3E4F020000004D6F64656C6572000000000000000000000000000000000000000000000000000000000000000000000000000000000000000000000000000000000000000000000000000000000000000000000000000000000000000000000000000000000000000000000000000000000000000000000000000000000000
310
00000000000000000000000000000000000000000000000000000000000000000000000000000000000000000000000000000000000000000000000000000000000000000000000000000000000000000000000000000000000000000000000000000000000000000000000000000000000000000000000000000000000000
310
00
310
00000000000000000000000000000000000000000000000000000000000000000000000000000000000000000000000000000000000000000000000000000000000000000000000000000000000000000000000000000000000000000000000000000000000000000000000000000000000000000000000000000000000000
310
00000000000000000000000000000000000000000000000000000000000000000000000000000000000000000000000000000000000000000000000000000000000000000000000000000000000000000000000000000000000000000000000000000000000000000000000000000000000000000000000000000000000000
310
00
310
00000000000000000000000000000000000000000000000000000000000000000000000000000000000000000000000000000000000000000000000000000000000000000000000000000000000000000000000000000000000000000000000000000000000000000000000000000000000000000000000000000000000000
310
00000000000000000000000000000000000000000000000000000000000000000000000000000000000000000000000000000000000000000000000000000000000000000000000000000000000000000000000000000000000000000000000000000000000000000000000000000000000000000000000000000000000000
310
00
310
00000000000000000000000000000000000000000000000000000000000000000000000000000000000000000000000000000000000000000000000000000000000000000000000000000000000000000000000000000000000000000000000000000000000000000000000000000000000000000000000000000000000000
310
00000000000000000000000000000000000000000000000000000000000000000000000000000000000000000000000000000000000000000000000000000000000000000000000000000000000000000000000000000000000000000000000000000000000000000000000000000000000000000000000000000000000000
310
00
310
00000000000000000000000000000000000000000000000000000000000000000000000000000000000000000000000000000000000000000000000000000000000000000000000000000000000000000000000000000000000000000000000000000000000000000000000000000000000000000000000000000000000000
310
00000000000000000000000000000000000000000000000000000000000000000000000000000000000000000000000000000000000000000000000000000000000000000000000000000000000000000000000000000000000000000000000000000000000000000000000000000000000000000000000000000000000000
310
00
310
00000000000000000000000000000000000000000000000000000000000000000000000000000000000000000000000000000000000000000000000000000000000000000000000000000000000000000000000000000000000000000000000000000000000000000000000000000000000000000000000000000000000000
310
00000000000000000000000000000000000000000000000000000000000000000000000000000000000000000000000000000000000000000000000000000000000000000000000000000000000000000000000000000000000000000000000000000000000000000000000000000000000000000000000000000000000000
310
00
310
00000000000000000000000000000000000000000000000000000000000000000000000000000000000000000000000000000000000000000000000000000000000000000000000000000000000000000000000000000000000000000000000000000000000000000000000000000000000000000000000000000000000000
310
00000000000000000000000000000000000000000000000000000000000000000000000000000000000000000000000000000000000000000000000000000000000000000000000000000000000000000000000000000000000000000000000000000000000000000000000000000000000000000000000000000000000000
310
00
310
00000000000000000000000000000000000000000000000000000000000000000000000000000000000000000000000000000000000000000000000000000000000000000000000000000000000000000000000000000000000000000000000000000000000000000000000000000000000000000000000000000000000000
310
00000000000000000000000000000000000000000000000000000000000000000000000000000000000000000000000000000000000000000000000000000000000000000000000000000000000000000000000000000000000000000000000000000000000000000000000000000000000000000000000000000000000000
310
00
310
00000000000000000000000000000000000000000000000000000000000000000000000000000000000000000000000000000000000000000000000000000000000000000000000000000000000000000000000000000000000000000000000000000000000000000000000000000000000000000000000000000000000000
310
00000000000000000000000000000000000000000000000000000000000000000000000000000000000000000000000000000000000000000000000000000000000000000000000000000000000000000000000000000000000000000000000000000000000000000000000000000000000000000000000000000000000000
310
00
310
00000000000000000000000000000000000000000000000000000000000000000000000000000000000000000000000000000000000000000000000000000000000000000000000000000000000000000000000000000000000000000000000000000000000000000000000000000000000000000000000000000000000000
310
00000000000000000000000000000000000000000000000000000000000000000000000000000000000000000000000000000000000000000000000000000000000000000000000000000000000000000000000000000000000000000000000000000000000000000000000000000000000000000000000000000000000000
310
00
310
00000000000000000000000000000000000000000000000000000000000000000000000000000000000000000000000000000000000000000000000000000000000000000000000000000000000000000000000000000000000000000000000000000000000000000000000000000000000000000000000000000000000000
310
00000000000000000000000000000000000000000000000000000000000000000000000000000000000000000000000000000000000000000000000000000000000000000000000000000000000000000000000000000000000000000000000000000000000000000000000000000000000000000000000000000000000000
310
00
310
00000000000000000000000000000000000000000000000000000000000000000000000000000000000000000000000000000000000000000000000000000000000000000000000000000000000000000000000000000000000000000000000000000000000000000000000000000000000000000000000000000000000000
310
00000000000000000000000000000000000000000000000000000000000000000000000000000000000000000000000000000000000000000000000000000000000000000000000000000000000000000000000000000000000000000000000000000000000000000000000000000000000000000000000000000000000000
310
00
310
00000000000000000000000000000000000000000000000000000000000000000000000000000000000000000000000000000000000000000000000000000000000000000000000000000000000000000000000000000000000000000000000000000000000000000000000000000000000000000000000000000000000000
310
00000000000000000000000000000000000000000000000000000000000000000000000000000000000000000000000000000000000000000000000000000000000000000000000000000000000000000000000000000000000000000000000000000000000000000000000000000000000000000000000000000000000000
310
00
310
00000000000000000000000000000000000000000000000000000000000000000000000000000000000000000000000000000000000000000000000000000000000000000000000000000000000000000000000000000000000000000000000000000000000000000000000000000000000000
  0
XRECORD
  5
51B
102
{ACAD_REACTORS
330
547
102
}
330
547
100
AcDbXrecord
280
     1
310
3E4F020000004D6F64656C6572000000000000000000000000000000000000000000000000000000000000000000000000000000000000000000000000000000000000000000000000000000000000000000000000000000000000000000000000000000000000000000000000000000000000000000000000000000000000
310
00000000000000000000000000000000000000000000000000000000000000000000000000000000000000000000000000000000000000000000000000000000000000000000000000000000000000000000000000000000000000000000000000000000000000000000000000000000000000000000000000000000000000
310
00
310
00000000000000000000000000000000000000000000000000000000000000000000000000000000000000000000000000000000000000000000000000000000000000000000000000000000000000000000000000000000000000000000000000000000000000000000000000000000000000000000000000000000000000
310
00000000000000000000000000000000000000000000000000000000000000000000000000000000000000000000000000000000000000000000000000000000000000000000000000000000000000000000000000000000000000000000000000000000000000000000000000000000000000000000000000000000000000
310
00
310
00000000000000000000000000000000000000000000000000000000000000000000000000000000000000000000000000000000000000000000000000000000000000000000000000000000000000000000000000000000000000000000000000000000000000000000000000000000000000000000000000000000000000
310
00000000000000000000000000000000000000000000000000000000000000000000000000000000000000000000000000000000000000000000000000000000000000000000000000000000000000000000000000000000000000000000000000000000000000000000000000000000000000000000000000000000000000
310
00
310
00000000000000000000000000000000000000000000000000000000000000000000000000000000000000000000000000000000000000000000000000000000000000000000000000000000000000000000000000000000000000000000000000000000000000000000000000000000000000000000000000000000000000
310
00000000000000000000000000000000000000000000000000000000000000000000000000000000000000000000000000000000000000000000000000000000000000000000000000000000000000000000000000000000000000000000000000000000000000000000000000000000000000000000000000000000000000
310
00
310
00000000000000000000000000000000000000000000000000000000000000000000000000000000000000000000000000000000000000000000000000000000000000000000000000000000000000000000000000000000000000000000000000000000000000000000000000000000000000000000000000000000000000
310
00000000000000000000000000000000000000000000000000000000000000000000000000000000000000000000000000000000000000000000000000000000000000000000000000000000000000000000000000000000000000000000000000000000000000000000000000000000000000000000000000000000000000
310
00
310
00000000000000000000000000000000000000000000000000000000000000000000000000000000000000000000000000000000000000000000000000000000000000000000000000000000000000000000000000000000000000000000000000000000000000000000000000000000000000000000000000000000000000
310
00000000000000000000000000000000000000000000000000000000000000000000000000000000000000000000000000000000000000000000000000000000000000000000000000000000000000000000000000000000000000000000000000000000000000000000000000000000000000000000000000000000000000
310
00
310
00000000000000000000000000000000000000000000000000000000000000000000000000000000000000000000000000000000000000000000000000000000000000000000000000000000000000000000000000000000000000000000000000000000000000000000000000000000000000000000000000000000000000
310
00000000000000000000000000000000000000000000000000000000000000000000000000000000000000000000000000000000000000000000000000000000000000000000000000000000000000000000000000000000000000000000000000000000000000000000000000000000000000000000000000000000000000
310
00
310
00000000000000000000000000000000000000000000000000000000000000000000000000000000000000000000000000000000000000000000000000000000000000000000000000000000000000000000000000000000000000000000000000000000000000000000000000000000000000000000000000000000000000
310
00000000000000000000000000000000000000000000000000000000000000000000000000000000000000000000000000000000000000000000000000000000000000000000000000000000000000000000000000000000000000000000000000000000000000000000000000000000000000000000000000000000000000
310
00
310
00000000000000000000000000000000000000000000000000000000000000000000000000000000000000000000000000000000000000000000000000000000000000000000000000000000000000000000000000000000000000000000000000000000000000000000000000000000000000000000000000000000000000
310
00000000000000000000000000000000000000000000000000000000000000000000000000000000000000000000000000000000000000000000000000000000000000000000000000000000000000000000000000000000000000000000000000000000000000000000000000000000000000000000000000000000000000
310
00
310
00000000000000000000000000000000000000000000000000000000000000000000000000000000000000000000000000000000000000000000000000000000000000000000000000000000000000000000000000000000000000000000000000000000000000000000000000000000000000000000000000000000000000
310
00000000000000000000000000000000000000000000000000000000000000000000000000000000000000000000000000000000000000000000000000000000000000000000000000000000000000000000000000000000000000000000000000000000000000000000000000000000000000000000000000000000000000
310
00
310
00000000000000000000000000000000000000000000000000000000000000000000000000000000000000000000000000000000000000000000000000000000000000000000000000000000000000000000000000000000000000000000000000000000000000000000000000000000000000000000000000000000000000
310
00000000000000000000000000000000000000000000000000000000000000000000000000000000000000000000000000000000000000000000000000000000000000000000000000000000000000000000000000000000000000000000000000000000000000000000000000000000000000000000000000000000000000
310
00
310
00000000000000000000000000000000000000000000000000000000000000000000000000000000000000000000000000000000000000000000000000000000000000000000000000000000000000000000000000000000000000000000000000000000000000000000000000000000000000000000000000000000000000
310
00000000000000000000000000000000000000000000000000000000000000000000000000000000000000000000000000000000000000000000000000000000000000000000000000000000000000000000000000000000000000000000000000000000000000000000000000000000000000000000000000000000000000
310
00
310
00000000000000000000000000000000000000000000000000000000000000000000000000000000000000000000000000000000000000000000000000000000000000000000000000000000000000000000000000000000000000000000000000000000000000000000000000000000000000000000000000000000000000
310
00000000000000000000000000000000000000000000000000000000000000000000000000000000000000000000000000000000000000000000000000000000000000000000000000000000000000000000000000000000000000000000000000000000000000000000000000000000000000000000000000000000000000
310
00
310
00000000000000000000000000000000000000000000000000000000000000000000000000000000000000000000000000000000000000000000000000000000000000000000000000000000000000000000000000000000000000000000000000000000000000000000000000000000000000
  0
XRECORD
  5
514
102
{ACAD_REACTORS
330
547
102
}
330
547
100
AcDbXrecord
280
     1
310
DF56060034040701D0009A9999999999B93F000000000000000000000000000000000400000009000000000000000200000064000000640000000100000001000000190000007B14AE47E17A843F00000000004060409A9999999999B93F00000000004C2D41000000000070F7400000000000942141000000000000000000
310
0000000000000000000000000000000AD482040000000000000000000000000000F03F000000000000000000000000000030402D431CEBE2362A3F00000000000008400000000000000000009807C000000000000000007C1A61B9A711364020000000050000000A000000200000002000000020000000000000000000F03F
310
00
310
0000000000F03F000000000000F03F333333333333D33F333333333333D33F333333333333D33F000000000000F43F000000000000F43F000000000000F03F0200000064000000000000000000000000000840000000000000F83F00000000000000000000000000000000008056409A9999999999B93F0000000000000000
310
00000000000000000000000000000000000000000000000000000000000000000000000000000000000000000000000000000000000000000000000000000000000000000000000000000000000000000000000000000000000000000000000000000000000000000000000000000000000000000000000000000000000000
310
00
310
0000000000000000000000000000000000000000000000000000000000000000000000000000000000000000000000000000000000000000000000000000000000000000000000000000000000000000000000000000000000000000000000000000000000000000000000000000000000000000000000009A9999999999A9
310
3F9100000000000000000000000000000035A781D547960F40000000000000F03F000000000000F03F666666666666164000000000104068F200000000000000000000000000000000000000000000000000000000000000000000000000000000000000000000000000000000000000000000000000000000000000000000
310
00
310
00000000000000000000000000000000000000000000000000000000000000000000000000000000000000000000000000000000000000000000000000000000000000000000000000000000000000000000000000000000000000000000000000000000000000000000000000000000000000000000000000000000000000
310
000000000000000000000000000000000000000000000000000000000000000000000000000000000000000000000000000000000000000000000000FF000000000000000000000000000000000000000000000000000000000000000000000000000000000000000000000000000000000000000000000000000000000000
310
00
310
0000000000000000000000000000000000000000000000000000000000000000000000000000000000000000000000000000000000000000000000000000000000000000
  0
DICTIONARY
  5
538
330
537
100
AcDbDictionary
280
     1
281
     1
  3
ADSK_XREC_LAYOUTTHUMBNAIL
360
539
  0
XRECORD
  5
539
102
{ACAD_REACTORS
330
538
102
}
330
538
100
AcDbXrecord
280
     1
310
28000000B40000008B0000000100080000000000BC61000000000000000000000001000000000000FFFFFF0000000000FFFFFF000000000000000000000000000000000000000000000000000000000000000000330000006600000099000000CC000000FF00000000330000333300006633000099330000CC330000FF3300
310
0000660000336600006666000099660000CC660000FF66000000990000339900006699000099990000CC990000FF99000000CC000033CC000066CC000099CC0000CCCC0000FFCC000000FF000033FF000066FF000099FF0000CCFF0000FFFF000000003300330033006600330099003300CC003300FF003300003333003333
310
33006633330099333300CC333300FF33330000663300336633006666330099663300CC663300FF66330000993300339933006699330099993300CC993300FF99330000CC330033CC330066CC330099CC3300CCCC3300FFCC330000FF330033FF330066FF330099FF3300CCFF3300FFFF330000006600330066006600660099
310
006600CC006600FF00660000336600333366006633660099336600CC336600FF33660000666600336666006666660099666600CC666600FF66660000996600339966006699660099996600CC996600FF99660000CC660033CC660066CC660099CC6600CCCC6600FFCC660000FF660033FF660066FF660099FF6600CCFF6600
310
FFFF660000009900330099006600990099009900CC009900FF00990000339900333399006633990099339900CC339900FF33990000669900336699006666990099669900CC669900FF66990000999900339999006699990099999900CC999900FF99990000CC990033CC990066CC990099CC9900CCCC9900FFCC990000FF99
310
0033FF990066FF990099FF9900CCFF9900FFFF99000000CC003300CC006600CC009900CC00CC00CC00FF00CC000033CC003333CC006633CC009933CC00CC33CC00FF33CC000066CC003366CC006666CC009966CC00CC66CC00FF66CC000099CC003399CC006699CC009999CC00CC99CC00FF99CC0000CCCC0033CCCC0066CC
310
CC0099CCCC00CCCCCC00FFCCCC0000FFCC0033FFCC0066FFCC0099FFCC00CCFFCC00FFFFCC000000FF003300FF006600FF009900FF00CC00FF00FF00FF000033FF003333FF006633FF009933FF00CC33FF00FF33FF000066FF003366FF006666FF009966FF00CC66FF00FF66FF000099FF003399FF006699FF009999FF00CC
310
99FF00FF99FF0000CCFF0033CCFF0066CCFF0099CCFF00CCCCFF00FFCCFF0000FFFF0033FFFF0066FFFF0099FFFF00CCFFFF00FFFFFF00000000000D0D0D001A1A1A00282828003535350043434300505050005D5D5D006B6B6B00787878008686860093939300A1A1A100AEAEAE00BBBBBB00C9C9C900D6D6D600E4E4E400
310
F1F1F100FFFFFF0000000000000000000000000000000000000000000000000000000000000000000000000000000000E2E2E2E2E2E2E2E2E2E2E2E2E2E2E2E2E2E2E2E2E2E2E2E2E2E2E2E2E2E2E2E2E2E2E2E2E2E2E2E2E2E2E2E2E2E2E2E2E2E2E2E2E2E2E2E2E2E2E2E2E2E2E2E2E2E2E2E2E2E2E2E2E2E2E2E2E2E2E2
310
E2E2E2E2E2E2E2E2E2E2E2E2E2E2E2E2E2E2E2E2E2E2E2E2E2E2E2E2E2E2E2E2E2E2E2E2E2E2E2E2E2E2E2E2E2E2E2E2E2E2E2E2E2E2E2E2E2E2E2E2E2E2E2E2E2E2E2E2E2E2E2E2E2E2E2E2E2E2E2E2E2E2E2E2E2E2E2E2E2E2E2E2E2E2E2E2E2E2E2E2EFF5F5F5F5F5F5F5F5F5F5F5F5F5F5F5F5F5F5F5F5F5F5F5F5F5F5
310
F5F5F5F5F5F5F5F5F5F5F5F5F5F5F5F5F5F5F5F5F5F5F5F5F5F5F5F5F5F5F5F5F5F5F5F5F5F5F5F5F5F5F5F5F5F5F5F5F5F5F5F5F5F5F5F5F5F5F5F5F5F5F5F5F5F5F5F5F5F5F5F5F5F5F5F5F5F5F5F5F5F5F5F5F5F5F5F5F5F5F5F5F5F5F5F5F5F5F5F5F5F5F5F5F5F5F5F5F5F5F5F5F5F5F5F5F5F5F5F5F5F5F5F5F5F5F5
310
F5F5F5F5F5F5F5F5F5F5F5F5F5F5F5F5F5F5F5F5F5F5F5F5E2E2EFF5F5F5F5F5F5F5F5F5F5F5F5F5F5F5F5F5F5F5F5F5F5F5F5F5F5F5F5F5F5F5F5F5F5F5F5F5F5F5F5F5F5F5F5F5F5F5F5F5F5F5F5F5F5F5F5F5F5F5F5F5F5F5F5F5F5F5F5F5F5F5F5F5F5F5F5F5F5F5F5F5F5F5F5F5F5F5F5F5F5F5F5F5F5F5F5F5F5F5F5
310
F5F5F5F5F5F5F5F5F5F5F5F5F5F5F5F5F5F5F5F5F5F5F5F5F5F5F5F5F5F5F5F5F5F5F5F5F5F5F5F5F5F5F5F5F5F5F5F5F5F5F5F5F5F5F5F5F5F5F5F5F5F5F5F5F5F5F5F5F5F5F5F5F5F5F5F5F5E2E2EFF5F5F5F5F5F5F5F5F5F5F5F5F5F5F5F5F5F5F5F5F5F5F5F5F5F5F5F5F5F5F5F5F5F5F5F5F5F5F5F5F5F5F5F5F5F5F5
310
F5F5F5F5F5F5F5F5F5F5F5F5F5F5F5F5F5F5F5F5F5F5F5F5F5F5F5F5F5F5F5F5F5F5F5F5F5F5F5F5F5F5F5F5F5F5F5F5F5F5F5F5F5F5F5F5F5F5F5F5F5F5F5F5F5F5F5F5F5F5F5F5F5F5F5F5F5F5F5F5F5F5F5F5F5F5F5F5F5F5F5F5F5F5F5F5F5F5F5F5F5F5F5F5F5F5F5F5F5F5F5F5F5F5F5F5F5F5F5F5F5F5F5F5F5F5F5
310
F5F5F5E2E2EFF5F5F5E2E2E2E2E2E2E2E2F5F5F5F5F5F5F5F5F5E2E2E2E2E2E2E2E2E2E2E2E2E2E2E2E2F5F5F5F5F5F5F5F5E2E2E2E2E2E2E2E2E2E2E2E2E2E2E2E2F5F5F5F5F5F5F5F5F5E2E2E2E2E2E2E2E2E2E2E2E2E2E2E2F5F5F5F5F5F5F5F5F5E2E2E2E2E2E2E2E2E2E2E2E2E2E2E2F5F5F5F5F5F5F5F5F5E2E2E2E2
310
E2E2E2E2E2E2E2E2E2E2E2E2F5F5F5F5F5F5F5F5E2E2E2E2E2E2E2E2E2E2E2E2E2E2E2E2F5F5F5F5F5F5F5F5F5E2E2E2E2E2E2E2E2F5F5F5E2E2EFF5F5F5E2F5F5F5F5F5F5F5F5F5F5F5F5F5F5F5F5F5F5F5F5F5F5F5F5F5F5F5F5F5F5F5F5F5F5F5F5F5F5F5F5F5F5F5F5F5F5F5F5F5F5F5F5F5F5F5F5F5F5F5F5F5F5F5F5
310
F5F5F5F5F5F5F5F5F5F5F5F5F5F5F5F5F5F5F5F5F5F5F5F5F5F5F5F5F5F5F5F5F5F5F5F5F5F5F5F5F5F5F5F5F5F5F5F5F5F5F5F5F5F5F5F5F5F5F5F5F5F5F5F5F5F5F5F5F5F5F5F5F5F5F5F5F5F5F5F5F5F5F5F5F5F5F5F5F5F5F5F5F5F5F5F5F5F5F5F5F5F5F5F5F5E2F5F5F5E2E2EFF5F5F5E2F5F5F5F5F5F5F5F5F5F5F5
310
F5F5F5F5F5F5F5F5F5F5F5F5F5F5F5F5F5F5F5F5F5F5F5F5F5F5F5F5F5F5F5F5F5F5F5F5F5F5F5F5F5F5F5F5F5F5F5F5F5F5F5F5F5F5F5F5F5F5F5F5F5F5F5F5F5F5F5F5F5F5F5F5F5F5F5F5F5F5F5F5F5F5F5F5F5F5F5F5F5F5F5F5F5F5F5F5F5F5F5F5F5F5F5F5F5F5F5F5F5F5F5F5F5F5F5F5F5F5F5F5F5F5F5F5F5F5F5
310
F5F5F5F5F5F5F5F5F5F5F5F5F5F5F5F5F5F5F5F5F5F5F5F5F5F5F5F5F5F5F5E2F5F5F5E2E2EFF5F5F5E2F5F5F5F5F5F5F5F5F5F5F5F5F5F5F5F5F5F5F5F5F5F5F5F5F5F5F5F5F5F5F5F5F5F5F5F5F5F5F5F5F5F5F5F5F5F5F5F5F5F5F5F5F5F5F5F5F5F5F5F5F5F5F5F5F5F5F5F5F5F5F5F5F5F5F5F5F5F5F5F5F5F5F5F5F5
310
F5F5F5F5F5F5F5F5F5F5F5F5F5F5F5F5F5F5F5F5F5F5F5F5F5F5F5F5F5F5F5F5F5F5F5F5F5F5F5F5F5F5F5F5F5F5F5F5F5F5F5F5F5F5F5F5F5F5F5F5F5F5F5F5F5F5F5F5F5F5F5F5F5F5F5F5F5F5F5F5F5F5F5F5E2F5F5F5E2E2EFF5F5F5E2F5F5F5F5F5F5F5F5F5F5F5F5F5F5F5F5F5F5F5F5F5F5F5F5F5F5F5F5F5F5F5F5
310
F5F5F5F5F5F5F5F5F5F5F5F5F5F5F5F5F5F5F5F5F5F5F5F5F5F5F5F5F5F5F5F5F5F5F5F5F5F5F5F5F5F5F5F5F5F5F5F5F5F5F5F5F5F5F5F5F5F5F5F5F5F5F5F5F5F5F5F5F5F5F5F5F5F5F5F5F5F5F5F5F5F5F5F5F5F5F5F5F5F5F5F5F5F5F5F5F5F5F5F5F5F5F5F5F5F5F5F5F5F5F5F5F5F5F5F5F5F5F5F5F5F5F5F5F5F5F5
310
F5F5F5F5F5F5F5F5F5F5E2F5F5F5E2E2EFF5F5F5E2F5F5F5F5F5F5F5F5F5F5F5F5F5F5F5F5F5F5F5F5F5F5F5F5F5F5F5F5F5F5F5F5F5F5F5F5F5F5F5F5F5F5F5F5F5F5F5F5F5F5F5F5F5F5F5F5F5F5F5F5F5F5F5F5F5F5F5F5F5F5F5F5F5F5F5F5F5F5F5F5F5F5F5F5F5F5F5F5F5F5F5F5F5F5F5F5F5F5F5F5F5F5F5F5F5F5
310
F5F5F5F5F5F5F5F5F5F5F5F5F5F5F5F5F5F5F5F5F5F5F5F5F5F5F5F5F5F5F5F5F5F5F5F5F5F5F5F5F5F5F5F5F5F5F5F5F5F5F5F5F5F5F5F5F5F5F5F5F5F5F5E2F5F5F5E2E2EFF5F5F5E2F5F5F5F5F5F5F5F5F5F5F5F5F5F5F5F5F5F5F5F5F5F5F5F5F5F5F5F5F5F5F5F5F5F5F5F5F5F5F5F5F5F5F5F5F5F5F5F5F5F5F5F5F5
310
F5F5F5F5F5F5F5F5F5F5F5F5F5F5F5F5F5F5F5F5F5F5F5F5F5F5F5F5F5F5F5F5F5F5F5F5F5F5F5F5F5F5F5F5F5F5F5F5F5F5F5F5F5F5F5F5F5F5F5F5F5F5F5F5F5F5F5F5F5F5F5F5F5F5F5F5F5F5F5F5F5F5F5F5F5F5F5F5F5F5F5F5F5F5F5F5F5F5F5F5F5F5F5F5F5F5F5F5F5F5F5F5F5F5F5F5E2F5F5F5E2E2EFF5F5F5E2
310
F5F5F5F5F5F5F5F5F5F5F5F5F5F5F5F5F5F5F5F5F5F5F5F5F5F5F5F5F5F5F5F5F5F5F5F5F5F5F5F5F5F5F5F5F5F5F5F5F5F5F5F5F5F5F5F5F5F5F5F5F5F5F5F5F5F5F5F5F5F5F5F5F5F5F5F5F5F5F5F5F5F5F5F5F5F5F5F5F5F5F5F5F5F5F5F5F5F5F5F5F5F5F5F5F5F5F5F5F5F5F5F5F5F5F5F5F5F5F5F5F5F5F5F5F5F5F5
310
F5F5F5F5F5F5F5F5F5F5F5F5F5F5F5F5F5F5F5F5F5F5F5F5F5F5F5F5F5F5F5F5F5F5F5F5F5F5F5F5F5F5E2F5F5F5E2E2EFF5F5F5E2F5F5F5F5F5F5F5F5F5F5F5F5F5F5F5F5F5F5F5F5F5F5F5F5F5F5F5F5F5F5F5F5F5F5F5F5F5F5F5F5F5F5F5F5F5F5F5F5F5F5F5F5F5F5F5F5F5F5F5F5F5F5F5F5F5F5F5F5F5F5F5F5F5F5
310
F5F5F5F5F5F5F5F5F5F5F5F5F5F5F5F5F5F5F5F5F5F5F5F5F5F5F5F5F5F5F5F5F5F5F5F5F5F5F5F5F5F5F5F5F5F5F5F5F5F5F5F5F5F5F5F5F5F5F5F5F5F5F5F5F5F5F5F5F5F5F5F5F5F5F5F5F5F5F5F5F5F5F5F5F5F5F5F5F5F5F5F5F5F5F5E2F5F5F5E2E2EFF5F5F5F5F5F5F5F5F5F5F5F5F5F5F5F5F5F5F5F5F5F5F5F5F5
310
F5F5F5F5F5F5F5F5F5F5F5F5F5F5F5F5F5F5F5F5F5F5F5F5F5F5F5F5F5F5F5F5F5F5F5F5F5F5F5F5F5F5F5F5F5F5F5F5F5F5F5F5F5F5F5F5F5F5F5F5F5F5F5F5F5F5F5F5F5F5F5F5F5F5F5F5F5F5F5F5F5F5F5F5F5F5F5F5F5F5F5F5F5F5F5F5F5F5F5F5F5F5F5F5F5F5F5F5F5F5F5F5F5F5F5F5F5F5F5F5F5F5F5F5F5F5F5
310
F5F5F5F5F5F5F5F5F5F5F5F5F5F5F5F5F5F5F5F5F5F5F5F5F5E2E2EFF5F5F5F5F5F5F5F5F5F5F5F5F5F5F5F5F5F5F5F5F5F5F5F5F5F5F5F5F5F5F5F5F5F5F5F5F5F5F5F5F5F5F5F5F5F5F5F5F5F5F5F5F5F5F5F5F5F5F5F5F5F5F5F5F5F5F5F5F5F5F5F5F5F5F5F5F5F5F5F5F5F5F5F5F5F5F5F5F5F5F5F5F5F5F5F5F5F5F5
310
F5F5F5F5F5F5F5F5F5F5F5F5F5F5F5F5F5F5F5F5F5F5F5F5F5F5F5F5F5F5F5F5F5F5F5F5F5F5F5F5F5F5F5F5F5F5F5F5F5F5F5F5F5F5F5F5F5F5F5F5F5F5F5F5F5F5F5F5F5F5F5F5F5F5F5F5F5F5E2E2EFF5F5F5F5F5F5F5F5F5F5F5F5F5F5F5F5F5F5F5F5F5F5F5F5F5F5F5F5F5F5F5F5F5F5F5F5F5F5F5F5F5F5F5F5F5F5
310
F5F5F5F5F5F5F5F5F5F5F5F5F5F5F5F5F5F5F5F5F5F5F5F5F5F5F5F5F5F5F5F5F5F5F5F5F5F5F5F5F5F5F5F5F5F5F5F5F5F5F5F5F5F5F5F5F5F5F5F5F5F5F5F5F5F5F5F5F5F5F5F5F5F5F5F5F5F5F5F5F5F5F5F5F5F5F5F5F5F5F5F5F5F5F5F5F5F5F5F5F5F5F5F5F5F5F5F5F5F5F5F5F5F5F5F5F5F5F5F5F5F5F5F5F5F5F5
310
F5F5F5F5E2E2EFF5F5F5F5F5F5F5F5F5F5F5F5F5F5F5F5F5F5F5F5F5F5F5F5F5F5F5F5F5F5F5F5F5F5F5F5F5F5F5F5F5F5F5F5F5F5F5F5F5F5F5F5F5F5F5F5F5F5F5F5F5F5F5F5F5F5F5F5F5F5F5F5F5F5F5F5F5F5F5F5F5F5F5F5F5F5F5F5F5F5F5F5F5F5F5F5F5F5F5F5F5F5F5F5F5F5F5F5F5F5F5F5F5F5F5F5F5F5F5F5
310
F5F5F5F5F5F5F5F5F5F5F5F5F5F5F5F5F5F5F5F5F5F5F5F5F5F5F5F5F5F5F5F5F5F5F5F5F5F5F5F5F5F5F5F5F5F5F5F5F5F5F5F5F5F5F5F5F5E2E2EFF5F5F5F5F5F5F5F5F5F5F5F5F5F5F5F5F5F5F5F5E2E2E2E2E2E2E2E2E2E2E2E2E2E2E2E2E2E2E2E2E2E2E2E2E2E2E2E2E2E2E2E2E2E2E2E2E2E2E2E2E2E2E2E2E2E2E2
310
E2E2E2E2E2E2E2E2E2E2E2E2E2E2E2E2E2E2E2E2E2E2E2E2E2E2E2E2E2E2E2E2E2E2E2E2E2E2E2E2E2E2E2E2E2E2E2E2E2E2E2E2E2E2E2E2E2E2E2E2E2E2E2E2E2E2E2E2E2E2E2E2E2E2E2E2E2E2E2E2E2E2E2E2E2E2E2E2E2E2F5F5F5F5F5F5F5F5F5F5F5F5F5F5F5F5F5F5F5F5E2E2EFF5F5F5F5F5F5F5F5F5F5F5F5F5F5
310
F5F5F5F5F5F5E2F5F5F5F5F5F5F5F5F5F5F5F5F5F5F5F5F5F5F5F5F5F5F5F5F5F5F5F5F5F5F5F5F5F5F5F5F5F5F5F5F5F5F5F5F5F5F5F5F5F5F5F5F5F5F5F5F5F5F5F5F5F5F5F5F5F5F5F5F5F5F5F5F5F5F5F5F5F5F5F5F5F5F5F5F5F5F5F5F5F5F5F5F5F5F5F5F5F5F5F5F5F5F5F5F5F5F5F5F5F5F5F5F5F5F5F5F5F5F5F5
310
F5F5F5F5F5F5F5F5F5F5F5F5F5F5F5E2F5F5F5F5F5F5F5F5F5F5F5F5F5F5F5F5F5F5F5F5E2E2EFF5F5F5F5F5F5F5F5F5F5F5F5F5F5F5F5F5F5F5F5E2F5F5F5F5F5F5F5F5F5F5F5F5F5F5F5F5F5F5F5F5F5F5F5F5F5F5F5F5F5F5F5F5F5F5F5F5F5F5F5F5F5F5F5F5F5F5F5F5F5F5F5F5F5F5F5F5F5F5F5F5F5F5F5F5F5F5F5
310
F5F5F5F5F5F5F5F5F5F5F5F5F5F5F5F5F5F5F5F5F5F5F5F5F5F5F5F5F5F5F5F5F5F5F5F5F5F5F5F5F5F5F5F5F5F5F5F5F5F5F5F5F5F5F5F5F5F5F5F5F5F5F5F5F5F5F5F5E2F5F5F5F5F5F5F5F5F5F5F5F5F5F5F5F5F5F5F5F5E2E2EFF5F5F5F5F5F5F5F5F5F5F5F5F5F5F5F5F5F5F5F5E2F5F5F5F5F5F5F5F5F5F5F5F5F5F5
310
F5F5F5F5F5F5F5F5F5F5F5F5F5F5F5F5F5F5F5F5F5F5F5F5F5F5F5F5F5F5F5F5F5F5F5F5F5F5F5F5F5F5F5F5F5F5F5F5F5F5F5F5F5F5F5F5F5F5F5F5F5F5F5F5F5F5F5F5F5F5F5F5F5F5F5F5F5F5F5F5F5F5F5F5F5F5F5F5F5F5F5F5F5F5F5F5F5F5F5F5F5F5F5F5F5F5F5F5F5F5F5F5F5F5F5F5F5F5F5F5F5E2F5F5F5F5F5
310
F5F5F5F5F5F5F5F5F5F5F5F5F5F5F5E2E2EFF5F5F5F5F5F5F5F5F5F5F5F5F5F5F5F5F5F5F5F5E2F5F5F5F5F5F5F5F5F5F5F5F5F5F5F5F5F5F5F5F5F5F5F5F5F5F5F5F5F5F5F5F5F5F5F5F5F5F5F5F5F5F5F5F5F5F5F5F5F5F5F5F5F5F5F5F5F5F5F5F5F5F5F5F5F5F5F5F5F5F5F5F5F5F5F5F5F5F5F5F5F5F5F5F5F5F5F5F5
310
F5F5F5F5F5F5F5F5F5F5F5F5F5F5F5F5F5F5F5F5F5F5F5F5F5F5F5F5F5F5F5F5F5F5F5F5F5F5F5F5F5F5F5F5F5F5F5E2F5F5F5F5F5F5F5F5F5F5F5F5F5F5F5F5F5F5F5F5E2E2EFF5F5F5E2F5F5F5F5F5F5F5F5F5F5F5F5F5F5F5F5E2F5F5F5F5F5F5F5F5F5F5F5F5F5F5F5F5F5F5F5F5F5F5F5F5F5F5F5F5F5F5F5F5F5F5F5
310
F5F5F5F5F5F5F5F5F5F5F5F5F5F5F5F5F5F5F5F5F5F5F5F5F5F5F5F5F5F5F5F5F5F5F5F5F5F5F5F5F5F5F5F5F5F5F5F5F5F5F5F5F5F5F5F5F5F5F5F5F5F5F5F5F5F5F5F5F5F5F5F5F5F5F5F5F5F5F5F5F5F5F5F5F5F5F5F5F5F5F5F5F5F5F5F5F5F5F5F5E2F5F5F5F5F5F5F5F5F5F5F5F5F5F5F5F5E2F5F5F5E2E2EFF5F5F5
310
E2F5F5F5F5F5F5F5F5F5F5F5F5F5F5F5F5E2F5F5F5F5F5F5F5F5F5F5F5F5F5F5F5F5F5F5F5F5F5F5F5F5F5F5F5F5F5F5F5F5F5F5F5F5F5F5F5F5F5F5F5F5F5F5F5F5F5F5F5F5F5F5F5F5F5F5F5F5F5F5F5F5F5F5F5F5F5F5F5F5F5F5F5F5F5F5F5F5F5F5F5F5F5F5F5F5F5F5F5F5F5F5F5F5F5F5F5F5F5F5F5F5F5F5F5F5F5
310
F5F5F5F5F5F5F5F5F5F5F5F5F5F5F5F5F5F5F5F5F5F5F5F5F5F5E2F5F5F5F5F5F5F5F5F5F5F5F5F5F5F5F5E2F5F5F5E2E2EFF5F5F5E2F5F5F5F5F5F5F5F5F5F5F5F5F5F5F5F5E2F5F5F5F5F5F5F5F5F5F5F5F5F5F5F5F5F5F5F5F5F5F5F5F5F5F5F5F5F5F5F5F5F5F5F5F5F5F5F5F5F5F5F5F5F5F5F5F5F5F5F5F5F5F5F5F5
310
F5F5F5F5F5F5F5F5F5F5F5F5F5F5F5F5F5F5F5F5F5F5F5F5F5F5F5F5F5F5F5F5F5F5F5F5F5F5F5F5F5F5F5F5F5F5F5F5F5F5F5F5F5F5F5F5F5F5F5F5F5F5F5F5F5F5F5F5F5F5F5F5F5F5F5F5F5F5F5E2F5F5F5F5F5F5F5F5F5F5F5F5F5F5F5F5E2F5F5F5E2E2EFF5F5F5E2F5F5F5F5F5F5F5F5F5F5F5F5F5F5F5F5E2F5F5F5
310
F5F5F5F5F5F5F5F5F5F5F5F5F5F5F5F5F5F5F5F5F5F5F5F5F5F5F5F5F5F5F5F5F5F5F5F5F5F5F5F5F5F5F5F5F5F5F5F5F5F5F5F5F5F5F5F5F5F5F5F5F5F5F5F5F5F5F5F5F5F5F5F5F5F5F5F5F5F5F5F5F5F5F5F5F5F5F5F5F5F5F5F5F5F5F5F5F5F5F5F5F5F5F5F5F5F5F5F5F5F5F5F5F5F5F5F5F5F5F5F5F5F5F5F5F5F5F5
310
F5F5F5F5F5E2F5F5F5F5F5F5F5F5F5F5F5F5F5F5F5F5E2F5F5F5E2E2EFF5F5F5E2F5F5F5F5F5F5F5F5F5F5F5F5F5F5F5F5E2F5F5F5F5F5F5F5F5F5F5F5F5F5F5F5F5F5F5F5F5F5F5F5F5F5F5F5F5F5F5F5F5F5F5F5F5F5F5F5F5F5F5F5F5F5F5F5F5F5F5F5F5F5F5F5F5F5F5F5F5F5F5F5F5F5F5F5F5F5F5F5F5F5F5F5F5F5
310
F5F5F5F5F5F5F5F5F5F5F5F5F5F5F5F5F5F5F5F5F5F5F5F5F5F5F5F5F5F5F5F5F5F5F5F5F5F5F5F5F5F5F5F5F5F5F5F5F5F5F5F5F5F5F5F5F5F5E2F5F5F5F5F5F5F5F5F5F5F5F5F5F5F5F5E2F5F5F5E2E2EFF5F5F5E2F5F5F5F5F5F5F5F5F5F5F5F5F5F5F5F5E2F5F5F5F5F5F5F5F5F5F5F5F5F5F5F5F5F5F5F5F5F5F5F5F5
310
F5F5F5F5F5F5F5F5F5F5F5F5F5F5F5F5F5F5F5F5F5F5F5F5F5F5F5F5F5F5F5F5F5F5F5F5F5F5F5F5F5F5F5F5F5F5F5F5F5F5F5F5F5F5F5F5F5F5F5F5F5F5F5F5F5F5F5F5F5F5F5F5F5F5F5F5F5F5F5F5F5F5F5F5F5F5F5F5F5F5F5F5F5F5F5F5F5F5F5F5F5F5F5F5F5F5F5F5F5F5F5E2F5F5F5F5F5F5F5F5F5F5F5F5F5F5F5
310
F5E2F5F5F5E2E2EFF5F5F5E2F5F5F5F5F5F5F5F5F5F5F5F5F5F5F5F5E2F5F5F5F5F5F5F5F5F5F5F5F5F5F5F5F5F5F5F5F5F5F5F5F5F5F5F5F5F5F5F5F5F5F5F5F5F5F5F5F5F5F5F5F5F5F5F5F5F5F5F5F5F5F5F5F5F5F5F5F5F5F5F5F5F5F5F5F5F5F5F5F5F5F5F5F5F5F5F5F5F5F5F5F5F5F5F5F5F5F5F5F5F5F5F5F5F5F5
310
F5F5F5F5F5F5F5F5F5F5F5F5F5F5F5F5F5F5F5F5F5F5F5F5F5F5F5F5F5F5F5F5F5F5F5F5F5E2F5F5F5F5F5F5F5F5F5F5F5F5F5F5F5F5E2F5F5F5E2E2EFF5F5F5E2F5F5F5F5F5F5F5F5F5F5F5F5F5F5F5F5E2F5F5F5F5F5F5F5F5F5F5F5F5F5F5F5F5F5F5F5F5F5F5F5F5F5F5F5F5F5F5F5F5F5F5F5F5F5F5F5F5F5F5F5F5F5
310
F5F5F5F5F5F5F5F5F5F5F5F5F5F5F5F5F5F5F5F5F5F5F5F5F5F5F5F5F5F5F5F5F5F5F5F5F5F5F5F5F5F5F5F5F5F5F5F5F5F5F5F5F5F5F5F5F5F5F5F5F5F5F5F5F5F5F5F5F5F5F5F5F5F5F5F5F5F5F5F5F5F5F5F5F5F5F5F5F5F5E2F5F5F5F5F5F5F5F5F5F5F5F5F5F5F5F5E2F5F5F5E2E2EFF5F5F5E2F5F5F5F5F5F5F5F5F5
310
F5F5F5F5F5F5F5E2F5F5F5F5F5F5F5F5F5F5F5F5F5F5F5F5F5F5F5F5F5F5F5F5F5F5F5F5F5F5F5F5F5F5F5F5F5F5F5F5F5F5F5F5F5F5F5F5F5F5F5F5F5F5F5F5F5F5F5F5F5F5F5F5F5F5F5F5F5F5F5F5F5F5F5F5F5F5F5F5F5F5F5F5F5F5F5F5F5F5F5F5F5F5F5F5F5F5F5F5F5F5F5F5F5F5F5F5F5F5F5F5F5F5F5F5F5F5F5
310
F5F5F5F5F5F5F5F5F5F5F5F5F5F5F5F5E2F5F5F5F5F5F5F5F5F5F5F5F5F5F5F5F5E2F5F5F5E2E2EFF5F5F5E2F5F5F5F5F5F5F5F5F5F5F5F5F5F5F5F5E2F5F5F5F5F5F5F5F5F5F5F5F5F5F5F5F5F5F5F5F5F5F5F5F5F5F5F5F5F5F5F5F5F5F5F5F5F5F5F5F5F5F5F5F5F5F5F5F5F5F5F5F5F5F5F5F5F5F5F5F5F5F5F5F5F5F5
310
F5F5F5F5F5F5F5F5F5F5F5F5F5F5F5F5F5F5F5F5F5F5F5F5F5F5F5F5F5F5F5F5F5F5F5F5F5F5F5F5F5F5F5F5F5F5F5F5F5F5F5F5F5F5F5F5F5F5F5F5F5F5F5F5F5F5F5F5F5E2F5F5F5F5F5F5F5F5F5F5F5F5F5F5F5F5E2F5F5F5E2E2EFF5F5F5E2F5F5F5F5F5F5F5F5F5F5F5F5F5F5F5F5E2F5F5F5F5F5F5F5F5F5F5F5F5F5
310
F5F5F5F5F5F5F5F5F5F5F5F5F5F5F5F5F5F5F5F5F5F5F5F5F5F5F5F5F5F5F5F5F5F5F5F5F5F5F5F5F5F5F5F5F5F5F5F5F5F5F5F5F5F5F5F5F5F5F5F5F5F5F5F5F5F5F5F5F5F5F5F5F5F5F5F5F5F5F5F5F5F5F5F5F5F5F5F5F5F5F5F5F5F5F5F5F5F5F5F5F5F5F5F5F5F5F5F5F5F5F5F5F5F5F5F5F5F5F5F5F5F5E2F5F5F5F5
310
F5F5F5F5F5F5F5F5F5F5F5F5E2F5F5F5E2E2EFF5F5F5E2F5F5F5F5F5F5F5F5F5F5F5F5F5F5F5F5E2F5F5F5F5F5F5F5F5F5F5F5F5F5F5F5F5F5F5F5F5F5F5F5F5F5F5F5F5F5F5F5F5F5F5F5F5F5F5F5F5F5F5F5F5F5F5F5F5F5F5F5F5F5F5F5F5F5F5F5F5F5F5F5F5F5F5F5F5F5F5F5F5F5F5F5F5F5F5F5F5F5F5F5F5F5F5F5
310
F5F5F5F5F5F5F5F5F5F5F5F5F5F5F5F5F5F5F5F5F5F5F5F5F5F5F5F5F5F5F5F5F5F5F5F5F5F5F5F5F5F5F5F5F5F5F5F5E2F5F5F5F5F5F5F5F5F5F5F5F5F5F5F5F5E2F5F5F5E2E2EFF5F5F5E2F5F5F5F5F5F5F5F5F5F5F5F5F5F5F5F5E2F5F5F5F5F5F5F5F5F5F5F5F5F5F5F5F5F5F5F5F5F5F5F5F5F5F5F5F5F5F5F5F5F5F5
310
F5F5F5F5F5F5F5F5F5F5F5F5F5F5F5F5F5F5F5F5F5F5F5F5F5F5F5F5F5F5F5F5F5F5F5F5F5F5F5F5F5F5F5F5F5F5F5F5F5F5F5F5F5F5F5F5F5F5F5F5F5F5F5F5F5F5F5F5F5F5F5F5F5F5F5F5F5F5F5F5F5F5F5F5F5F5F5F5F5F5F5F5F5F5F5F5F5F5F5F5F5E2F5F5F5F5F5F5F5F5F5F5F5F5F5F5F5F5E2F5F5F5E2E2EFF5F5
310
F5E2F5F5F5F5F5F5F5F5F5F5F5F5F5F5F5F5E2F5F5F5F5F5F5F5F5F5F5F5F5F5F5F5F5F5F5F5F5F5F5F5F5F5F5F5F5F5F5F5F5F5F5F5F5F5F5F5F5F5F5F5F5F5F5F5F5F5F5F5F5F5F5F5F5F5F5F5F5F5F5F5F5F5F5F5F5F5F5F5F5F5F5F5F5F5F5F5F5F5F5F5F5F5F5F5F5F5F5F5F5F5F5F5F5F5F5F5F5F5F5F5F5F5F5F5F5
310
F5F5F5F5F5F5F5F5F5F5F5F5F5F5F5F5F5F5F5F5F5F5F5F5F5F5F5E2F5F5F5F5F5F5F5F5F5F5F5F5F5F5F5F5E2F5F5F5E2E2EFF5F5F5E2F5F5F5F5F5F5F5F5F5F5F5F5F5F5F5F5E2F5F5F5F5F5F5F5F5F5F5F5F5F5F5F5F5F5F5F5F5F5F5F5F5F5F5F5F5F5F5F5F5F5F5F5F5F5F5F5F5F5F5F5F5F5F5F5F5F5F5F5F5F5F5F5
310
F5F5F5F5F5F5F5F5F5F5F5F5F5F5F5F5F5F5F5F5F5F5F5F5F5F5F5F5F5F5F5F5F5F5F5F5F5F5F5F5F5F5F5F5F5F5F5F5F5F5F5F5F5F5F5F5F5F5F5F5F5F5F5F5F5F5F5F5F5F5F5F5F5F5F5F5F5F5F5F5E2F5F5F5F5F5F5F5F5F5F5F5F5F5F5F5F5E2F5F5F5E2E2EFF5F5F5E2F5F5F5F5F5F5F5F5F5F5F5F5F5F5F5F5E2F5F5
310
F5F5F5F5F5F5F5F5F5F5F5F5F5F5F5F5F5F5F5F5F5F5F5F5F5F5F5F5F5F5F5F5F5F5F5F5F5F5F5F5F5F5F5F5F5F5F5F5F5F5F5F5F5F5F5F5F5F5F5F5F5F5F5F5F5F5F5F5F5F5F5F5F5F5F5F5F5F5F5F5F5F5F5F5F5F5F5F5F5F5F5F5F5F5F5F5F5F5F5F5F5F5F5F5F5F5F5F5F5F5F5F5F5F5F5F5F5F5F5F5F5F5F5F5F5F5F5
310
F5F5F5F5F5F5E2F5F5F5F5F5F5F5F5F5F5F5F5F5F5F5F5E2F5F5F5E2E2EFF5F5F5E2F5F5F5F5F5F5F5F5F5F5F5F5F5F5F5F5E2F5F5F5F5F5F5F5F5F5F5F5F5F5F5F5F5F5F5F5F5F5F5F5F5F5F5F5F5F5F5F5F5F5F5F5F5F5F5F5F5F5F5F5F5F5F5F5F5F5F5F5F5F5F5F5F5F5F5F5F5F5F5F5F5F5F5F5F5F5F5F5F5F5F5F5F5
310
F5F5F5F5F5F5F5F5F5F5F5F5F5F5F5F5F5F5F5F5F5F5F5F5F5F5F5F5F5F5F5F5F5F5F5F5F5F5F5F5F5F5F5F5F5F5F5F5F5F5F5F5F5F5F5F5F5F5F5E2F5F5F5F5F5F5F5F5F5F5F5F5F5F5F5F5E2F5F5F5E2E2EFF5F5F5F5F5F5F5F5F5F5F5F5F5F5F5F5F5F5F5F5E2F5F5F5F5F5F5F5F5F5F5F5F5F5F5F5F5F5F5F5F5F5F5F5
310
F5F5F5F5F5F5F5F5F5F5F5F5F5F5F5F5F5F5F5F5F5F5F5F5F5F5F5F5F5F5F5F5F5F5F5F5F5F5F5F5F5F5F5F5F5F5F5F5F5F5F5F5F5F5F5F5F5F5F5F5F5F5F5F5F5F5F5F5F5F5F5F5F5F5F5F5F5F5F5F5F5F5F5F5F5F5F5F5F5F5F5F5F5F5F5F5F5F5F5F5F5F5F5F5F5F5F5F5F5F5F5F5E2F5F5F5F5F5F5F5F5F5F5F5F5F5F5
310
F5F5F5F5F5F5E2E2EFF5F5F5F5F5F5F5F5F5F5F5F5F5F5F5F5F5F5F5F5E2F5F5F5F5F5F5F5F5F5F5F5F5F5F5F5F5F5F5F5F5F5F5F5F5F5F5F5F5F5F5F5F5F5F5F5F5F5F5F5F5F5F5F5F5F5F5F5F5F5F5F5F5F5F5F5F5F5F5F5F5F5F5F5F5F5F5F5F5F5F5F5F5F5F5F5F5F5F5F5F5F5F5F5F5F5F5F5F5F5F5F5F5F5F5F5F5F5
310
F5F5F5F5F5F5F5F5F5F5F5F5F5F5F5F5F5F5F5F5F5F5F5F5F5F5F5F5F5F5F5F5F5F5F5F5F5F5E2F5F5F5F5F5F5F5F5F5F5F5F5F5F5F5F5F5F5F5F5E2E2EFF5F5F5F5F5F5F5F5F5F5F5F5F5F5F5F5F5F5F5F5E2F5F5F5F5F5F5F5F5F5F5F5F5F5F5F5F5F5F5F5F5F5F5F5F5F5F5F5F5F5F5F5F5F5F5F5F5F5F5F5F5F5F5F5F5
310
F5F5F5F5F5F5F5F5F5F5F5F5F5F5F5F5F5F5F5F5F5F5F5F5F5F5F5F5F5F5F5F5F5F5F5F5F5F5F5F5F5F5F5F5F5F5F5F5F5F5F5F5F5F5F5F5F5F5F5F5F5F5F5F5F5F5F5F5F5F5F5F5F5F5F5F5F5F5F5F5F5F5F5F5F5F5F5F5F5F5F5E2F5F5F5F5F5F5F5F5F5F5F5F5F5F5F5F5F5F5F5F5E2E2EFF5F5F5F5F5F5F5F5F5F5F5F5
310
F5F5F5F5F5F5F5F5E2F5F5F5F5F5F5F5F5F5F5F5F5F5F5F5F5F5F5F5F5F5F5F5F5F5F5F5F5F5F5F5F5F5F5F5F5F5F5F5F5F5F5F5F5F5F5F5F5F5F5F5F5F5F5F5F5F5F5F5F5F5F5F5F5F5F5F5F5F5F5F5F5F5F5F5F5F5F5F5F5F5F5F5F5F5F5F5F5F5F5F5F5F5F5F5F5F5F5F5F5F5F5F5F5F5F5F5F5F5F5F5F5F5F5F5F5F5F5
310
F5F5F5F5F5F5F5F5F5F5F5F5F5F5F5F5F5E2F5F5F5F5F5F5F5F5F5F5F5F5F5F5F5F5F5F5F5F5E2E2EFF5F5F5F5F5F5F5F5F5F5F5F5F5F5F5F5F5F5F5F5E2F5F5F5F5F5F5F5F5F5F5F5F5F5F5F5F5F5F5F5F5F5F5F5F5F5F5F5F5F5F5F5F5F5F5F5F5F5F5F5F5F5F5F5F5F5F5F5F5F5F5F5F5F5F5F5F5F5F5F5F5F5F5F5F5F5
310
F5F5F5F5F5F5F5F5F5F5F5F5F5F5F5F5F5F5F5F5F5F5F5F5F5F5F5F5F5F5F5F5F5F5F5F5F5F5F5F5F5F5F5F5F5F5F5F5F5F5F5F5F5F5F5F5F5F5F5F5F5F5F5F5F5F5F5F5F5F5E2F5F5F5F5F5F5F5F5F5F5F5F5F5F5F5F5F5F5F5F5E2E2EFF5F5F5F5F5F5F5F5F5F5F5F5F5F5F5F5F5F5F5F5E2F5F5F5F5F5F5F5F5F5F5F5F5
310
F5F5F5F5F5F5F5F5F5F5F5F5F5F5F5F5F5F5F5F5F5F5F5F5F5F5F5F5F5F5F5F5F5F5F5F5F5F5F5F5F5F5F5F5F5F5F5F5F5F5F5F5F5F5F5F5F5F5F5F5F5F5F5F5F5F5F5F5F5F5F5F5F5F5F5F5F5F5F5F5F5F5F5F5F5F5F5F5F5F5F5F5F5F5F5F5F5F5F5F5F5F5F5F5F5F5F5F5F5F5F5F5F5F5F5F5F5F5F5F5F5F5F5E2F5F5F5
310
F5F5F5F5F5F5F5F5F5F5F5F5F5F5F5F5F5E2E2EFF5F5F5F5F5F5F5F5F5F5F5F5F5F5F5F5F5F5F5F5E2F5F5F5F5F5F5F5F5F5F5F5F5F5F5F5F5F5F5F5F5F5F5F5F5F5F5F5F5F5F5F5F5F5F5F5F5F5F5F5F5F5F5F5F5F5F5F5F5F5F5F5F5F5F5F5F5F5F5F5F5F5F5F5F5F5F5F5F5F5F5F5F5F5F5F5F5F5F5F5F5F5F5F5F5F5F5
310
F5F5F5F5F5F5F5F5F5F5F5F5F5F5F5F5F5F5F5F5F5F5F5F5F5F5F5F5F5F5F5F5F5F5F5F5F5F5F5F5F5F5F5F5F5F5F5F5F5E2F5F5F5F5F5F5F5F5F5F5F5F5F5F5F5F5F5F5F5F5E2E2EFF5F5F5F5F5F5F5F5F5F5F5F5F5F5F5F5F5F5F5F5E2F5F5F5F5F5F5F5F5F5F5F5F5F5F5F5F5F5F5F5F5F5F5F5F5F5F5F5F5F5F5F5F5F5
310
F5F5F5F5F5F5F5F5F5F5F5F5F5F5F5F5F5F5F5F5F5F5F5F5F5F5F5F5F5F5F5F5F5F5F5F5F5F5F5F5F5F5F5F5F5F5F5F5F5F5F5F5F5F5F5F5F5F5F5F5F5F5F5F5F5F5F5F5F5F5F5F5F5F5F5F5F5F5F5F5F5F5F5F5F5F5F5F5F5F5F5F5F5F5F5F5F5F5F5F5F5F5E2F5F5F5F5F5F5F5F5F5F5F5F5F5F5F5F5F5F5F5F5E2E2EFF5
310
F5F5F5F5F5F5F5F5F5F5F5F5F5F5F5F5F5F5F5E2F5F5F5F5F5F5F5F5F5F5F5F5F5F5F5F5F5F5F5F5F5F5F5F5F5F5F5F5F5F5F5F5F5F5F5F5F5F5F5F5F5F5F5F5F5F5F5F5F5F5F5F5F5F5F5F5F5F5F5F5F5F5F5F5F5F5F5F5F5F5F5F5F5F5F5F5F5F5F5F5F5F5F5F5F5F5F5F5F5F5F5F5F5F5F5F5F5F5F5F5F5F5F5F5F5F5F5
310
F5F5F5F5F5F5F5F5F5F5F5F5F5F5F5F5F5F5F5F5F5F5F5F5F5F5F5F5E2F5F5F5F5F5F5F5F5F5F5F5F5F5F5F5F5F5F5F5F5E2E2EFF5F5F5E2F5F5F5F5F5F5F5F5F5F5F5F5F5F5F5F5E2F5F5F5F5F5F5F5F5F5F5F5F5F5F5F5F5F5F5F5F5F5F5F5F5F5F5F5F5F5F5F5F5F5F5F5F5F5F5F5F5F5F5F5F5F5F5F5F5F5F5F5F5F5F5
310
F5F5F5F5F5F5F5F5F5F5F5F5F5F5F5F5F5F5F5F5F5F5F5F5F5F5F5F5F5F5F5F5F5F5F5F5F5F5F5F5F5F5F5F5F5F5F5F5F5F5F5F5F5F5F5F5F5F5F5F5F5F5F5F5F5F5F5F5F5F5F5F5F5F5F5F5F5F5F5F5F5E2F5F5F5F5F5F5F5F5F5F5F5F5F5F5F5F5E2F5F5F5E2E2EFF5F5F5E2F5F5F5F5F5F5F5F5F5F5F5F5F5F5F5F5E2F5
310
F5F5F5F5F5F5F5F5F5F5F5F5F5F5F5F5F5F5F5F5F5F5F5F5F5F5F5F5F5F5F5F5F5F5F5F5F5F5F5F5F5F5F5F5F5F5F5F5F5F5F5F5F5F5F5F5F5F5F5F5F5F5F5F5F5F5F5F5F5F5F5F5F5F5F5F5F5F5F5F5F5F5F5F5F5F5F5F5F5F5F5F5F5F5F5F5F5F5F5F5F5F5F5F5F5F5F5F5F5F5F5F5F5F5F5F5F5F5F5F5F5F5F5F5F5F5F5
310
F5F5F5F5F5F5F5E2F5F5F5F5F5F5F5F5F5F5F5F5F5F5F5F5E2F5F5F5E2E2EFF5F5F5E2F5F5F5F5F5F5F5F5F5F5F5F5F5F5F5F5E2F5F5F5F5F5F5F5F5F5F5F5F5F5F5F5F5F5F5F5F5F5F5F5F5F5F5F5F5F5F5F5F5F5F5F5F5F5F5F5F5F5F5F5F5F5F5F5F5F5F5F5F5F5F5F5F5F5F5F5F5F5F5F5F5F5F5F5F5F5F5F5F5F5F5F5
310
F5F5F5F5F5F5F5F5F5F5F5F5F5F5F5F5F5F5F5F5F5F5F5F5F5F5F5F5F5F5F5F5F5F5F5F5F5F5F5F5F5F5F5F5F5F5F5F5F5F5F5F5F5F5F5F5F5F5F5F5E2F5F5F5F5F5F5F5F5F5F5F5F5F5F5F5F5E2F5F5F5E2E2EFF5F5F5E2F5F5F5F5F5F5F5F5F5F5F5F5F5F5F5F5E2F5F5F5F5F5F5F5F5F5F5F5F5F5F5F5F5F5F5F5F5F5F5
310
F5F5F5F5F5F5F5F5F5F5F5F5F5F5F5F5F5F5F5F5F5F5F5F5F5F5F5F5F5F5F5F5F5F5F5F5F5F5F5F5F5F5F5F5F5F5F5F5F5F5F5F5F5F5F5F5F5F5F5F5F5F5F5F5F5F5F5F5F5F5F5F5F5F5F5F5F5F5F5F5F5F5F5F5F5F5F5F5F5F5F5F5F5F5F5F5F5F5F5F5F5F5F5F5F5F5F5F5F5F5F5F5F5E2F5F5F5F5F5F5F5F5F5F5F5F5F5
310
F5F5F5E2F5F5F5E2E2EFF5F5F5E2F5F5F5F5F5F5F5F5F5F5F5F5F5F5F5F5E2F5F5F5F5F5F5F5F5F5F5F5F5F5F5F5F5F5F5F5F5F5F5F5F5F5F5F5F5F5F5F5F5F5F5F5F5F5F5F5F5F5F5F5F5F5F5F5F5F5F5F5F5F5F5F5F5F5F5F5F5F5F5F5F5F5F5F5F5F5F5F5F5F5F5F5F5F5F5F5F5F5F5F5F5F5F5F5F5F5F5F5F5F5F5F5F5
310
F5F5F5F5F5F5F5F5F5F5F5F5F5F5F5F5F5F5F5F5F5F5F5F5F5F5F5F5F5F5F5F5F5F5F5F5F5F5F5E2F5F5F5F5F5F5F5F5F5F5F5F5F5F5F5F5E2F5F5F5E2E2EFF5F5F5E2F5F5F5F5F5F5F5F5F5F5F5F5F5F5F5F5E2F5F5F5F5F5F5F5F5F5F5F5F5F5F5F5F5F5F5F5F5F5F5F5F5F5F5F5F5F5F5F5F5F5F5F5F5F5F5F5F5F5F5F5
310
F5F5F5F5F5F5F5F5F5F5F5F5F5F5F5F5F5F5F5F5F5F5F5F5F5F5F5F5F5F5F5F5F5F5F5F5F5F5F5F5F5F5F5F5F5F5F5F5F5F5F5F5F5F5F5F5F5F5F5F5F5F5F5F5F5F5F5F5F5F5F5F5F5F5F5F5F5F5F5F5F5F5F5F5F5F5F5F5F5F5F5F5E2F5F5F5F5F5F5F5F5F5F5F5F5F5F5F5F5E2F5F5F5E2E2EFF5F5F5E2F5F5F5F5F5F5F5
310
F5F5F5F5F5F5F5F5F5E2F5F5F5F5F5F5F5F5F5F5F5F5F5F5F5F5F5F5F5F5F5F5F5F5F5F5F5F5F5F5F5F5F5F5F5F5F5F5F5F5F5F5F5F5F5F5F5F5F5F5F5F5F5F5F5F5F5F5F5F5F5F5F5F5F5F5F5F5F5F5F5F5F5F5F5F5F5F5F5F5F5F5F5F5F5F5F5F5F5F5F5F5F5F5F5F5F5F5F5F5F5F5F5F5F5F5F5F5F5F5F5F5F5F5F5F5F5
310
F5F5F5F5F5F5F5F5F5F5F5F5F5F5F5F5F5F5E2F5F5F5F5F5F5F5F5F5F5F5F5F5F5F5F5E2F5F5F5E2E2EFF5F5F5E2F5F5F5F5F5F5F5F5F5F5F5F5F5F5F5F5E2F5F5F5F5F5F5F5F5F5F5F5F5F5F5F5F5F5F5F5F5F5F5F5F5F5F5F5F5F5F5F5F5F5F5F5F5F5F5F5F5F5F5F5F5F5F5F5F5F5F5F5F5F5F5F5F5F5F5F5F5F5F5F5F5
310
F5F5F5F5F5F5F5F5F5F5F5F5F5F5F5F5F5F5F5F5F5F5F5F5F5F5F5F5F5F5F5F5F5F5F5F5F5F5F5F5F5F5F5F5F5F5F5F5F5F5F5F5F5F5F5F5F5F5F5F5F5F5F5F5F5F5F5F5F5F5F5E2F5F5F5F5F5F5F5F5F5F5F5F5F5F5F5F5E2F5F5F5E2E2EFF5F5F5E2F5F5F5F5F5F5F5F5F5F5F5F5F5F5F5F5E2F5F5F5F5F5F5F5F5F5F5F5
310
F5F5F5F5F5F5F5F5F5F5F5F5F5F5F5F5F5F5F5F5F5F5F5F5F5F5F5F5F5F5F5F5F5F5F5F5F5F5F5F5F5F5F5F5F5F5F5F5F5F5F5F5F5F5F5F5F5F5F5F5F5F5F5F5F5F5F5F5F5F5F5F5F5F5F5F5F5F5F5F5F5F5F5F5F5F5F5F5F5F5F5F5F5F5F5F5F5F5F5F5F5F5F5F5F5F5F5F5F5F5F5F5F5F5F5F5F5F5F5F5F5F5F5F5E2F5F5
310
F5F5F5F5F5F5F5F5F5F5F5F5F5F5E2F5F5F5E2E2EFF5F5F5E2F5F5F5F5F5F5F5F5F5F5F5F5F5F5F5F5E2F5F5F5F5F5F5F5F5F5F5F5F5F5F5F5F5F5F5F5F5F5F5F5F5F5F5F5F5F5F5F5F5F5F5F5F5F5F5F5F5F5F5F5F5F5F5F5F5F5F5F5F5F5F5F5F5F5F5F5F5F5F5F5F5F5F5F5F5F5F5F5F5F5F5F5F5F5F5F5F5F5F5F5F5F5
310
F5F5F5F5F5F5F5F5F5F5F5F5F5F5F5F5F5F5F5F5F5F5F5F5F5F5F5F5F5F5F5F5F5F5F5F5F5F5F5F5F5F5F5F5F5F5F5F5F5F5E2F5F5F5F5F5F5F5F5F5F5F5F5F5F5F5F5E2F5F5F5E2E2EFF5F5F5E2F5F5F5F5F5F5F5F5F5F5F5F5F5F5F5F5E2F5F5F5F5F5F5F5F5F5F5F5F5F5F5F5F5F5F5F5F5F5F5F5F5F5F5F5F5F5F5F5F5
310
F5F5F5F5F5F5F5F5F5F5F5F5F5F5F5F5F5F5F5F5F5F5F5F5F5F5F5F5F5F5F5F5F5F5F5F5F5F5F5F5F5F5F5F5F5F5F5F5F5F5F5F5F5F5F5F5F5F5F5F5F5F5F5F5F5F5F5F5F5F5F5F5F5F5F5F5F5F5F5F5F5F5F5F5F5F5F5F5F5F5F5F5F5F5F5F5F5F5F5F5F5F5F5E2F5F5F5F5F5F5F5F5F5F5F5F5F5F5F5F5E2F5F5F5E2E2EF
310
F5F5F5E2F5F5F5F5F5F5F5F5F5F5F5F5F5F5F5F5E2F5F5F5F5F5F5F5F5F5F5F5F5F5F5F5F5F5F5F5F5F5F5F5F5F5F5F5F5F5F5F5F5F5F5F5F5F5F5F5F5F5F5F5F5F5F5F5F5F5F5F5F5F5F5F5F5F5F5F5F5F5F5F5F5F5F5F5F5F5F5F5F5F5F5F5F5F5F5F5F5F5F5F5F5F5F5F5F5F5F5F5F5F5F5F5F5F5F5F5F5F5F5F5F5F5F5
310
F5F5F5F5F5F5F5F5F5F5F5F5F5F5F5F5F5F5F5F5F5F5F5F5F5F5F5F5F5E2F5F5F5F5F5F5F5F5F5F5F5F5F5F5F5F5E2F5F5F5E2E2EFF5F5F5E2F5F5F5F5F5F5F5F5F5F5F5F5F5F5F5F5E2F5F5F5F5F5F5F5F5F5F5F5F5F5F5F5F5F5F5F5F5F5F5F5F5F5F5F5F5F5F5F5F5F5F5F5F5F5F5F5F5F5F5F5F5F5F5F5F5F5F5F5F5F5
310
F5F5F5F5F5F5F5F5F5F5F5F5F5F5F5F5F5F5F5F5F5F5F5F5F5F5F5F5F5F5F5F5F5F5F5F5F5F5F5F5F5F5F5F5F5F5F5F5F5F5F5F5F5F5F5F5F5F5F5F5F5F5F5F5F5F5F5F5F5F5F5F5F5F5F5F5F5F5F5F5F5F5E2F5F5F5F5F5F5F5F5F5F5F5F5F5F5F5F5E2F5F5F5E2E2EFF5F5F5E2F5F5F5F5F5F5F5F5F5F5F5F5F5F5F5F5E2
310
F5F5F5F5F5F5F5F5F5F5F5F5F5F5F5F5F5F5F5F5F5F5F5F5F5F5F5F5F5F5F5F5F5F5F5F5F5F5F5F5F5F5F5F5F5F5F5F5F5F5F5F5F5F5F5F5F5F5F5F5F5F5F5F5F5F5F5F5F5F5F5F5F5F5F5F5F5F5F5F5F5F5F5F5F5F5F5F5F5F5F5F5F5F5F5F5F5F5F5F5F5F5F5F5F5F5F5F5F5F5F5F5F5F5F5F5F5F5F5F5F5F5F5F5F5F5F5
310
F5F5F5F5F5F5F5F5E2F5F5F5F5F5F5F5F5F5F5F5F5F5F5F5F5E2F5F5F5E2E2EFF5F5F5E2F5F5F5F5F5F5F5F5F5F5F5F5F5F5F5F5E2F5F5F5F5F5F5F5F5F5F5F5F5F5F5F5F5F5F5F5F5F5F5F5F5F5F5F5F5F5F5F5F5F5F5F5F5F5F5F5F5F5F5F5F5F5F5F5F5F5F5F5F5F5F5F5F5F5F5F5F5F5F5F5F5F5F5F5F5F5F5F5F5F5F5
310
F5F5F5F5F5F5F5F5F5F5F5F5F5F5F5F5F5F5F5F5F5F5F5F5F5F5F5F5F5F5F5F5F5F5F5F5F5F5F5F5F5F5F5F5F5F5F5F5F5F5F5F5F5F5F5F5F5F5F5F5F5E2F5F5F5F5F5F5F5F5F5F5F5F5F5F5F5F5E2F5F5F5E2E2EFF5F5F5E2F5F5F5F5F5F5F5F5F5F5F5F5F5F5F5F5E2F5F5F5F5F5F5F5F5F5F5F5F5F5F5F5F5F5F5F5F5F5
310
F5F5F5F5F5F5F5F5F5F5F5F5F5F5F5F5F5F5F5F5F5F5F5F5F5F5F5F5F5F5F5F5F5F5F5F5F5F5F5F5F5F5F5F5F5F5F5F5F5F5F5F5F5F5F5F5F5F5F5F5F5F5F5F5F5F5F5F5F5F5F5F5F5F5F5F5F5F5F5F5F5F5F5F5F5F5F5F5F5F5F5F5F5F5F5F5F5F5F5F5F5F5F5F5F5F5F5F5F5F5F5F5F5F5E2F5F5F5F5F5F5F5F5F5F5F5F5
310
F5F5F5F5E2F5F5F5E2E2EFF5F5F5E2F5F5F5F5F5F5F5F5F5F5F5F5F5F5F5F5E2F5F5F5F5F5F5F5F5F5F5F5F5F5F5F5F5F5F5F5F5F5F5F5F5F5F5F5F5F5F5F5F5F5F5F5F5F5F5F5F5F5F5F5F5F5F5F5F5F5F5F5F5F5F5F5F5F5F5F5F5F5F5F5F5F5F5F5F5F5F5F5F5F5F5F5F5F5F5F5F5F5F5F5F5F5F5F5F5F5F5F5F5F5F5F5
310
F5F5F5F5F5F5F5F5F5F5F5F5F5F5F5F5F5F5F5F5F5F5F5F5F5F5F5F5F5F5F5F5F5F5F5F5F5F5F5F5E2F5F5F5F5F5F5F5F5F5F5F5F5F5F5F5F5E2F5F5F5E2E2EFF5F5F5F5F5F5F5F5F5F5F5F5F5F5F5F5F5F5F5F5E2F5F5F5F5F5F5F5F5F5F5F5F5F5F5F5F5F5F5F5F5F5F5F5F5F5F5F5F5F5F5F5F5F5F5F5F5F5F5F5F5F5F5
310
F5F5F5F5F5F5F5F5F5F5F5F5F5F5F5F5F5F5F5F5F5F5F5F5F5F5F5F5F5F5F5F5F5F5F5F5F5F5F5F5F5F5F5F5F5F5F5F5F5F5F5F5F5F5F5F5F5F5F5F5F5F5F5F5F5F5F5F5F5F5F5F5F5F5F5F5F5F5F5F5F5F5F5F5F5F5F5F5F5F5F5F5F5E2F5F5F5F5F5F5F5F5F5F5F5F5F5F5F5F5F5F5F5F5E2E2EFF5F5F5F5F5F5F5F5F5F5
310
F5F5F5F5F5F5F5F5F5F5E2F5F5F5F5F5F5F5F5F5F5F5F5F5F5F5F5F5F5F5F5F5F5F5F5F5F5F5F5F5F5F5F5F5F5F5F5F5F5F5F5F5F5F5F5F5F5F5F5F5F5F5F5F5F5F5F5F5F5F5F5F5F5F5F5F5F5F5F5F5F5F5F5F5F5F5F5F5F5F5F5F5F5F5F5F5F5F5F5F5F5F5F5F5F5F5F5F5F5F5F5F5F5F5F5F5F5F5F5F5F5F5F5F5F5F5F5
310
F5F5F5F5F5F5F5F5F5F5F5F5F5F5F5F5F5F5F5E2F5F5F5F5F5F5F5F5F5F5F5F5F5F5F5F5F5F5F5F5E2E2EFF5F5F5F5F5F5F5F5F5F5F5F5F5F5F5F5F5F5F5F5E2F5F5F5F5F5F5F5F5F5F5F5F5F5F5F5F5F5F5F5F5F5F5F5F5F5F5F5F5F5F5F5F5F5F5F5F5F5F5F5F5F5F5F5F5F5F5F5F5F5F5F5F5F5F5F5F5F5F5F5F5F5F5F5
310
F5F5F5F5F5F5F5F5F5F5F5F5F5F5F5F5F5F5F5F5F5F5F5F5F5F5F5F5F5F5F5F5F5F5F5F5F5F5F5F5F5F5F5F5F5F5F5F5F5F5F5F5F5F5F5F5F5F5F5F5F5F5F5F5F5F5F5F5F5F5F5F5E2F5F5F5F5F5F5F5F5F5F5F5F5F5F5F5F5F5F5F5F5E2E2EFF5F5F5F5F5F5F5F5F5F5F5F5F5F5F5F5F5F5F5F5E2F5F5F5F5F5F5F5F5F5F5
310
F5F5F5F5F5F5F5F5F5F5F5F5F5F5F5F5F5F5F5F5F5F5F5F5F5F5F5F5F5F5F5F5F5F5F5F5F5F5F5F5F5F5F5F5F5F5F5F5F5F5F5F5F5F5F5F5F5F5F5F5F5F5F5F5F5F5F5F5F5F5F5F5F5F5F5F5F5F5F5F5F5F5F5F5F5F5F5F5F5F5F5F5F5F5F5F5F5F5F5F5F5F5F5F5F5F5F5F5F5F5F5F5F5F5F5F5F5F5F5F5F5F5F5F5F5E2F5
310
F5F5F5F5F5F5F5F5F5F5F5F5F5F5F5F5F5F5F5E2E2EFF5F5F5F5F5F5F5F5F5F5F5F5F5F5F5F5F5F5F5F5E2F5F5F5F5F5F5F5F5F5F5F5F5F5F5F5F5F5F5F5F5F5F5F5F5F5F5F5F5F5F5F5F5F5F5F5F5F5F5F5F5F5F5F5F5F5F5F5F5F5F5F5F5F5F5F5F5F5F5F5F5F5F5F5F5F5F5F5F5F5F5F5F5F5F5F5F5F5F5F5F5F5F5F5F5
310
F5F5F5F5F5F5F5F5F5F5F5F5F5F5F5F5F5F5F5F5F5F5F5F5F5F5F5F5F5F5F5F5F5F5F5F5F5F5F5F5F5F5F5F5F5F5F5F5F5F5F5E2F5F5F5F5F5F5F5F5F5F5F5F5F5F5F5F5F5F5F5F5E2E2EFF5F5F5F5F5F5F5F5F5F5F5F5F5F5F5F5F5F5F5F5E2F5F5F5F5F5F5F5F5F5F5F5F5F5F5F5F5F5F5F5F5F5F5F5F5F5F5F5F5F5F5F5
310
F5F5F5F5F5F5F5F5F5F5F5F5F5F5F5F5F5F5F5F5F5F5F5F5F5F5F5F5F5F5F5F5F5F5F5F5F5F5F5F5F5F5F5F5F5F5F5F5F5F5F5F5F5F5F5F5F5F5F5F5F5F5F5F5F5F5F5F5F5F5F5F5F5F5F5F5F5F5F5F5F5F5F5F5F5F5F5F5F5F5F5F5F5F5F5F5F5F5F5F5F5F5F5F5E2F5F5F5F5F5F5F5F5F5F5F5F5F5F5F5F5F5F5F5F5E2E2
310
EFF5F5F5F5F5F5F5F5F5F5F5F5F5F5F5F5F5F5F5F5E2F5F5F5F5F5F5F5F5F5F5F5F5F5F5F5F5F5F5F5F5F5F5F5F5F5F5F5F5F5F5F5F5F5F5F5F5F5F5F5F5F5F5F5F5F5F5F5F5F5F5F5F5F5F5F5F5F5F5F5F5F5F5F5F5F5F5F5F5F5F5F5F5F5F5F5F5F5F5F5F5F5F5F5F5F5F5F5F5F5F5F5F5F5F5F5F5F5F5F5F5F5F5F5F5F5
310
F5F5F5F5F5F5F5F5F5F5F5F5F5F5F5F5F5F5F5F5F5F5F5F5F5F5F5F5F5F5E2F5F5F5F5F5F5F5F5F5F5F5F5F5F5F5F5F5F5F5F5E2E2EFF5F5F5F5F5F5F5F5F5F5F5F5F5F5F5F5F5F5F5F5E2F5F5F5F5F5F5F5F5F5F5F5F5F5F5F5F5F5F5F5F5F5F5F5F5F5F5F5F5F5F5F5F5F5F5F5F5F5F5F5F5F5F5F5F5F5F5F5F5F5F5F5F5
310
F5F5F5F5F5F5F5F5F5F5F5F5F5F5F5F5F5F5F5F5F5F5F5F5F5F5F5F5F5F5F5F5F5F5F5F5F5F5F5F5F5F5F5F5F5F5F5F5F5F5F5F5F5F5F5F5F5F5F5F5F5F5F5F5F5F5F5F5F5F5F5F5F5F5F5F5F5F5F5F5F5F5F5E2F5F5F5F5F5F5F5F5F5F5F5F5F5F5F5F5F5F5F5F5E2E2EFF5F5F5F5F5F5F5F5F5F5F5F5F5F5F5F5F5F5F5F5
310
E2F5F5F5F5F5F5F5F5F5F5F5F5F5F5F5F5F5F5F5F5F5F5F5F5F5F5F5F5F5F5F5F5F5F5F5F5F5F5F5F5F5F5F5F5F5F5F5F5F5F5F5F5F5F5F5F5F5F5F5F5F5F5F5F5F5F5F5F5F5F5F5F5F5F5F5F5F5F5F5F5F5F5F5F5F5F5F5F5F5F5F5F5F5F5F5F5F5F5F5F5F5F5F5F5F5F5F5F5F5F5F5F5F5F5F5F5F5F5F5F5F5F5F5F5F5F5
310
F5F5F5F5F5F5F5F5F5E2F5F5F5F5F5F5F5F5F5F5F5F5F5F5F5F5F5F5F5F5E2E2EFF5F5F5E2F5F5F5F5F5F5F5F5F5F5F5F5F5F5F5F5E2F5F5F5F5F5F5F5F5F5F5F5F5F5F5F5F5F5F5F5F5F5F5F5F5F5F5F5F5F5F5F5F5F5F5F5F5F5F5F5F5F5F5F5F5F5F5F5F5F5F5F5F5F5F5F5F5F5F5F5F5F5F5F5F5F5F5F5F5F5F5F5F5F5
310
F5F5F5F5F5F5F5F5F5F5F5F5F5F5F5F5F5F5F5F5F5F5F5F5F5F5F5F5F5F5F5F5F5F5F5F5F5F5F5F5F5F5F5F5F5F5F5F5F5F5F5F5F5F5F5F5F5F5F5F5F5F5E2F5F5F5F5F5F5F5F5F5F5F5F5F5F5F5F5E2F5F5F5E2E2EFF5F5F5E2F5F5F5F5F5F5F5F5F5F5F5F5F5F5F5F5E2F5F5F5F5F5F5F5F5F5F5F5F5F5F5F5F5F5F5F5F5
310
F5F5F5F5F5F5F5F5F5F5F5F5F5F5F5F5F5F5F5F5F5F5F5F5F5F5F5F5F5F5F5F5F5F5F5F5F5F5F5F5F5F5F5F5F5F5F5F5F5F5F5F5F5F5F5F5F5F5F5F5F5F5F5F5F5F5F5F5F5F5F5F5F5F5F5F5F5F5F5F5F5F5F5F5F5F5F5F5F5F5F5F5F5F5F5F5F5F5F5F5F5F5F5F5F5F5F5F5F5F5F5F5F5F5F5E2F5F5F5F5F5F5F5F5F5F5F5
310
F5F5F5F5F5E2F5F5F5E2E2EFF5F5F5E2F5F5F5F5F5F5F5F5F5F5F5F5F5F5F5F5E2F5F5F5F5F5F5F5F5F5F5F5F5F5F5F5F5F5F5F5F5F5F5F5F5F5F5F5F5F5F5F5F5F5F5F5F5F5F5F5F5F5F5F5F5F5F5F5F5F5F5F5F5F5F5F5F5F5F5F5F5F5F5F5F5F5F5F5F5F5F5F5F5F5F5F5F5F5F5F5F5F5F5F5F5F5F5F5F5F5F5F5F5F5F5
310
F5F5F5F5F5F5F5F5F5F5F5F5F5F5F5F5F5F5F5F5F5F5F5F5F5F5F5F5F5F5F5F5F5F5F5F5F5F5F5F5F5E2F5F5F5F5F5F5F5F5F5F5F5F5F5F5F5F5E2F5F5F5E2E2EFF5F5F5E2F5F5F5F5F5F5F5F5F5F5F5F5F5F5F5F5E2F5F5F5F5F5F5F5F5F5F5F5F5F5F5F5F5F5F5F5F5F5F5F5F5F5F5F5F5F5F5F5F5F5F5F5F5F5F5F5F5F5
310
F5F5F5F5F5F5F5F5F5F5F5F5F5F5F5F5F5F5F5F5F5F5F5F5F5F5F5F5F5F5F5F5F5F5F5F5F5F5F5F5F5F5F5F5F5F5F5F5F5F5F5F5F5F5F5F5F5F5F5F5F5F5F5F5F5F5F5F5F5F5F5F5F5F5F5F5F5F5F5F5F5F5F5F5F5F5F5F5F5F5F5F5F5F5E2F5F5F5F5F5F5F5F5F5F5F5F5F5F5F5F5E2F5F5F5E2E2EFF5F5F5E2F5F5F5F5F5
310
F5F5F5F5F5F5F5F5F5F5F5E2F5F5F5F5F5F5F5F5F5F5F5F5F5F5F5F5F5F5F5F5F5F5F5F5F5F5F5F5F5F5F5F5F5F5F5F5F5F5F5F5F5F5F5F5F5F5F5F5F5F5F5F5F5F5F5F5F5F5F5F5F5F5F5F5F5F5F5F5F5F5F5F5F5F5F5F5F5F5F5F5F5F5F5F5F5F5F5F5F5F5F5F5F5F5F5F5F5F5F5F5F5F5F5F5F5F5F5F5F5F5F5F5F5F5F5
310
F5F5F5F5F5F5F5F5F5F5F5F5F5F5F5F5F5F5F5F5E2F5F5F5F5F5F5F5F5F5F5F5F5F5F5F5F5E2F5F5F5E2E2EFF5F5F5E2F5F5F5F5F5F5F5F5F5F5F5F5F5F5F5F5E2F5F5F5F5F5F5F5F5F5F5F5F5F5F5F5F5F5F5F5F5F5F5F5F5F5F5F5F5F5F5F5F5F5F5F5F5F5F5F5F5F5F5F5F5F5F5F5F5F5F5F5F5F5F5F5F5F5F5F5F5F5F5
310
F5F5F5F5F5F5F5F5F5F5F5F5F5F5F5F5F5F5F5F5F5F5F5F5F5F5F5F5F5F5F5F5F5F5F5F5F5F5F5F5F5F5F5F5F5F5F5F5F5F5F5F5F5F5F5F5F5F5F5F5F5F5F5F5F5F5F5F5F5F5F5F5F5E2F5F5F5F5F5F5F5F5F5F5F5F5F5F5F5F5E2F5F5F5E2E2EFF5F5F5E2F5F5F5F5F5F5F5F5F5F5F5F5F5F5F5F5E2F5F5F5F5F5F5F5F5F5
310
F5F5F5F5F5F5F5F5F5F5F5F5F5F5F5F5F5F5F5F5F5F5F5F5F5F5F5F5F5F5F5F5F5F5F5F5F5F5F5F5F5F5F5F5F5F5F5F5F5F5F5F5F5F5F5F5F5F5F5F5F5F5F5F5F5F5F5F5F5F5F5F5F5F5F5F5F5F5F5F5F5F5F5F5F5F5F5F5F5F5F5F5F5F5F5F5F5F5F5F5F5F5F5F5F5F5F5F5F5F5F5F5F5F5F5F5F5F5F5F5F5F5F5F5F5F5E2
310
F5F5F5F5F5F5F5F5F5F5F5F5F5F5F5F5E2F5F5F5E2E2EFF5F5F5E2F5F5F5F5F5F5F5F5F5F5F5F5F5F5F5F5E2F5F5F5F5F5F5F5F5F5F5F5F5F5F5F5F5F5F5F5F5F5F5F5F5F5F5F5F5F5F5F5F5F5F5F5F5F5F5F5F5F5F5F5F5F5F5F5F5F5F5F5F5F5F5F5F5F5F5F5F5F5F5F5F5F5F5F5F5F5F5F5F5F5F5F5F5F5F5F5F5F5F5F5
310
F5F5F5F5F5F5F5F5F5F5F5F5F5F5F5F5F5F5F5F5F5F5F5F5F5F5F5F5F5F5F5F5F5F5F5F5F5F5F5F5F5F5F5F5F5F5F5F5F5F5F5F5E2F5F5F5F5F5F5F5F5F5F5F5F5F5F5F5F5E2F5F5F5E2E2EFF5F5F5E2F5F5F5F5F5F5F5F5F5F5F5F5F5F5F5F5E2F5F5F5F5F5F5F5F5F5F5F5F5F5F5F5F5F5F5F5F5F5F5F5F5F5F5F5F5F5F5
310
F5F5F5F5F5F5F5F5F5F5F5F5F5F5F5F5F5F5F5F5F5F5F5F5F5F5F5F5F5F5F5F5F5F5F5F5F5F5F5F5F5F5F5F5F5F5F5F5F5F5F5F5F5F5F5F5F5F5F5F5F5F5F5F5F5F5F5F5F5F5F5F5F5F5F5F5F5F5F5F5F5F5F5F5F5F5F5F5F5F5F5F5F5F5F5F5F5F5F5F5F5F5F5F5F5E2F5F5F5F5F5F5F5F5F5F5F5F5F5F5F5F5E2F5F5F5E2
310
E2EFF5F5F5E2F5F5F5F5F5F5F5F5F5F5F5F5F5F5F5F5E2F5F5F5F5F5F5F5F5F5F5F5F5F5F5F5F5F5F5F5F5F5F5F5F5F5F5F5F5F5F5F5F5F5F5F5F5F5F5F5F5F5F5F5F5F5F5F5F5F5F5F5F5F5F5F5F5F5F5F5F5F5F5F5F5F5F5F5F5F5F5F5F5F5F5F5F5F5F5F5F5F5F5F5F5F5F5F5F5F5F5F5F5F5F5F5F5F5F5F5F5F5F5F5F5
310
F5F5F5F5F5F5F5F5F5F5F5F5F5F5F5F5F5F5F5F5F5F5F5F5F5F5F5F5F5F5F5E2F5F5F5F5F5F5F5F5F5F5F5F5F5F5F5F5E2F5F5F5E2E2EFF5F5F5E2F5F5F5F5F5F5F5F5F5F5F5F5F5F5F5F5E2F5F5F5F5F5F5F5F5F5F5F5F5F5F5F5F5F5F5F5F5F5F5F5F5F5F5F5F5F5F5F5F5F5F5F5F5F5F5F5F5F5F5F5F5F5F5F5F5F5F5F5
310
F5F5F5F5F5F5F5F5F5F5F5F5F5F5F5F5F5F5F5F5F5F5F5F5F5F5F5F5F5F5F5F5F5F5F5F5F5F5F5F5F5F5F5F5F5F5F5F5F5F5F5F5F5F5F5F5F5F5F5F5F5F5F5F5F5F5F5F5F5F5F5F5F5F5F5F5F5F5F5F5F5F5F5F5E2F5F5F5F5F5F5F5F5F5F5F5F5F5F5F5F5E2F5F5F5E2E2EFF5F5F5E2F5F5F5F5F5F5F5F5F5F5F5F5F5F5F5
310
F5E2F5F5F5F5F5F5F5F5F5F5F5F5F5F5F5F5F5F5F5F5F5F5F5F5F5F5F5F5F5F5F5F5F5F5F5F5F5F5F5F5F5F5F5F5F5F5F5F5F5F5F5F5F5F5F5F5F5F5F5F5F5F5F5F5F5F5F5F5F5F5F5F5F5F5F5F5F5F5F5F5F5F5F5F5F5F5F5F5F5F5F5F5F5F5F5F5F5F5F5F5F5F5F5F5F5F5F5F5F5F5F5F5F5F5F5F5F5F5F5F5F5F5F5F5F5
310
F5F5F5F5F5F5F5F5F5F5E2F5F5F5F5F5F5F5F5F5F5F5F5F5F5F5F5E2F5F5F5E2E2EFF5F5F5E2F5F5F5F5F5F5F5F5F5F5F5F5F5F5F5F5E2F5F5F5F5F5F5F5F5F5F5F5F5F5F5F5F5F5F5F5F5F5F5F5F5F5F5F5F5F5F5F5F5F5F5F5F5F5F5F5F5F5F5F5F5F5F5F5F5F5F5F5F5F5F5F5F5F5F5F5F5F5F5F5F5F5F5F5F5F5F5F5F5
310
F5F5F5F5F5F5F5F5F5F5F5F5F5F5F5F5F5F5F5F5F5F5F5F5F5F5F5F5F5F5F5F5F5F5F5F5F5F5F5F5F5F5F5F5F5F5F5F5F5F5F5F5F5F5F5F5F5F5F5F5F5F5F5E2F5F5F5F5F5F5F5F5F5F5F5F5F5F5F5F5E2F5F5F5E2E2EFF5F5F5E2F5F5F5F5F5F5F5F5F5F5F5F5F5F5F5F5E2F5F5F5F5F5F5F5F5F5F5F5F5F5F5F5F5F5F5F5
310
F5F5F5F5F5F5F5F5F5F5F5F5F5F5F5F5F5F5F5F5F5F5F5F5F5F5F5F5F5F5F5F5F5F5F5F5F5F5F5F5F5F5F5F5F5F5F5F5F5F5F5F5F5F5F5F5F5F5F5F5F5F5F5F5F5F5F5F5F5F5F5F5F5F5F5F5F5F5F5F5F5F5F5F5F5F5F5F5F5F5F5F5F5F5F5F5F5F5F5F5F5F5F5F5F5F5F5F5F5F5F5F5F5F5F5F5E2F5F5F5F5F5F5F5F5F5F5
310
F5F5F5F5F5F5E2F5F5F5E2E2EFF5F5F5E2F5F5F5F5F5F5F5F5F5F5F5F5F5F5F5F5E2F5F5F5F5F5F5F5F5F5F5F5F5F5F5F5F5F5F5F5F5F5F5F5F5F5F5F5F5F5F5F5F5F5F5F5F5F5F5F5F5F5F5F5F5F5F5F5F5F5F5F5F5F5F5F5F5F5F5F5F5F5F5F5F5F5F5F5F5F5F5F5F5F5F5F5F5F5F5F5F5F5F5F5F5F5F5F5F5F5F5F5F5F5
310
F5F5F5F5F5F5F5F5F5F5F5F5F5F5F5F5F5F5F5F5F5F5F5F5F5F5F5F5F5F5F5F5F5F5F5F5F5F5F5F5F5F5E2F5F5F5F5F5F5F5F5F5F5F5F5F5F5F5F5E2F5F5F5E2E2EFF5F5F5E2F5F5F5F5F5F5F5F5F5F5F5F5F5F5F5F5E2F5F5F5F5F5F5F5F5F5F5F5F5F5F5F5F5F5F5F5F5F5F5F5F5F5F5F5F5F5F5F5F5F5F5F5F5F5F5F5F5
310
F5F5F5F5F5F5F5F5F5F5F5F5F5F5F5F5F5F5F5F5F5F5F5F5F5F5F5F5F5F5F5F5F5F5F5F5F5F5F5F5F5F5F5F5F5F5F5F5F5F5F5F5F5F5F5F5F5F5F5F5F5F5F5F5F5F5F5F5F5F5F5F5F5F5F5F5F5F5F5F5F5F5F5F5F5F5F5F5F5F5F5F5F5F5F5E2F5F5F5F5F5F5F5F5F5F5F5F5F5F5F5F5E2F5F5F5E2E2EFF5F5F5E2F5F5F5F5
310
F5F5F5F5F5F5F5F5F5F5F5F5E2F5F5F5F5F5F5F5F5F5F5F5F5F5F5F5F5F5F5F5F5F5F5F5F5F5F5F5F5F5F5F5F5F5F5F5F5F5F5F5F5F5F5F5F5F5F5F5F5F5F5F5F5F5F5F5F5F5F5F5F5F5F5F5F5F5F5F5F5F5F5F5F5F5F5F5F5F5F5F5F5F5F5F5F5F5F5F5F5F5F5F5F5F5F5F5F5F5F5F5F5F5F5F5F5F5F5F5F5F5F5F5F5F5F5
310
F5F5F5F5F5F5F5F5F5F5F5F5F5F5F5F5F5F5F5F5F5E2F5F5F5F5F5F5F5F5F5F5F5F5F5F5F5F5E2F5F5F5E2E2EFF5F5F5F5F5F5F5F5F5F5F5F5F5F5F5F5F5F5F5F5E2F5F5F5F5F5F5F5F5F5F5F5F5F5F5F5F5F5F5F5F5F5F5F5F5F5F5F5F5F5F5F5F5F5F5F5F5F5F5F5F5F5F5F5F5F5F5F5F5F5F5F5F5F5F5F5F5F5F5F5F5F5
310
F5F5F5F5F5F5F5F5F5F5F5F5F5F5F5F5F5F5F5F5F5F5F5F5F5F5F5F5F5F5F5F5F5F5F5F5F5F5F5F5F5F5F5F5F5F5F5F5F5F5F5F5F5F5F5F5F5F5F5F5F5F5F5F5F5F5F5F5F5F5F5F5F5F5E2F5F5F5F5F5F5F5F5F5F5F5F5F5F5F5F5F5F5F5F5E2E2EFF5F5F5F5F5F5F5F5F5F5F5F5F5F5F5F5F5F5F5F5E2F5F5F5F5F5F5F5F5
310
F5F5F5F5F5F5F5F5F5F5F5F5F5F5F5F5F5F5F5F5F5F5F5F5F5F5F5F5F5F5F5F5F5F5F5F5F5F5F5F5F5F5F5F5F5F5F5F5F5F5F5F5F5F5F5F5F5F5F5F5F5F5F5F5F5F5F5F5F5F5F5F5F5F5F5F5F5F5F5F5F5F5F5F5F5F5F5F5F5F5F5F5F5F5F5F5F5F5F5F5F5F5F5F5F5F5F5F5F5F5F5F5F5F5F5F5F5F5F5F5F5F5F5F5F5F5F5
310
E2F5F5F5F5F5F5F5F5F5F5F5F5F5F5F5F5F5F5F5F5E2E2EFF5F5F5F5F5F5F5F5F5F5F5F5F5F5F5F5F5F5F5F5E2F5F5F5F5F5F5F5F5F5F5F5F5F5F5F5F5F5F5F5F5F5F5F5F5F5F5F5F5F5F5F5F5F5F5F5F5F5F5F5F5F5F5F5F5F5F5F5F5F5F5F5F5F5F5F5F5F5F5F5F5F5F5F5F5F5F5F5F5F5F5F5F5F5F5F5F5F5F5F5F5F5F5
310
F5F5F5F5F5F5F5F5F5F5F5F5F5F5F5F5F5F5F5F5F5F5F5F5F5F5F5F5F5F5F5F5F5F5F5F5F5F5F5F5F5F5F5F5F5F5F5F5F5F5F5F5F5E2F5F5F5F5F5F5F5F5F5F5F5F5F5F5F5F5F5F5F5F5E2E2EFF5F5F5F5F5F5F5F5F5F5F5F5F5F5F5F5F5F5F5F5E2F5F5F5F5F5F5F5F5F5F5F5F5F5F5F5F5F5F5F5F5F5F5F5F5F5F5F5F5F5
310
F5F5F5F5F5F5F5F5F5F5F5F5F5F5F5F5F5F5F5F5F5F5F5F5F5F5F5F5F5F5F5F5F5F5F5F5F5F5F5F5F5F5F5F5F5F5F5F5F5F5F5F5F5F5F5F5F5F5F5F5F5F5F5F5F5F5F5F5F5F5F5F5F5F5F5F5F5F5F5F5F5F5F5F5F5F5F5F5F5F5F5F5F5F5F5F5F5F5F5F5F5F5F5F5F5F5E2F5F5F5F5F5F5F5F5F5F5F5F5F5F5F5F5F5F5F5F5
310
E2E2EFF5F5F5F5F5F5F5F5F5F5F5F5F5F5F5F5F5F5F5F5E2F5F5F5F5F5F5F5F5F5F5F5F5F5F5F5F5F5F5F5F5F5F5F5F5F5F5F5F5F5F5F5F5F5F5F5F5F5F5F5F5F5F5F5F5F5F5F5F5F5F5F5F5F5F5F5F5F5F5F5F5F5F5F5F5F5F5F5F5F5F5F5F5F5F5F5F5F5F5F5F5F5F5F5F5F5F5F5F5F5F5F5F5F5F5F5F5F5F5F5F5F5F5F5
310
F5F5F5F5F5F5F5F5F5F5F5F5F5F5F5F5F5F5F5F5F5F5F5F5F5F5F5F5F5F5F5F5E2F5F5F5F5F5F5F5F5F5F5F5F5F5F5F5F5F5F5F5F5E2E2EFF5F5F5F5F5F5F5F5F5F5F5F5F5F5F5F5F5F5F5F5E2F5F5F5F5F5F5F5F5F5F5F5F5F5F5F5F5F5F5F5F5F5F5F5F5F5F5F5F5F5F5F5F5F5F5F5F5F5F5F5F5F5F5F5F5F5F5F5F5F5F5
310
F5F5F5F5F5F5F5F5F5F5F5F5F5F5F5F5F5F5F5F5F5F5F5F5F5F5F5F5F5F5F5F5F5F5F5F5F5F5F5F5F5F5F5F5F5F5F5F5F5F5F5F5F5F5F5F5F5F5F5F5F5F5F5F5F5F5F5F5F5F5F5F5F5F5F5F5F5F5F5F5F5F5F5F5F5E2F5F5F5F5F5F5F5F5F5F5F5F5F5F5F5F5F5F5F5F5E2E2EFF5F5F5F5F5F5F5F5F5F5F5F5F5F5F5F5F5F5
310
F5F5E2F5F5F5F5F5F5F5F5F5F5F5F5F5F5F5F5F5F5F5F5F5F5F5F5F5F5F5F5F5F5F5F5F5F5F5F5F5F5F5F5F5F5F5F5F5F5F5F5F5F5F5F5F5F5F5F5F5F5F5F5F5F5F5F5F5F5F5F5F5F5F5F5F5F5F5F5F5F5F5F5F5F5F5F5F5F5F5F5F5F5F5F5F5F5F5F5F5F5F5F5F5F5F5F5F5F5F5F5F5F5F5F5F5F5F5F5F5F5F5F5F5F5F5F5
310
F5F5F5F5F5F5F5F5F5F5F5E2F5F5F5F5F5F5F5F5F5F5F5F5F5F5F5F5F5F5F5F5E2E2EFF5F5F5F5F5F5F5F5F5F5F5F5F5F5F5F5F5F5F5F5E2F5F5F5F5F5F5F5F5F5F5F5F5F5F5F5F5F5F5F5F5F5F5F5F5F5F5F5F5F5F5F5F5F5F5F5F5F5F5F5F5F5F5F5F5F5F5F5F5F5F5F5F5F5F5F5F5F5F5F5F5F5F5F5F5F5F5F5F5F5F5F5
310
F5F5F5F5F5F5F5F5F5F5F5F5F5F5F5F5F5F5F5F5F5F5F5F5F5F5F5F5F5F5F5F5F5F5F5F5F5F5F5F5F5F5F5F5F5F5F5F5F5F5F5F5F5F5F5F5F5F5F5F5F5F5F5F5E2F5F5F5F5F5F5F5F5F5F5F5F5F5F5F5F5F5F5F5F5E2E2EFF5F5F5F5F5F5F5F5F5F5F5F5F5F5F5F5F5F5F5F5E2F5F5F5F5F5F5F5F5F5F5F5F5F5F5F5F5F5F5
310
F5F5F5F5F5F5F5F5F5F5F5F5F5F5F5F5F5F5F5F5F5F5F5F5F5F5F5F5F5F5F5F5F5F5F5F5F5F5F5F5F5F5F5F5F5F5F5F5F5F5F5F5F5F5F5F5F5F5F5F5F5F5F5F5F5F5F5F5F5F5F5F5F5F5F5F5F5F5F5F5F5F5F5F5F5F5F5F5F5F5F5F5F5F5F5F5F5F5F5F5F5F5F5F5F5F5F5F5F5F5F5F5F5F5F5F5F5E2F5F5F5F5F5F5F5F5F5
310
F5F5F5F5F5F5F5F5F5F5F5E2E2EFF5F5F5E2F5F5F5F5F5F5F5F5F5F5F5F5F5F5F5F5E2F5F5F5F5F5F5F5F5F5F5F5F5F5F5F5F5F5F5F5F5F5F5F5F5F5F5F5F5F5F5F5F5F5F5F5F5F5F5F5F5F5F5F5F5F5F5F5F5F5F5F5F5F5F5F5F5F5F5F5F5F5F5F5F5F5F5F5F5F5F5F5F5F5F5F5F5F5F5F5F5F5F5F5F5F5F5F5F5F5F5F5F5
310
F5F5F5F5F5F5F5F5F5F5F5F5F5F5F5F5F5F5F5F5F5F5F5F5F5F5F5F5F5F5F5F5F5F5F5F5F5F5F5F5F5F5F5E2F5F5F5F5F5F5F5F5F5F5F5F5F5F5F5F5E2F5F5F5E2E2EFF5F5F5E2F5F5F5F5F5F5F5F5F5F5F5F5F5F5F5F5E2F5F5F5F5F5F5F5F5F5F5F5F5F5F5F5F5F5F5F5F5F5F5F5F5F5F5F5F5F5F5F5F5F5F5F5F5F5F5F5
310
F5F5F5F5F5F5F5F5F5F5F5F5F5F5F5F5F5F5F5F5F5F5F5F5F5F5F5F5F5F5F5F5F5F5F5F5F5F5F5F5F5F5F5F5F5F5F5F5F5F5F5F5F5F5F5F5F5F5F5F5F5F5F5F5F5F5F5F5F5F5F5F5F5F5F5F5F5F5F5F5F5F5F5F5F5F5F5F5F5F5F5F5F5F5F5F5E2F5F5F5F5F5F5F5F5F5F5F5F5F5F5F5F5E2F5F5F5E2E2EFF5F5F5E2F5F5F5
310
F5F5F5F5F5F5F5F5F5F5F5F5F5E2F5F5F5F5F5F5F5F5F5F5F5F5F5F5F5F5F5F5F5F5F5F5F5F5F5F5F5F5F5F5F5F5F5F5F5F5F5F5F5F5F5F5F5F5F5F5F5F5F5F5F5F5F5F5F5F5F5F5F5F5F5F5F5F5F5F5F5F5F5F5F5F5F5F5F5F5F5F5F5F5F5F5F5F5F5F5F5F5F5F5F5F5F5F5F5F5F5F5F5F5F5F5F5F5F5F5F5F5F5F5F5F5F5
310
F5F5F5F5F5F5F5F5F5F5F5F5F5F5F5F5F5F5F5F5F5F5E2F5F5F5F5F5F5F5F5F5F5F5F5F5F5F5F5E2F5F5F5E2E2EFF5F5F5E2F5F5F5F5F5F5F5F5F5F5F5F5F5F5F5F5E2F5F5F5F5F5F5F5F5F5F5F5F5F5F5F5F5F5F5F5F5F5F5F5F5F5F5F5F5F5F5F5F5F5F5F5F5F5F5F5F5F5F5F5F5F5F5F5F5F5F5F5F5F5F5F5F5F5F5F5F5
310
F5F5F5F5F5F5F5F5F5F5F5F5F5F5F5F5F5F5F5F5F5F5F5F5F5F5F5F5F5F5F5F5F5F5F5F5F5F5F5F5F5F5F5F5F5F5F5F5F5F5F5F5F5F5F5F5F5F5F5F5F5F5F5F5F5F5F5F5F5F5F5F5F5F5F5E2F5F5F5F5F5F5F5F5F5F5F5F5F5F5F5F5E2F5F5F5E2E2EFF5F5F5E2F5F5F5F5F5F5F5F5F5F5F5F5F5F5F5F5E2F5F5F5F5F5F5F5
310
F5F5F5F5F5F5F5F5F5F5F5F5F5F5F5F5F5F5F5F5F5F5F5F5F5F5F5F5F5F5F5F5F5F5F5F5F5F5F5F5F5F5F5F5F5F5F5F5F5F5F5F5F5F5F5F5F5F5F5F5F5F5F5F5F5F5F5F5F5F5F5F5F5F5F5F5F5F5F5F5F5F5F5F5F5F5F5F5F5F5F5F5F5F5F5F5F5F5F5F5F5F5F5F5F5F5F5F5F5F5F5F5F5F5F5F5F5F5F5F5F5F5F5F5F5F5F5
310
F5E2F5F5F5F5F5F5F5F5F5F5F5F5F5F5F5F5E2F5F5F5E2E2EFF5F5F5E2F5F5F5F5F5F5F5F5F5F5F5F5F5F5F5F5E2F5F5F5F5F5F5F5F5F5F5F5F5F5F5F5F5F5F5F5F5F5F5F5F5F5F5F5F5F5F5F5F5F5F5F5F5F5F5F5F5F5F5F5F5F5F5F5F5F5F5F5F5F5F5F5F5F5F5F5F5F5F5F5F5F5F5F5F5F5F5F5F5F5F5F5F5F5F5F5F5F5
310
F5F5F5F5F5F5F5F5F5F5F5F5F5F5F5F5F5F5F5F5F5F5F5F5F5F5F5F5F5F5F5F5F5F5F5F5F5F5F5F5F5F5F5F5F5F5F5F5F5F5F5F5F5F5E2F5F5F5F5F5F5F5F5F5F5F5F5F5F5F5F5E2F5F5F5E2E2EFF5F5F5E2F5F5F5F5F5F5F5F5F5F5F5F5F5F5F5F5E2F5F5F5F5F5F5F5F5F5F5F5F5F5F5F5F5F5F5F5F5F5F5F5F5F5F5F5F5
310
F5F5F5F5F5F5F5F5F5F5F5F5F5F5F5F5F5F5F5F5F5F5F5F5F5F5F5F5F5F5F5F5F5F5F5F5F5F5F5F5F5F5F5F5F5F5F5F5F5F5F5F5F5F5F5F5F5F5F5F5F5F5F5F5F5F5F5F5F5F5F5F5F5F5F5F5F5F5F5F5F5F5F5F5F5F5F5F5F5F5F5F5F5F5F5F5F5F5F5F5F5F5F5F5F5F5F5E2F5F5F5F5F5F5F5F5F5F5F5F5F5F5F5F5E2F5F5
310
F5E2E2EFF5F5F5E2F5F5F5F5F5F5F5F5F5F5F5F5F5F5F5F5E2F5F5F5F5F5F5F5F5F5F5F5F5F5F5F5F5F5F5F5F5F5F5F5F5F5F5F5F5F5F5F5F5F5F5F5F5F5F5F5F5F5F5F5F5F5F5F5F5F5F5F5F5F5F5F5F5F5F5F5F5F5F5F5F5F5F5F5F5F5F5F5F5F5F5F5F5F5F5F5F5F5F5F5F5F5F5F5F5F5F5F5F5F5F5F5F5F5F5F5F5F5F5
310
F5F5F5F5F5F5F5F5F5F5F5F5F5F5F5F5F5F5F5F5F5F5F5F5F5F5F5F5F5F5F5F5F5E2F5F5F5F5F5F5F5F5F5F5F5F5F5F5F5F5E2F5F5F5E2E2EFF5F5F5E2F5F5F5F5F5F5F5F5F5F5F5F5F5F5F5F5E2F5F5F5F5F5F5F5F5F5F5F5F5F5F5F5F5F5F5F5F5F5F5F5F5F5F5F5F5F5F5F5F5F5F5F5F5F5F5F5F5F5F5F5F5F5F5F5F5F5
310
F5F5F5F5F5F5F5F5F5F5F5F5F5F5F5F5F5F5F5F5F5F5F5F5F5F5F5F5F5F5F5F5F5F5F5F5F5F5F5F5F5F5F5F5F5F5F5F5F5F5F5F5F5F5F5F5F5F5F5F5F5F5F5F5F5F5F5F5F5F5F5F5F5F5F5F5F5F5F5F5F5F5F5F5F5F5E2F5F5F5F5F5F5F5F5F5F5F5F5F5F5F5F5E2F5F5F5E2E2EFF5F5F5E2F5F5F5F5F5F5F5F5F5F5F5F5F5
310
F5F5F5E2F5F5F5F5F5F5F5F5F5F5F5F5F5F5F5F5F5F5F5F5F5F5F5F5F5F5F5F5F5F5F5F5F5F5F5F5F5F5F5F5F5F5F5F5F5F5F5F5F5F5F5F5F5F5F5F5F5F5F5F5F5F5F5F5F5F5F5F5F5F5F5F5F5F5F5F5F5F5F5F5F5F5F5F5F5F5F5F5F5F5F5F5F5F5F5F5F5F5F5F5F5F5F5F5F5F5F5F5F5F5F5F5F5F5F5F5F5F5F5F5F5F5F5
310
F5F5F5F5F5F5F5F5F5F5F5F5E2F5F5F5F5F5F5F5F5F5F5F5F5F5F5F5F5E2F5F5F5E2E2EFF5F5F5E2F5F5F5F5F5F5F5F5F5F5F5F5F5F5F5F5E2F5F5F5F5F5F5F5F5F5F5F5F5F5F5F5F5F5F5F5F5F5F5F5F5F5F5F5F5F5F5F5F5F5F5F5F5F5F5F5F5F5F5F5F5F5F5F5F5F5F5F5F5F5F5F5F5F5F5F5F5F5F5F5F5F5F5F5F5F5F5
310
F5F5F5F5F5F5F5F5F5F5F5F5F5F5F5F5F5F5F5F5F5F5F5F5F5F5F5F5F5F5F5F5F5F5F5F5F5F5F5F5F5F5F5F5F5F5F5F5F5F5F5F5F5F5F5F5F5F5F5F5F5F5F5F5F5E2F5F5F5F5F5F5F5F5F5F5F5F5F5F5F5F5E2F5F5F5E2E2EFF5F5F5E2F5F5F5F5F5F5F5F5F5F5F5F5F5F5F5F5E2F5F5F5F5F5F5F5F5F5F5F5F5F5F5F5F5F5
310
F5F5F5F5F5F5F5F5F5F5F5F5F5F5F5F5F5F5F5F5F5F5F5F5F5F5F5F5F5F5F5F5F5F5F5F5F5F5F5F5F5F5F5F5F5F5F5F5F5F5F5F5F5F5F5F5F5F5F5F5F5F5F5F5F5F5F5F5F5F5F5F5F5F5F5F5F5F5F5F5F5F5F5F5F5F5F5F5F5F5F5F5F5F5F5F5F5F5F5F5F5F5F5F5F5F5F5F5F5F5F5F5F5F5F5F5F5F5E2F5F5F5F5F5F5F5F5
310
F5F5F5F5F5F5F5F5E2F5F5F5E2E2EFF5F5F5E2F5F5F5F5F5F5F5F5F5F5F5F5F5F5F5F5E2F5F5F5F5F5F5F5F5F5F5F5F5F5F5F5F5F5F5F5F5F5F5F5F5F5F5F5F5F5F5F5F5F5F5F5F5F5F5F5F5F5F5F5F5F5F5F5F5F5F5F5F5F5F5F5F5F5F5F5F5F5F5F5F5F5F5F5F5F5F5F5F5F5F5F5F5F5F5F5F5F5F5F5F5F5F5F5F5F5F5F5
310
F5F5F5F5F5F5F5F5F5F5F5F5F5F5F5F5F5F5F5F5F5F5F5F5F5F5F5F5F5F5F5F5F5F5F5F5F5F5F5F5F5F5F5F5E2F5F5F5F5F5F5F5F5F5F5F5F5F5F5F5F5E2F5F5F5E2E2EFF5F5F5E2F5F5F5F5F5F5F5F5F5F5F5F5F5F5F5F5E2F5F5F5F5F5F5F5F5F5F5F5F5F5F5F5F5F5F5F5F5F5F5F5F5F5F5F5F5F5F5F5F5F5F5F5F5F5F5
310
F5F5F5F5F5F5F5F5F5F5F5F5F5F5F5F5F5F5F5F5F5F5F5F5F5F5F5F5F5F5F5F5F5F5F5F5F5F5F5F5F5F5F5F5F5F5F5F5F5F5F5F5F5F5F5F5F5F5F5F5F5F5F5F5F5F5F5F5F5F5F5F5F5F5F5F5F5F5F5F5F5F5F5F5F5F5F5F5F5F5F5F5F5F5F5F5F5E2F5F5F5F5F5F5F5F5F5F5F5F5F5F5F5F5E2F5F5F5E2E2EFF5F5F5E2F5F5
310
F5F5F5F5F5F5F5F5F5F5F5F5F5F5E2F5F5F5F5F5F5F5F5F5F5F5F5F5F5F5F5F5F5F5F5F5F5F5F5F5F5F5F5F5F5F5F5F5F5F5F5F5F5F5F5F5F5F5F5F5F5F5F5F5F5F5F5F5F5F5F5F5F5F5F5F5F5F5F5F5F5F5F5F5F5F5F5F5F5F5F5F5F5F5F5F5F5F5F5F5F5F5F5F5F5F5F5F5F5F5F5F5F5F5F5F5F5F5F5F5F5F5F5F5F5F5F5
310
F5F5F5F5F5F5F5F5F5F5F5F5F5F5F5F5F5F5F5F5F5F5F5E2F5F5F5F5F5F5F5F5F5F5F5F5F5F5F5F5E2F5F5F5E2E2EFF5F5F5E2F5F5F5F5F5F5F5F5F5F5F5F5F5F5F5F5E2F5F5F5F5F5F5F5F5F5F5F5F5F5F5F5F5F5F5F5F5F5F5F5F5F5F5F5F5F5F5F5F5F5F5F5F5F5F5F5F5F5F5F5F5F5F5F5F5F5F5F5F5F5F5F5F5F5F5F5
310
F5F5F5F5F5F5F5F5F5F5F5F5F5F5F5F5F5F5F5F5F5F5F5F5F5F5F5F5F5F5F5F5F5F5F5F5F5F5F5F5F5F5F5F5F5F5F5F5F5F5F5F5F5F5F5F5F5F5F5F5F5F5F5F5F5F5F5F5F5F5F5F5F5F5F5F5E2F5F5F5F5F5F5F5F5F5F5F5F5F5F5F5F5E2F5F5F5E2E2EFF5F5F5E2F5F5F5F5F5F5F5F5F5F5F5F5F5F5F5F5E2F5F5F5F5F5F5
310
F5F5F5F5F5F5F5F5F5F5F5F5F5F5F5F5F5F5F5F5F5F5F5F5F5F5F5F5F5F5F5F5F5F5F5F5F5F5F5F5F5F5F5F5F5F5F5F5F5F5F5F5F5F5F5F5F5F5F5F5F5F5F5F5F5F5F5F5F5F5F5F5F5F5F5F5F5F5F5F5F5F5F5F5F5F5F5F5F5F5F5F5F5F5F5F5F5F5F5F5F5F5F5F5F5F5F5F5F5F5F5F5F5F5F5F5F5F5F5F5F5F5F5F5F5F5F5
310
F5F5E2F5F5F5F5F5F5F5F5F5F5F5F5F5F5F5F5E2F5F5F5E2E2EFF5F5F5F5F5F5F5F5F5F5F5F5F5F5F5F5F5F5F5F5E2F5F5F5F5F5F5F5F5F5F5F5F5F5F5F5F5F5F5F5F5F5F5F5F5F5F5F5F5F5F5F5F5F5F5F5F5F5F5F5F5F5F5F5F5F5F5F5F5F5F5F5F5F5F5F5F5F5F5F5F5F5F5F5F5F5F5F5F5F5F5F5F5F5F5F5F5F5F5F5F5
310
F5F5F5F5F5F5F5F5F5F5F5F5F5F5F5F5F5F5F5F5F5F5F5F5F5F5F5F5F5F5F5F5F5F5F5F5F5F5F5F5F5F5F5F5F5F5F5F5F5F5F5F5F5F5F5E2F5F5F5F5F5F5F5F5F5F5F5F5F5F5F5F5F5F5F5F5E2E2EFF5F5F5F5F5F5F5F5F5F5F5F5F5F5F5F5F5F5F5F5E2F5F5F5F5F5F5F5F5F5F5F5F5F5F5F5F5F5F5F5F5F5F5F5F5F5F5F5
310
F5F5F5F5F5F5F5F5F5F5F5F5F5F5F5F5F5F5F5F5F5F5F5F5F5F5F5F5F5F5F5F5F5F5F5F5F5F5F5F5F5F5F5F5F5F5F5F5F5F5F5F5F5F5F5F5F5F5F5F5F5F5F5F5F5F5F5F5F5F5F5F5F5F5F5F5F5F5F5F5F5F5F5F5F5F5F5F5F5F5F5F5F5F5F5F5F5F5F5F5F5F5F5F5F5F5F5F5E2F5F5F5F5F5F5F5F5F5F5F5F5F5F5F5F5F5F5
310
F5F5E2E2EFF5F5F5F5F5F5F5F5F5F5F5F5F5F5F5F5F5F5F5F5E2F5F5F5F5F5F5F5F5F5F5F5F5F5F5F5F5F5F5F5F5F5F5F5F5F5F5F5F5F5F5F5F5F5F5F5F5F5F5F5F5F5F5F5F5F5F5F5F5F5F5F5F5F5F5F5F5F5F5F5F5F5F5F5F5F5F5F5F5F5F5F5F5F5F5F5F5F5F5F5F5F5F5F5F5F5F5F5F5F5F5F5F5F5F5F5F5F5F5F5F5F5
310
F5F5F5F5F5F5F5F5F5F5F5F5F5F5F5F5F5F5F5F5F5F5F5F5F5F5F5F5F5F5F5F5F5F5E2F5F5F5F5F5F5F5F5F5F5F5F5F5F5F5F5F5F5F5F5E2E2EFF5F5F5F5F5F5F5F5F5F5F5F5F5F5F5F5F5F5F5F5E2F5F5F5F5F5F5F5F5F5F5F5F5F5F5F5F5F5F5F5F5F5F5F5F5F5F5F5F5F5F5F5F5F5F5F5F5F5F5F5F5F5F5F5F5F5F5F5F5
310
F5F5F5F5F5F5F5F5F5F5F5F5F5F5F5F5F5F5F5F5F5F5F5F5F5F5F5F5F5F5F5F5F5F5F5F5F5F5F5F5F5F5F5F5F5F5F5F5F5F5F5F5F5F5F5F5F5F5F5F5F5F5F5F5F5F5F5F5F5F5F5F5F5F5F5F5F5F5F5F5F5F5F5F5F5F5F5E2F5F5F5F5F5F5F5F5F5F5F5F5F5F5F5F5F5F5F5F5E2E2EFF5F5F5F5F5F5F5F5F5F5F5F5F5F5F5F5
310
F5F5F5F5E2E2E2E2E2E2E2E2E2E2E2E2E2E2E2E2E2E2E2E2E2E2E2E2E2E2E2E2E2E2E2E2E2E2E2E2E2E2E2E2E2E2E2E2E2E2E2E2E2E2E2E2E2E2E2E2E2E2E2E2E2E2E2E2E2E2E2E2E2E2E2E2E2E2E2E2E2E2E2E2E2E2E2E2E2E2E2E2E2E2E2E2E2E2E2E2E2E2E2E2E2E2E2E2E2E2E2E2E2E2E2E2E2E2E2E2E2E2E2E2E2E2E2
310
E2E2E2E2E2E2E2E2E2E2E2E2E2E2F5F5F5F5F5F5F5F5F5F5F5F5F5F5F5F5F5F5F5F5E2E2EFF5F5F5F5F5F5F5F5F5F5F5F5F5F5F5F5F5F5F5F5F5F5F5F5F5F5F5F5F5F5F5F5F5F5F5F5F5F5F5F5F5F5F5F5F5F5F5F5F5F5F5F5F5F5F5F5F5F5F5F5F5F5F5F5F5F5F5F5F5F5F5F5F5F5F5F5F5F5F5F5F5F5F5F5F5F5F5F5F5F5
310
F5F5F5F5F5F5F5F5F5F5F5F5F5F5F5F5F5F5F5F5F5F5F5F5F5F5F5F5F5F5F5F5F5F5F5F5F5F5F5F5F5F5F5F5F5F5F5F5F5F5F5F5F5F5F5F5F5F5F5F5F5F5F5F5F5F5F5F5F5F5F5F5F5F5F5F5F5F5F5F5F5F5F5F5F5F5F5E2E2EFF5F5F5F5F5F5F5F5F5F5F5F5F5F5F5F5F5F5F5F5F5F5F5F5F5F5F5F5F5F5F5F5F5F5F5F5F5
310
F5F5F5F5F5F5F5F5F5F5F5F5F5F5F5F5F5F5F5F5F5F5F5F5F5F5F5F5F5F5F5F5F5F5F5F5F5F5F5F5F5F5F5F5F5F5F5F5F5F5F5F5F5F5F5F5F5F5F5F5F5F5F5F5F5F5F5F5F5F5F5F5F5F5F5F5F5F5F5F5F5F5F5F5F5F5F5F5F5F5F5F5F5F5F5F5F5F5F5F5F5F5F5F5F5F5F5F5F5F5F5F5F5F5F5F5F5F5F5F5F5F5F5F5F5F5F5
310
F5F5F5F5F5F5F5F5F5F5F5F5F5E2E2EFF5F5F5F5F5F5F5F5F5F5F5F5F5F5F5F5F5F5F5F5F5F5F5F5F5F5F5F5F5F5F5F5F5F5F5F5F5F5F5F5F5F5F5F5F5F5F5F5F5F5F5F5F5F5F5F5F5F5F5F5F5F5F5F5F5F5F5F5F5F5F5F5F5F5F5F5F5F5F5F5F5F5F5F5F5F5F5F5F5F5F5F5F5F5F5F5F5F5F5F5F5F5F5F5F5F5F5F5F5F5F5
310
F5F5F5F5F5F5F5F5F5F5F5F5F5F5F5F5F5F5F5F5F5F5F5F5F5F5F5F5F5F5F5F5F5F5F5F5F5F5F5F5F5F5F5F5F5F5F5F5F5F5F5F5F5F5F5F5F5F5F5F5F5F5F5F5F5F5E2E2EFF5F5F5F5F5F5F5F5F5F5F5F5F5F5F5F5F5F5F5F5F5F5F5F5F5F5F5F5F5F5F5F5F5F5F5F5F5F5F5F5F5F5F5F5F5F5F5F5F5F5F5F5F5F5F5F5F5F5
310
F5F5F5F5F5F5F5F5F5F5F5F5F5F5F5F5F5F5F5F5F5F5F5F5F5F5F5F5F5F5F5F5F5F5F5F5F5F5F5F5F5F5F5F5F5F5F5F5F5F5F5F5F5F5F5F5F5F5F5F5F5F5F5F5F5F5F5F5F5F5F5F5F5F5F5F5F5F5F5F5F5F5F5F5F5F5F5F5F5F5F5F5F5F5F5F5F5F5F5F5F5F5F5F5F5F5F5F5F5F5F5F5F5F5F5F5F5F5F5E2E2EFF5F5F5E2F5
310
F5F5F5F5F5F5F5F5F5F5F5F5F5F5F5F5F5F5F5F5F5F5F5F5F5F5F5F5F5F5F5F5F5F5F5F5F5F5F5F5F5F5F5F5F5F5F5F5F5F5F5F5F5F5F5F5F5F5F5F5F5F5F5F5F5F5F5F5F5F5F5F5F5F5F5F5F5F5F5F5F5F5F5F5F5F5F5F5F5F5F5F5F5F5F5F5F5F5F5F5F5F5F5F5F5F5F5F5F5F5F5F5F5F5F5F5F5F5F5F5F5F5F5F5F5F5F5
310
F5F5F5F5F5F5F5F5F5F5F5F5F5F5F5F5F5F5F5F5F5F5F5F5F5F5F5F5F5F5F5F5F5F5F5F5F5F5F5F5F5E2F5F5F5E2E2EFF5F5F5E2F5F5F5F5F5F5F5F5F5F5F5F5F5F5F5F5F5F5F5F5F5F5F5F5F5F5F5F5F5F5F5F5F5F5F5F5F5F5F5F5F5F5F5F5F5F5F5F5F5F5F5F5F5F5F5F5F5F5F5F5F5F5F5F5F5F5F5F5F5F5F5F5F5F5F5
310
F5F5F5F5F5F5F5F5F5F5F5F5F5F5F5F5F5F5F5F5F5F5F5F5F5F5F5F5F5F5F5F5F5F5F5F5F5F5F5F5F5F5F5F5F5F5F5F5F5F5F5F5F5F5F5F5F5F5F5F5F5F5F5F5F5F5F5F5F5F5F5F5F5F5F5F5F5F5F5F5F5F5F5F5F5F5F5F5F5F5F5F5F5F5E2F5F5F5E2E2EFF5F5F5E2F5F5F5F5F5F5F5F5F5F5F5F5F5F5F5F5F5F5F5F5F5F5
310
F5F5F5F5F5F5F5F5F5F5F5F5F5F5F5F5F5F5F5F5F5F5F5F5F5F5F5F5F5F5F5F5F5F5F5F5F5F5F5F5F5F5F5F5F5F5F5F5F5F5F5F5F5F5F5F5F5F5F5F5F5F5F5F5F5F5F5F5F5F5F5F5F5F5F5F5F5F5F5F5F5F5F5F5F5F5F5F5F5F5F5F5F5F5F5F5F5F5F5F5F5F5F5F5F5F5F5F5F5F5F5F5F5F5F5F5F5F5F5F5F5F5F5F5F5F5F5
310
F5F5F5F5F5F5F5F5F5F5F5F5F5F5F5F5F5F5F5F5E2F5F5F5E2E2EFF5F5F5E2F5F5F5F5F5F5F5F5F5F5F5F5F5F5F5F5F5F5F5F5F5F5F5F5F5F5F5F5F5F5F5F5F5F5F5F5F5F5F5F5F5F5F5F5F5F5F5F5F5F5F5F5F5F5F5F5F5F5F5F5F5F5F5F5F5F5F5F5F5F5F5F5F5F5F5F5F5F5F5F5F5F5F5F5F5F5F5F5F5F5F5F5F5F5F5F5
310
F5F5F5F5F5F5F5F5F5F5F5F5F5F5F5F5F5F5F5F5F5F5F5F5F5F5F5F5F5F5F5F5F5F5F5F5F5F5F5F5F5F5F5F5F5F5F5F5F5F5F5F5F5F5F5F5F5F5F5F5F5F5F5F5F5F5F5F5F5F5F5F5F5E2F5F5F5E2E2EFF5F5F5E2F5F5F5F5F5F5F5F5F5F5F5F5F5F5F5F5F5F5F5F5F5F5F5F5F5F5F5F5F5F5F5F5F5F5F5F5F5F5F5F5F5F5F5
310
F5F5F5F5F5F5F5F5F5F5F5F5F5F5F5F5F5F5F5F5F5F5F5F5F5F5F5F5F5F5F5F5F5F5F5F5F5F5F5F5F5F5F5F5F5F5F5F5F5F5F5F5F5F5F5F5F5F5F5F5F5F5F5F5F5F5F5F5F5F5F5F5F5F5F5F5F5F5F5F5F5F5F5F5F5F5F5F5F5F5F5F5F5F5F5F5F5F5F5F5F5F5F5F5F5F5F5F5F5F5F5F5F5F5F5F5F5F5F5F5F5F5F5F5F5F5E2
310
F5F5F5E2E2EFF5F5F5E2F5F5F5F5F5F5F5F5F5F5F5F5F5F5F5F5F5F5F5F5F5F5F5F5F5F5F5F5F5F5F5F5F5F5F5F5F5F5F5F5F5F5F5F5F5F5F5F5F5F5F5F5F5F5F5F5F5F5F5F5F5F5F5F5F5F5F5F5F5F5F5F5F5F5F5F5F5F5F5F5F5F5F5F5F5F5F5F5F5F5F5F5F5F5F5F5F5F5F5F5F5F5F5F5F5F5F5F5F5F5F5F5F5F5F5F5F5
310
F5F5F5F5F5F5F5F5F5F5F5F5F5F5F5F5F5F5F5F5F5F5F5F5F5F5F5F5F5F5F5F5F5F5F5F5F5F5F5F5F5F5F5F5F5F5F5F5F5F5F5F5E2F5F5F5E2E2EFF5F5F5E2F5F5F5F5F5F5F5F5F5F5F5F5F5F5F5F5F5F5F5F5F5F5F5F5F5F5F5F5F5F5F5F5F5F5F5F5F5F5F5F5F5F5F5F5F5F5F5F5F5F5F5F5F5F5F5F5F5F5F5F5F5F5F5F5
310
F5F5F5F5F5F5F5F5F5F5F5F5F5F5F5F5F5F5F5F5F5F5F5F5F5F5F5F5F5F5F5F5F5F5F5F5F5F5F5F5F5F5F5F5F5F5F5F5F5F5F5F5F5F5F5F5F5F5F5F5F5F5F5F5F5F5F5F5F5F5F5F5F5F5F5F5F5F5F5F5F5F5F5F5F5F5F5F5F5F5F5F5F5F5F5F5F5F5F5F5F5F5F5F5F5E2F5F5F5E2E2EFF5F5F5E2F5F5F5F5F5F5F5F5F5F5F5
310
F5F5F5F5F5F5F5F5F5F5F5F5F5F5F5F5F5F5F5F5F5F5F5F5F5F5F5F5F5F5F5F5F5F5F5F5F5F5F5F5F5F5F5F5F5F5F5F5F5F5F5F5F5F5F5F5F5F5F5F5F5F5F5F5F5F5F5F5F5F5F5F5F5F5F5F5F5F5F5F5F5F5F5F5F5F5F5F5F5F5F5F5F5F5F5F5F5F5F5F5F5F5F5F5F5F5F5F5F5F5F5F5F5F5F5F5F5F5F5F5F5F5F5F5F5F5F5
310
F5F5F5F5F5F5F5F5F5F5F5F5F5F5F5F5F5F5F5F5F5F5F5F5F5F5F5F5F5F5F5E2F5F5F5E2E2EFF5F5F5E2E2E2E2E2E2E2E2F5F5F5F5F5F5F5F5F5E2E2E2E2E2E2E2E2E2E2E2E2E2E2E2E2F5F5F5F5F5F5F5F5E2E2E2E2E2E2E2E2E2E2E2E2E2E2E2E2F5F5F5F5F5F5F5F5F5E2E2E2E2E2E2E2E2E2E2E2E2E2E2E2F5F5F5F5F5
310
F5F5F5F5E2E2E2E2E2E2E2E2E2E2E2E2E2E2E2F5F5F5F5F5F5F5F5F5E2E2E2E2E2E2E2E2E2E2E2E2E2E2E2E2F5F5F5F5F5F5F5F5E2E2E2E2E2E2E2E2E2E2E2E2E2E2E2E2F5F5F5F5F5F5F5F5F5E2E2E2E2E2E2E2E2F5F5F5E2E2EFF5F5F5F5F5F5F5F5F5F5F5F5F5F5F5F5F5F5F5F5F5F5F5F5F5F5F5F5F5F5F5F5F5F5F5F5
310
F5F5F5F5F5F5F5F5F5F5F5F5F5F5F5F5F5F5F5F5F5F5F5F5F5F5F5F5F5F5F5F5F5F5F5F5F5F5F5F5F5F5F5F5F5F5F5F5F5F5F5F5F5F5F5F5F5F5F5F5F5F5F5F5F5F5F5F5F5F5F5F5F5F5F5F5F5F5F5F5F5F5F5F5F5F5F5F5F5F5F5F5F5F5F5F5F5F5F5F5F5F5F5F5F5F5F5F5F5F5F5F5F5F5F5F5F5F5F5F5F5F5F5F5F5F5F5
310
F5F5F5F5F5F5F5F5F5F5F5F5F5F5E2E2EFF5F5F5F5F5F5F5F5F5F5F5F5F5F5F5F5F5F5F5F5F5F5F5F5F5F5F5F5F5F5F5F5F5F5F5F5F5F5F5F5F5F5F5F5F5F5F5F5F5F5F5F5F5F5F5F5F5F5F5F5F5F5F5F5F5F5F5F5F5F5F5F5F5F5F5F5F5F5F5F5F5F5F5F5F5F5F5F5F5F5F5F5F5F5F5F5F5F5F5F5F5F5F5F5F5F5F5F5F5F5
310
F5F5F5F5F5F5F5F5F5F5F5F5F5F5F5F5F5F5F5F5F5F5F5F5F5F5F5F5F5F5F5F5F5F5F5F5F5F5F5F5F5F5F5F5F5F5F5F5F5F5F5F5F5F5F5F5F5F5F5F5F5F5F5F5F5F5F5E2EFEFF5F5F5F5F5F5F5F5F5F5F5F5F5F5F5F5F5F5F5F5F5F5F5F5F5F5F5F5F5F5F5F5F5F5F5F5F5F5F5F5F5F5F5F5F5F5F5F5F5F5F5F5F5F5F5F5F5
310
F5F5F5F5F5F5F5F5F5F5F5F5F5F5F5F5F5F5F5F5F5F5F5F5F5F5F5F5F5F5F5F5F5F5F5F5F5F5F5F5F5F5F5F5F5F5F5F5F5F5F5F5F5F5F5F5F5F5F5F5F5F5F5F5F5F5F5F5F5F5F5F5F5F5F5F5F5F5F5F5F5F5F5F5F5F5F5F5F5F5F5F5F5F5F5F5F5F5F5F5F5F5F5F5F5F5F5F5F5F5F5F5F5F5F5F5F5F5F5F5E2EFEFE2E2E2E2
310
E2E2E2E2E2E2E2E2E2E2E2E2E2E2E2E2E2E2E2E2E2E2E2E2E2E2E2E2E2E2E2E2E2E2E2E2E2E2E2E2E2E2E2E2E2E2E2E2E2E2E2E2E2E2E2E2E2E2E2E2E2E2E2E2E2E2E2E2E2E2E2E2E2E2E2E2E2E2E2E2E2E2E2E2E2E2E2E2E2E2E2E2E2E2E2E2E2E2E2E2E2E2E2E2E2E2E2E2E2E2E2E2E2E2E2E2E2E2E2E2E2E2E2E2E2E2E2
310
E2E2E2E2E2E2E2E2E2E2E2E2E2E2E2E2E2E2E2E2E2E2E2E2E2E2E2E2E2E2E2E2E2E2E2E2E2E2E2E2E2E2E2E2E2E2E2EFEF
  0
ENDSEC
  0
EOF
