  0
SECTION
  2
HEADER
  9
$ACADVER
  1
AC1018
  9
$ACADMAINTVER
 70
     0
  9
$DWGCODEPAGE
  3
ANSI_1252
  9
$AUTHOR
  1
g6edxjah
  9
$LASTSAVEDBY
  1
g6edxjah
  9
$INSBASE
 10
0.0
 20
0.0
 30
0.0
  9
$EXTMIN
 10
23.043458
 20
-13.081542
 30
0.0
  9
$EXTMAX
 10
31.456542
 20
-1.918458
 30
0.0
  9
$LIMMIN
 10
-0.706709
 20
-35.456709
  9
$LIMMAX
 10
55.206709
 20
20.456709
  9
$ORTHOMODE
 70
     0
  9
$REGENMODE
 70
     1
  9
$FILLMODE
 70
     1
  9
$QTEXTMODE
 70
     0
  9
$MIRRTEXT
 70
     0
  9
$LTSCALE
 40
1.0
  9
$ATTMODE
 70
     1
  9
$TEXTSIZE
 40
0.140396
  9
$TRACEWID
 40
0.05
  9
$TEXTSTYLE
  7
Standard
  9
$CLAYER
  8
TITLE
  9
$CELTYPE
  6
Continuous
  9
$CECOLOR
 62
     7
  9
$CELTSCALE
 40
1.0
  9
$DISPSILH
 70
     0
  9
$DIMSCALE
 40
1.0
  9
$DIMASZ
 40
0.140396
  9
$DIMEXO
 40
0.070198
  9
$DIMDLI
 40
0.0
  9
$DIMRND
 40
0.0
  9
$DIMDLE
 40
0.0
  9
$DIMEXE
 40
0.070198
  9
$DIMTP
 40
0.0
  9
$DIMTM
 40
0.0
  9
$DIMTXT
 40
0.140396
  9
$DIMCEN
 40
0.09
  9
$DIMTSZ
 40
0.0
  9
$DIMTOL
 70
     0
  9
$DIMLIM
 70
     0
  9
$DIMTIH
 70
     0
  9
$DIMTOH
 70
     0
  9
$DIMSE1
 70
     0
  9
$DIMSE2
 70
     0
  9
$DIMTAD
 70
     1
  9
$DIMZIN
 70
    11
  9
$DIMBLK
  1
TerminatorOpen_0.5
  9
$DIMASO
 70
     1
  9
$DIMSHO
 70
     1
  9
$DIMPOST
  1

  9
$DIMAPOST
  1

  9
$DIMALT
 70
     0
  9
$DIMALTD
 70
     4
  9
$DIMALTF
 40
25.4
  9
$DIMLFAC
 40
1.0
  9
$DIMTOFL
 70
     0
  9
$DIMTVP
 40
0.0
  9
$DIMTIX
 70
     0
  9
$DIMSOXD
 70
     0
  9
$DIMSAH
 70
     0
  9
$DIMBLK1
  1

  9
$DIMBLK2
  1

  9
$DIMSTYLE
  2
Standard
  9
$DIMCLRD
 70
     0
  9
$DIMCLRE
 70
     0
  9
$DIMCLRT
 70
     0
  9
$DIMTFAC
 40
1.0
  9
$DIMGAP
 40
0.070198
  9
$DIMJUST
 70
     0
  9
$DIMSD1
 70
     0
  9
$DIMSD2
 70
     0
  9
$DIMTOLJ
 70
     0
  9
$DIMTZIN
 70
    11
  9
$DIMALTZ
 70
    15
  9
$DIMALTTZ
 70
    15
  9
$DIMUPT
 70
     0
  9
$DIMDEC
 70
     4
  9
$DIMTDEC
 70
     4
  9
$DIMALTU
 70
     2
  9
$DIMALTTD
 70
     4
  9
$DIMTXSTY
  7
Style-Arial
  9
$DIMAUNIT
 70
     0
  9
$DIMADEC
 70
     4
  9
$DIMALTRND
 40
0.0
  9
$DIMAZIN
 70
     3
  9
$DIMDSEP
 70
    46
  9
$DIMATFIT
 70
     1
  9
$DIMFRAC
 70
     0
  9
$DIMLDRBLK
  1
TerminatorOpen_0.5
  9
$DIMLUNIT
 70
     2
  9
$DIMLWD
 70
    -2
  9
$DIMLWE
 70
    -2
  9
$DIMTMOVE
 70
     0
  9
$LUNITS
 70
     2
  9
$LUPREC
 70
     4
  9
$SKETCHINC
 40
0.1
  9
$FILLETRAD
 40
0.0
  9
$AUNITS
 70
     0
  9
$AUPREC
 70
     4
  9
$MENU
  1
.
  9
$ELEVATION
 40
0.0
  9
$PELEVATION
 40
0.0
  9
$THICKNESS
 40
0.0
  9
$LIMCHECK
 70
     0
  9
$CHAMFERA
 40
0.0
  9
$CHAMFERB
 40
0.0
  9
$CHAMFERC
 40
0.0
  9
$CHAMFERD
 40
0.0
  9
$SKPOLY
 70
     0
  9
$TDCREATE
 40
2455372.574362778
  9
$TDUCREATE
 40
2455372.782696111
  9
$TDUPDATE
 40
2455372.574362778
  9
$TDUUPDATE
 40
2455372.782696111
  9
$TDINDWG
 40
0.0
  9
$TDUSRTIMER
 40
0.0006630093
  9
$USRTIMER
 70
     1
  9
$ANGBASE
 50
0.0
  9
$ANGDIR
 70
     0
  9
$PDMODE
 70
     0
  9
$PDSIZE
 40
0.0
  9
$PLINEWID
 40
0.0
  9
$SPLFRAME
 70
     0
  9
$SPLINETYPE
 70
     6
  9
$SPLINESEGS
 70
     8
  9
$HANDSEED
  5
518
  9
$SURFTAB1
 70
     6
  9
$SURFTAB2
 70
     6
  9
$SURFTYPE
 70
     6
  9
$SURFU
 70
     6
  9
$SURFV
 70
     6
  9
$UCSBASE
  2

  9
$UCSNAME
  2

  9
$UCSORG
 10
0.0
 20
0.0
 30
0.0
  9
$UCSXDIR
 10
1.0
 20
0.0
 30
0.0
  9
$UCSYDIR
 10
0.0
 20
1.0
 30
0.0
  9
$UCSORTHOREF
  2

  9
$UCSORTHOVIEW
 70
     0
  9
$UCSORGTOP
 10
0.0
 20
0.0
 30
0.0
  9
$UCSORGBOTTOM
 10
0.0
 20
0.0
 30
0.0
  9
$UCSORGLEFT
 10
0.0
 20
0.0
 30
0.0
  9
$UCSORGRIGHT
 10
0.0
 20
0.0
 30
0.0
  9
$UCSORGFRONT
 10
0.0
 20
0.0
 30
0.0
  9
$UCSORGBACK
 10
0.0
 20
0.0
 30
0.0
  9
$PUCSBASE
  2

  9
$PUCSNAME
  2

  9
$PUCSORG
 10
0.0
 20
0.0
 30
0.0
  9
$PUCSXDIR
 10
1.0
 20
0.0
 30
0.0
  9
$PUCSYDIR
 10
0.0
 20
1.0
 30
0.0
  9
$PUCSORTHOREF
  2

  9
$PUCSORTHOVIEW
 70
     0
  9
$PUCSORGTOP
 10
0.0
 20
0.0
 30
0.0
  9
$PUCSORGBOTTOM
 10
0.0
 20
0.0
 30
0.0
  9
$PUCSORGLEFT
 10
0.0
 20
0.0
 30
0.0
  9
$PUCSORGRIGHT
 10
0.0
 20
0.0
 30
0.0
  9
$PUCSORGFRONT
 10
0.0
 20
0.0
 30
0.0
  9
$PUCSORGBACK
 10
0.0
 20
0.0
 30
0.0
  9
$USERI1
 70
     0
  9
$USERI2
 70
     0
  9
$USERI3
 70
     0
  9
$USERI4
 70
     0
  9
$USERI5
 70
     0
  9
$USERR1
 40
0.0
  9
$USERR2
 40
0.0
  9
$USERR3
 40
0.0
  9
$USERR4
 40
0.0
  9
$USERR5
 40
0.0
  9
$WORLDVIEW
 70
     1
  9
$SHADEDGE
 70
     3
  9
$SHADEDIF
 70
    70
  9
$TILEMODE
 70
     1
  9
$MAXACTVP
 70
    64
  9
$PINSBASE
 10
0.0
 20
0.0
 30
0.0
  9
$PLIMCHECK
 70
     0
  9
$PEXTMIN
 10
1.049744
 20
0.799667
 30
-0.001526
  9
$PEXTMAX
 10
9.450623
 20
7.200577
 30
0.0
  9
$PLIMMIN
 10
-0.25
 20
-0.25
  9
$PLIMMAX
 10
10.75
 20
8.25
  9
$UNITMODE
 70
     0
  9
$VISRETAIN
 70
     1
  9
$PLINEGEN
 70
     0
  9
$PSLTSCALE
 70
     0
  9
$TREEDEPTH
 70
  3020
  9
$CMLSTYLE
  2
Standard
  9
$CMLJUST
 70
     0
  9
$CMLSCALE
 40
1.0
  9
$PROXYGRAPHICS
 70
     1
  9
$MEASUREMENT
 70
     0
  9
$CELWEIGHT
370
    30
  9
$ENDCAPS
280
     0
  9
$JOINSTYLE
280
     0
  9
$LWDISPLAY
290
     1
  9
$INSUNITS
 70
     2
  9
$HYPERLINKBASE
  1

  9
$STYLESHEET
  1

  9
$XEDIT
290
     1
  9
$CEPSNTYPE
380
     0
  9
$PSTYLEMODE
290
     1
  9
$FINGERPRINTGUID
  2
{02C0BBB5-38A7-4FBF-829E-00875EC88963}
  9
$VERSIONGUID
  2
{82C521FC-BF81-46B3-825E-420B6BD93A99}
  9
$EXTNAMES
290
     1
  9
$PSVPSCALE
 40
0.0
  9
$OLESTARTUP
290
     0
  9
$SORTENTS
280
   127
  9
$INDEXCTL
280
     0
  9
$HIDETEXT
280
     1
  9
$XCLIPFRAME
290
     0
  9
$HALOGAP
280
     0
  9
$OBSCOLOR
 70
   257
  9
$OBSLTYPE
280
     0
  9
$INTERSECTIONDISPLAY
280
     0
  9
$INTERSECTIONCOLOR
 70
   257
  9
$DIMASSOC
280
     1
  9
$PROJECTNAME
  1

  0
ENDSEC
  0
SECTION
  2
CLASSES
  0
CLASS
  1
ACDBDICTIONARYWDFLT
  2
AcDbDictionaryWithDefault
  3
ObjectDBX Classes
 90
        0
 91
        3
280
     0
281
     0
  0
CLASS
  1
SORTENTSTABLE
  2
AcDbSortentsTable
  3
ObjectDBX Classes
 90
        0
 91
        3
280
     0
281
     0
  0
ENDSEC
  0
SECTION
  2
TABLES
  0
TABLE
  2
VPORT
  5
4F9
330
0
100
AcDbSymbolTable
 70
     4
  0
VPORT
  5
49
330
4F9
100
AcDbSymbolTableRecord
100
AcDbViewportTableRecord
  2
*ACTIVE
 70
     0
 10
0.0
 20
0.0
 11
1.0
 21
1.0
 12
27.25
 22
-7.5
 13
0.0
 23
0.0
 14
0.083333
 24
0.083333
 15
0.083333
 25
0.083333
 16
0.0
 26
0.0
 36
1.0
 17
0.0
 27
0.0
 37
0.0
 40
11.609607
 41
1.884937
 42
50.0
 43
0.0
 44
0.0
 50
0.0
 51
0.0
 71
     0
 72
   100
 73
     1
 74
     2
 75
     0
 76
     0
 77
     0
 78
     1
281
     0
 65
     1
110
0.0
120
0.0
130
0.0
111
1.0
121
0.0
131
0.0
112
0.0
122
1.0
132
0.0
 79
     0
146
0.0
  0
ENDTAB
  0
TABLE
  2
LTYPE
  5
4E0
330
0
100
AcDbSymbolTable
 70
     1
  0
LTYPE
  5
4E1
330
4E0
100
AcDbSymbolTableRecord
100
AcDbLinetypeTableRecord
  2
ByBlock
 70
     0
  3

 72
    65
 73
     0
 40
0.0
  0
LTYPE
  5
4E2
330
4E0
100
AcDbSymbolTableRecord
100
AcDbLinetypeTableRecord
  2
ByLayer
 70
     0
  3

 72
    65
 73
     0
 40
0.0
  0
LTYPE
  5
4DF
330
4E0
100
AcDbSymbolTableRecord
100
AcDbLinetypeTableRecord
  2
Continuous
 70
     0
  3
Solid line
 72
    65
 73
     0
 40
0.0
  0
ENDTAB
  0
TABLE
  2
LAYER
  5
4D9
102
{ACAD_XDICTIONARY
360
4DA
102
}
330
0
100
AcDbSymbolTable
 70
    64
  0
LAYER
  5
4D8
330
4D9
100
AcDbSymbolTableRecord
100
AcDbLayerTableRecord
  2
0
 70
     0
 62
     7
  6
Continuous
370
    -3
390
4DC
  0
LAYER
  5
7
330
4D9
100
AcDbSymbolTableRecord
100
AcDbLayerTableRecord
  2
Level 1
 70
     0
 62
     7
  6
Continuous
370
     0
390
4DC
  0
LAYER
  5
8
330
4D9
100
AcDbSymbolTableRecord
100
AcDbLayerTableRecord
  2
2-34C
 70
     0
 62
     7
  6
Continuous
370
     0
390
4DC
1001
AcAecLayerStandard
1000

1000
2-34C
  0
LAYER
  5
9
330
4D9
100
AcDbSymbolTableRecord
100
AcDbLayerTableRecord
  2
BORDER
 70
     0
 62
     7
  6
Continuous
370
     0
390
4DC
1001
AcAecLayerStandard
1000

1000
BORDER
  0
LAYER
  5
A
330
4D9
100
AcDbSymbolTableRecord
100
AcDbLayerTableRecord
  2
LEGEND
 70
     0
 62
     7
  6
Continuous
370
     0
390
4DC
1001
AcAecLayerStandard
1000

1000
LEGEND
  0
LAYER
  5
B
330
4D9
100
AcDbSymbolTableRecord
100
AcDbLayerTableRecord
  2
DIM
 70
     0
 62
     7
  6
Continuous
370
     0
390
4DC
1001
AcAecLayerStandard
1000

1000
DIM
  0
LAYER
  5
C
330
4D9
100
AcDbSymbolTableRecord
100
AcDbLayerTableRecord
  2
HATCH
 70
     0
 62
     7
  6
Continuous
370
     0
390
4DC
1001
AcAecLayerStandard
1000

1000
HATCH
  0
LAYER
  5
D
330
4D9
100
AcDbSymbolTableRecord
100
AcDbLayerTableRecord
  2
NOTES
 70
     0
 62
     7
  6
Continuous
370
     0
390
4DC
1001
AcAecLayerStandard
1000

1000
NOTES
  0
LAYER
  5
E
330
4D9
100
AcDbSymbolTableRecord
100
AcDbLayerTableRecord
  2
TEXT
 70
     0
 62
     7
  6
Continuous
370
     0
390
4DC
1001
AcAecLayerStandard
1000

1000
TEXT
  0
LAYER
  5
F
330
4D9
100
AcDbSymbolTableRecord
100
AcDbLayerTableRecord
  2
TITLE
 70
     0
 62
     7
  6
Continuous
370
     0
390
4DC
1001
AcAecLayerStandard
1000

1000
TITLE
  0
LAYER
  5
10
330
4D9
100
AcDbSymbolTableRecord
100
AcDbLayerTableRecord
  2
Level 10
 70
     0
 62
     7
  6
Continuous
370
     0
390
4DC
  0
LAYER
  5
11
330
4D9
100
AcDbSymbolTableRecord
100
AcDbLayerTableRecord
  2
Level 11
 70
     0
 62
     7
  6
Continuous
370
     0
390
4DC
  0
LAYER
  5
12
330
4D9
100
AcDbSymbolTableRecord
100
AcDbLayerTableRecord
  2
Level 12
 70
     0
 62
     7
  6
Continuous
370
     0
390
4DC
  0
LAYER
  5
13
330
4D9
100
AcDbSymbolTableRecord
100
AcDbLayerTableRecord
  2
Level 13
 70
     0
 62
     7
  6
Continuous
370
     0
390
4DC
  0
LAYER
  5
14
330
4D9
100
AcDbSymbolTableRecord
100
AcDbLayerTableRecord
  2
Level 14
 70
     0
 62
     7
  6
Continuous
370
     0
390
4DC
  0
LAYER
  5
15
330
4D9
100
AcDbSymbolTableRecord
100
AcDbLayerTableRecord
  2
Level 15
 70
     0
 62
     7
  6
Continuous
370
     0
390
4DC
  0
LAYER
  5
16
330
4D9
100
AcDbSymbolTableRecord
100
AcDbLayerTableRecord
  2
Level 16
 70
     0
 62
     7
  6
Continuous
370
     0
390
4DC
  0
LAYER
  5
17
330
4D9
100
AcDbSymbolTableRecord
100
AcDbLayerTableRecord
  2
Level 17
 70
     0
 62
     7
  6
Continuous
370
     0
390
4DC
  0
LAYER
  5
18
330
4D9
100
AcDbSymbolTableRecord
100
AcDbLayerTableRecord
  2
Level 18
 70
     0
 62
     7
  6
Continuous
370
     0
390
4DC
  0
LAYER
  5
19
330
4D9
100
AcDbSymbolTableRecord
100
AcDbLayerTableRecord
  2
Level 19
 70
     0
 62
     7
  6
Continuous
370
     0
390
4DC
  0
LAYER
  5
1A
330
4D9
100
AcDbSymbolTableRecord
100
AcDbLayerTableRecord
  2
Level 20
 70
     0
 62
     7
  6
Continuous
370
     0
390
4DC
  0
LAYER
  5
1B
330
4D9
100
AcDbSymbolTableRecord
100
AcDbLayerTableRecord
  2
Level 21
 70
     0
 62
     7
  6
Continuous
370
     0
390
4DC
  0
LAYER
  5
1C
330
4D9
100
AcDbSymbolTableRecord
100
AcDbLayerTableRecord
  2
Level 22
 70
     0
 62
     7
  6
Continuous
370
     0
390
4DC
  0
LAYER
  5
1D
330
4D9
100
AcDbSymbolTableRecord
100
AcDbLayerTableRecord
  2
Level 23
 70
     0
 62
     7
  6
Continuous
370
     0
390
4DC
  0
LAYER
  5
1E
330
4D9
100
AcDbSymbolTableRecord
100
AcDbLayerTableRecord
  2
Level 24
 70
     0
 62
     7
  6
Continuous
370
     0
390
4DC
  0
LAYER
  5
1F
330
4D9
100
AcDbSymbolTableRecord
100
AcDbLayerTableRecord
  2
Level 25
 70
     0
 62
     7
  6
Continuous
370
     0
390
4DC
  0
LAYER
  5
20
330
4D9
100
AcDbSymbolTableRecord
100
AcDbLayerTableRecord
  2
Level 26
 70
     0
 62
     7
  6
Continuous
370
     0
390
4DC
  0
LAYER
  5
21
330
4D9
100
AcDbSymbolTableRecord
100
AcDbLayerTableRecord
  2
Level 27
 70
     0
 62
     7
  6
Continuous
370
     0
390
4DC
  0
LAYER
  5
22
330
4D9
100
AcDbSymbolTableRecord
100
AcDbLayerTableRecord
  2
Level 28
 70
     0
 62
     7
  6
Continuous
370
     0
390
4DC
  0
LAYER
  5
23
330
4D9
100
AcDbSymbolTableRecord
100
AcDbLayerTableRecord
  2
Level 29
 70
     0
 62
     7
  6
Continuous
370
     0
390
4DC
  0
LAYER
  5
24
330
4D9
100
AcDbSymbolTableRecord
100
AcDbLayerTableRecord
  2
Level 30
 70
     0
 62
     7
  6
Continuous
370
     0
390
4DC
  0
LAYER
  5
25
330
4D9
100
AcDbSymbolTableRecord
100
AcDbLayerTableRecord
  2
Level 31
 70
     0
 62
     7
  6
Continuous
370
     0
390
4DC
  0
LAYER
  5
26
330
4D9
100
AcDbSymbolTableRecord
100
AcDbLayerTableRecord
  2
Level 32
 70
     0
 62
     7
  6
Continuous
370
     0
390
4DC
  0
LAYER
  5
27
330
4D9
100
AcDbSymbolTableRecord
100
AcDbLayerTableRecord
  2
Level 33
 70
     0
 62
     7
  6
Continuous
370
     0
390
4DC
  0
LAYER
  5
28
330
4D9
100
AcDbSymbolTableRecord
100
AcDbLayerTableRecord
  2
Level 34
 70
     0
 62
     7
  6
Continuous
370
     0
390
4DC
  0
LAYER
  5
29
330
4D9
100
AcDbSymbolTableRecord
100
AcDbLayerTableRecord
  2
Level 35
 70
     0
 62
     7
  6
Continuous
370
     0
390
4DC
  0
LAYER
  5
2A
330
4D9
100
AcDbSymbolTableRecord
100
AcDbLayerTableRecord
  2
Level 36
 70
     0
 62
     7
  6
Continuous
370
     0
390
4DC
  0
LAYER
  5
2B
330
4D9
100
AcDbSymbolTableRecord
100
AcDbLayerTableRecord
  2
Level 37
 70
     0
 62
     7
  6
Continuous
370
     0
390
4DC
  0
LAYER
  5
2C
330
4D9
100
AcDbSymbolTableRecord
100
AcDbLayerTableRecord
  2
Level 38
 70
     0
 62
     7
  6
Continuous
370
     0
390
4DC
  0
LAYER
  5
2D
330
4D9
100
AcDbSymbolTableRecord
100
AcDbLayerTableRecord
  2
Level 39
 70
     0
 62
     7
  6
Continuous
370
     0
390
4DC
  0
LAYER
  5
2E
330
4D9
100
AcDbSymbolTableRecord
100
AcDbLayerTableRecord
  2
Level 40
 70
     0
 62
     7
  6
Continuous
370
     0
390
4DC
  0
LAYER
  5
2F
330
4D9
100
AcDbSymbolTableRecord
100
AcDbLayerTableRecord
  2
Level 41
 70
     0
 62
     7
  6
Continuous
370
     0
390
4DC
  0
LAYER
  5
30
330
4D9
100
AcDbSymbolTableRecord
100
AcDbLayerTableRecord
  2
Level 42
 70
     0
 62
     7
  6
Continuous
370
     0
390
4DC
  0
LAYER
  5
31
330
4D9
100
AcDbSymbolTableRecord
100
AcDbLayerTableRecord
  2
Level 43
 70
     0
 62
     7
  6
Continuous
370
     0
390
4DC
  0
LAYER
  5
32
330
4D9
100
AcDbSymbolTableRecord
100
AcDbLayerTableRecord
  2
Level 44
 70
     0
 62
     7
  6
Continuous
370
     0
390
4DC
  0
LAYER
  5
33
330
4D9
100
AcDbSymbolTableRecord
100
AcDbLayerTableRecord
  2
Level 45
 70
     0
 62
     7
  6
Continuous
370
     0
390
4DC
  0
LAYER
  5
34
330
4D9
100
AcDbSymbolTableRecord
100
AcDbLayerTableRecord
  2
Level 46
 70
     0
 62
     7
  6
Continuous
370
     0
390
4DC
  0
LAYER
  5
35
330
4D9
100
AcDbSymbolTableRecord
100
AcDbLayerTableRecord
  2
Level 47
 70
     0
 62
     7
  6
Continuous
370
     0
390
4DC
  0
LAYER
  5
36
330
4D9
100
AcDbSymbolTableRecord
100
AcDbLayerTableRecord
  2
Level 48
 70
     0
 62
     7
  6
Continuous
370
     0
390
4DC
  0
LAYER
  5
37
330
4D9
100
AcDbSymbolTableRecord
100
AcDbLayerTableRecord
  2
Level 49
 70
     0
 62
     7
  6
Continuous
370
     0
390
4DC
  0
LAYER
  5
38
330
4D9
100
AcDbSymbolTableRecord
100
AcDbLayerTableRecord
  2
Level 50
 70
     0
 62
     7
  6
Continuous
370
     0
390
4DC
  0
LAYER
  5
39
330
4D9
100
AcDbSymbolTableRecord
100
AcDbLayerTableRecord
  2
Level 51
 70
     0
 62
     7
  6
Continuous
370
     0
390
4DC
  0
LAYER
  5
3A
330
4D9
100
AcDbSymbolTableRecord
100
AcDbLayerTableRecord
  2
Level 52
 70
     0
 62
     7
  6
Continuous
370
     0
390
4DC
  0
LAYER
  5
3B
330
4D9
100
AcDbSymbolTableRecord
100
AcDbLayerTableRecord
  2
Level 53
 70
     0
 62
     7
  6
Continuous
370
     0
390
4DC
  0
LAYER
  5
3C
330
4D9
100
AcDbSymbolTableRecord
100
AcDbLayerTableRecord
  2
Level 54
 70
     0
 62
     7
  6
Continuous
370
     0
390
4DC
  0
LAYER
  5
3D
330
4D9
100
AcDbSymbolTableRecord
100
AcDbLayerTableRecord
  2
Level 55
 70
     0
 62
     7
  6
Continuous
370
     0
390
4DC
  0
LAYER
  5
3E
330
4D9
100
AcDbSymbolTableRecord
100
AcDbLayerTableRecord
  2
Level 56
 70
     0
 62
     7
  6
Continuous
370
     0
390
4DC
  0
LAYER
  5
3F
330
4D9
100
AcDbSymbolTableRecord
100
AcDbLayerTableRecord
  2
Level 57
 70
     0
 62
     7
  6
Continuous
370
     0
390
4DC
  0
LAYER
  5
40
330
4D9
100
AcDbSymbolTableRecord
100
AcDbLayerTableRecord
  2
Level 58
 70
     0
 62
     7
  6
Continuous
370
     0
390
4DC
  0
LAYER
  5
41
330
4D9
100
AcDbSymbolTableRecord
100
AcDbLayerTableRecord
  2
Level 59
 70
     0
 62
     7
  6
Continuous
370
     0
390
4DC
  0
LAYER
  5
42
330
4D9
100
AcDbSymbolTableRecord
100
AcDbLayerTableRecord
  2
Level 60
 70
     0
 62
     7
  6
Continuous
370
     0
390
4DC
  0
LAYER
  5
43
330
4D9
100
AcDbSymbolTableRecord
100
AcDbLayerTableRecord
  2
Level 61
 70
     0
 62
     7
  6
Continuous
370
     0
390
4DC
  0
LAYER
  5
44
330
4D9
100
AcDbSymbolTableRecord
100
AcDbLayerTableRecord
  2
Level 62
 70
     0
 62
     7
  6
Continuous
370
     0
390
4DC
  0
LAYER
  5
45
330
4D9
100
AcDbSymbolTableRecord
100
AcDbLayerTableRecord
  2
_0
 70
     0
 62
     7
  6
Continuous
370
     0
390
4DC
1001
AcAecLayerStandard
1000

1000
0
  0
ENDTAB
  0
TABLE
  2
STYLE
  5
4E4
330
0
100
AcDbSymbolTable
 70
     2
  0
STYLE
  5
4E3
330
4E4
100
AcDbSymbolTableRecord
100
AcDbTextStyleTableRecord
  2
Standard
 70
     0
 40
0.0
 41
1.0
 50
0.0
 71
     0
 42
0.140396
  3
txt
  4

  0
STYLE
  5
503
330
4E4
100
AcDbSymbolTableRecord
100
AcDbTextStyleTableRecord
  2
Style-Arial
 70
     0
 40
0.0
 41
1.0
 50
0.0
 71
     0
 42
0.2
  3

  4

1001
ACAD
1000
Arial
1071
       39
  0
ENDTAB
  0
TABLE
  2
VIEW
  5
4F7
330
0
100
AcDbSymbolTable
 70
     0
  0
ENDTAB
  0
TABLE
  2
UCS
  5
4F8
330
0
100
AcDbSymbolTable
 70
     0
  0
ENDTAB
  0
TABLE
  2
APPID
  5
4F6
330
0
100
AcDbSymbolTable
 70
     3
  0
APPID
  5
4FE
330
4F6
100
AcDbSymbolTableRecord
100
AcDbRegAppTableRecord
  2
ACAD
 70
     0
  0
APPID
  5
4F5
330
4F6
100
AcDbSymbolTableRecord
100
AcDbRegAppTableRecord
  2
ACAD_PSEXT
 70
     0
  0
APPID
  5
500
330
4F6
100
AcDbSymbolTableRecord
100
AcDbRegAppTableRecord
  2
AcAecLayerStandard
 70
     0
  0
ENDTAB
  0
TABLE
  2
DIMSTYLE
  5
4E6
330
0
100
AcDbSymbolTable
 70
     1
100
AcDbDimStyleTable
  0
DIMSTYLE
105
4E5
330
4E6
100
AcDbSymbolTableRecord
100
AcDbDimStyleTableRecord
  2
Standard
 70
     0
340
4E3
  0
ENDTAB
  0
TABLE
  2
BLOCK_RECORD
  5
4E9
330
0
100
AcDbSymbolTable
 70
     3
  0
BLOCK_RECORD
  5
4EA
102
{ACAD_XDICTIONARY
360
513
102
}
330
4E9
100
AcDbSymbolTableRecord
100
AcDbBlockTableRecord
  2
*Model_Space
340
4ED
  0
BLOCK_RECORD
  5
4EF
330
4E9
100
AcDbSymbolTableRecord
100
AcDbBlockTableRecord
  2
*Paper_Space
340
4F2
  0
BLOCK_RECORD
  5
504
330
4E9
100
AcDbSymbolTableRecord
100
AcDbBlockTableRecord
  2
TerminatorOpen_0.5
340
0
  0
BLOCK_RECORD
  5
50D
330
4E9
100
AcDbSymbolTableRecord
100
AcDbBlockTableRecord
  2
LARROW
340
0
102
{BLKREFS
331
41A
331
41C
331
41E
331
420
331
422
331
424
331
426
331
428
331
42A
102
}
  0
BLOCK_RECORD
  5
510
330
4E9
100
AcDbSymbolTableRecord
100
AcDbBlockTableRecord
  2
LARROW_1
340
0
102
{BLKREFS
331
433
331
445
331
450
331
45D
331
46C
331
477
102
}
  0
ENDTAB
  0
ENDSEC
  0
SECTION
  2
BLOCKS
  0
BLOCK
  5
4EB
330
4EA
100
AcDbEntity
  8
0
100
AcDbBlockBegin
  2
*Model_Space
 70
     0
 71
     0
 10
0.0
 20
0.0
 30
0.0
  3
*Model_Space
  1

  0
ENDBLK
  5
4EC
330
4EA
100
AcDbEntity
  8
0
100
AcDbBlockEnd
  0
BLOCK
  5
4F0
330
4EF
100
AcDbEntity
 67
     1
  8
0
100
AcDbBlockBegin
  2
*Paper_Space
 70
     0
 71
     0
 10
0.0
 20
0.0
 30
0.0
  3
*Paper_Space
  1

  0
ENDBLK
  5
4F1
330
4EF
100
AcDbEntity
 67
     1
  8
0
100
AcDbBlockEnd
  0
BLOCK
  5
508
330
504
100
AcDbEntity
  8
0
100
AcDbBlockBegin
  2
TerminatorOpen_0.5
 70
     0
 71
     0
 10
0.0
 20
0.0
 30
0.0
  3
TerminatorOpen_0.5
  1

  0
LINE
  5
505
330
504
100
AcDbEntity
  8
0
  6
ByBlock
 62
     0
370
    -2
100
AcDbLine
 10
0.0
 20
0.0
 30
0.0
 11
-1.0
 21
0.0
 31
0.0
  0
LINE
  5
506
330
504
100
AcDbEntity
  8
0
  6
ByBlock
 62
     0
370
    -2
100
AcDbLine
 10
0.0
 20
0.0
 30
0.0
 11
-1.0
 21
0.25
 31
0.0
  0
LINE
  5
507
330
504
100
AcDbEntity
  8
0
  6
ByBlock
 62
     0
370
    -2
100
AcDbLine
 10
0.0
 20
0.0
 30
0.0
 11
-1.0
 21
-0.25
 31
0.0
  0
ENDBLK
  5
509
330
504
100
AcDbEntity
  8
0
100
AcDbBlockEnd
  0
BLOCK
  5
50E
330
50D
100
AcDbEntity
  8
0
100
AcDbBlockBegin
  2
LARROW
 70
     0
 71
     0
 10
0.0
 20
0.0
 30
0.0
  3
LARROW
  1

  0
LWPOLYLINE
  5
41B
330
50D
100
AcDbEntity
  8
DIM
  6
Continuous
 62
     7
370
    13
100
AcDbPolyline
 90
       63
 70
   128
 43
0.0
 10
-0.013031
 20
0.001885
 10
0.0
 20
0.0
 10
-0.013021
 20
-0.001885
 10
-0.012615
 20
-0.001573
 10
-0.012042
 20
-0.00101
 10
-0.01176
 20
-0.00049
 10
-0.011687
 20
0.0
 10
-0.011792
 20
0.000552
 10
-0.012094
 20
0.001094
 10
-0.012677
 20
0.001625
 10
-0.013031
 20
0.001885
 10
-0.000385
 20
0.000021
 10
-0.012604
 20
-0.00176
 10
-0.012229
 20
-0.001479
 10
-0.011625
 20
-0.000906
 10
-0.011427
 20
-0.000167
 10
-0.011562
 20
0.000573
 10
-0.011917
 20
0.001083
 10
-0.012344
 20
0.0015
 10
-0.012635
 20
0.001729
 10
-0.001073
 20
0.000021
 10
-0.012052
 20
-0.001552
 10
-0.011667
 20
-0.001302
 10
-0.011469
 20
-0.000979
 10
-0.01125
 20
-0.000563
 10
-0.011135
 20
0.000021
 10
-0.011198
 20
0.0005
 10
-0.011427
 20
0.000875
 10
-0.011896
 20
0.001177
 10
-0.012208
 20
0.001542
 10
-0.001875
 20
0.000021
 10
-0.011448
 20
-0.001323
 10
-0.011021
 20
-0.000792
 10
-0.010896
 20
-0.000146
 10
-0.010958
 20
0.000573
 10
-0.011781
 20
0.001354
 10
-0.002771
 20
0.000063
 10
-0.010896
 20
-0.001073
 10
-0.010781
 20
-0.000698
 10
-0.010531
 20
-0.000094
 10
-0.010687
 20
0.000552
 10
-0.011333
 20
0.001125
 10
-0.003594
 20
0.000063
 10
-0.010604
 20
-0.000833
 10
-0.010375
 20
-0.000375
 10
-0.010271
 20
0.000115
 10
-0.01076
 20
0.000875
 10
-0.004573
 20
0.000063
 10
-0.010177
 20
-0.000625
 10
-0.010021
 20
-0.000281
 10
-0.009979
 20
0.000115
 10
-0.010375
 20
0.000667
 10
-0.00574
 20
0.000063
 10
-0.009823
 20
-0.000396
 10
-0.009708
 20
0.000135
 10
-0.010083
 20
0.000458
 10
-0.006698
 20
0.000063
 10
-0.009552
 20
-0.00024
 10
-0.009615
 20
0.000271
 10
-0.007677
 20
0.000063
 10
-0.009437
 20
-0.000073
 10
-0.00949
 20
0.000083
 10
-0.008885
 20
0.000083
  0
ENDBLK
  5
50F
330
50D
100
AcDbEntity
  8
0
100
AcDbBlockEnd
  0
BLOCK
  5
511
330
510
100
AcDbEntity
  8
0
100
AcDbBlockBegin
  2
LARROW_1
 70
     0
 71
     0
 10
0.0
 20
0.0
 30
0.0
  3
LARROW_1
  1

  0
LINE
  5
434
330
510
100
AcDbEntity
  8
DIM
  6
Continuous
 62
     7
370
    13
100
AcDbLine
 10
0.0
 20
0.0
 30
0.0
 11
-0.013032
 21
0.001885
 31
0.0
  0
LINE
  5
435
330
510
100
AcDbEntity
  8
DIM
  6
Continuous
 62
     7
370
    13
100
AcDbLine
 10
0.0
 20
0.0
 30
0.0
 11
-0.013021
 21
-0.001886
 31
0.0
  0
LWPOLYLINE
  5
436
330
510
100
AcDbEntity
  8
DIM
  6
Continuous
 62
     7
370
    13
100
AcDbPolyline
 90
        9
 70
   128
 43
0.0
 10
-0.013032
 20
0.001885
 10
-0.01225
 20
0.001292
 10
-0.011896
 20
0.000813
 10
-0.011718
 20
0.000365
 10
-0.011688
 20
-0.000052
 10
-0.01175
 20
-0.000458
 10
-0.011958
 20
-0.000896
 10
-0.012323
 20
-0.001354
 10
-0.013021
 20
-0.001886
  0
LINE
  5
437
330
510
100
AcDbEntity
  8
DIM
  6
Continuous
 62
     7
370
    13
100
AcDbLine
 10
0.0
 20
0.0
 30
0.0
 11
-0.01225
 21
0.001292
 31
0.0
  0
LINE
  5
438
330
510
100
AcDbEntity
  8
DIM
  6
Continuous
 62
     7
370
    13
100
AcDbLine
 10
0.0
 20
0.0
 30
0.0
 11
-0.011896
 21
0.000813
 31
0.0
  0
LINE
  5
439
330
510
100
AcDbEntity
  8
DIM
  6
Continuous
 62
     7
370
    13
100
AcDbLine
 10
0.0
 20
0.0
 30
0.0
 11
-0.011718
 21
0.000365
 31
0.0
  0
LINE
  5
43A
330
510
100
AcDbEntity
  8
DIM
  6
Continuous
 62
     7
370
    13
100
AcDbLine
 10
0.0
 20
0.0
 30
0.0
 11
-0.01175
 21
-0.000458
 31
0.0
  0
LINE
  5
43B
330
510
100
AcDbEntity
  8
DIM
  6
Continuous
 62
     7
370
    13
100
AcDbLine
 10
0.0
 20
0.0
 30
0.0
 11
-0.011958
 21
-0.000896
 31
0.0
  0
LINE
  5
43C
330
510
100
AcDbEntity
  8
DIM
  6
Continuous
 62
     7
370
    13
100
AcDbLine
 10
0.0
 20
0.0
 30
0.0
 11
-0.012323
 21
-0.001354
 31
0.0
  0
LINE
  5
43D
330
510
100
AcDbEntity
  8
DIM
  6
Continuous
 62
     7
370
    13
100
AcDbLine
 10
0.0
 20
0.0
 30
0.0
 11
-0.011677
 21
0.0
 31
0.0
  0
ENDBLK
  5
512
330
510
100
AcDbEntity
  8
0
100
AcDbBlockEnd
  0
ENDSEC
  0
SECTION
  2
ENTITIES
  0
POINT
  5
5B
330
4EA
100
AcDbEntity
  8
BORDER
  6
Continuous
 62
     7
370
    30
100
AcDbPoint
 10
23.625
 20
-12.013094
 30
0.0
  0
LINE
  5
5C
330
4EA
100
AcDbEntity
  8
BORDER
  6
Continuous
 62
     7
370
    30
100
AcDbLine
 10
30.875
 20
-12.013094
 30
0.0
 11
30.875
 21
-2.913094
 31
0.0
  0
LINE
  5
5D
330
4EA
100
AcDbEntity
  8
BORDER
  6
Continuous
 62
     7
370
    30
100
AcDbLine
 10
23.625
 20
-2.913094
 30
0.0
 11
30.875
 21
-2.913094
 31
0.0
  0
LINE
  5
5E
330
4EA
100
AcDbEntity
  8
BORDER
  6
Continuous
 62
     7
370
    30
100
AcDbLine
 10
23.625
 20
-12.013094
 30
0.0
 11
23.625
 21
-2.913094
 31
0.0
  0
LINE
  5
5F
330
4EA
100
AcDbEntity
  8
BORDER
  6
Continuous
 62
     7
370
    30
100
AcDbLine
 10
23.625
 20
-11.513094
 30
0.0
 11
30.875
 21
-11.513094
 31
0.0
  0
LINE
  5
60
330
4EA
100
AcDbEntity
  8
BORDER
  6
Continuous
 62
     7
370
    30
100
AcDbLine
 10
23.625
 20
-12.013094
 30
0.0
 11
30.875
 21
-12.013094
 31
0.0
  0
LINE
  5
61
330
4EA
100
AcDbEntity
  8
BORDER
  6
Continuous
 62
     7
370
    30
100
AcDbLine
 10
29.775
 20
-12.013094
 30
0.0
 11
29.775
 21
-11.513094
 31
0.0
  0
LINE
  5
62
330
4EA
100
AcDbEntity
  8
BORDER
  6
Continuous
 62
     7
370
    30
100
AcDbLine
 10
28.675
 20
-12.013094
 30
0.0
 11
28.675
 21
-11.513094
 31
0.0
  0
LINE
  5
6A
330
4EA
100
AcDbEntity
  8
_0
  6
Continuous
 62
     7
370
    30
100
AcDbLine
 10
27.510177
 20
-6.853479
 30
0.0
 11
28.088417
 21
-6.853479
 31
0.0
  0
CIRCLE
  5
6B
330
4EA
100
AcDbEntity
  8
_0
  6
Continuous
 62
     7
370
    30
100
AcDbCircle
 10
27.238416
 20
-6.781034
 30
0.0
 40
0.21875
  0
LINE
  5
6C
330
4EA
100
AcDbEntity
  8
_0
  6
Continuous
 62
     7
370
    30
100
AcDbLine
 10
25.688417
 20
-4.903479
 30
0.0
 11
25.688417
 21
-4.403479
 31
0.0
  0
LINE
  5
6D
330
4EA
100
AcDbEntity
  8
_0
  6
Continuous
 62
     7
370
    30
100
AcDbLine
 10
28.788417
 20
-4.903479
 30
0.0
 11
28.788417
 21
-4.403479
 31
0.0
  0
LINE
  5
6E
330
4EA
100
AcDbEntity
  8
_0
  6
Continuous
 62
     7
370
    30
100
AcDbLine
 10
26.388417
 20
-6.853479
 30
0.0
 11
26.388417
 21
-4.903479
 31
0.0
  0
LINE
  5
6F
330
4EA
100
AcDbEntity
  8
_0
  6
Continuous
 62
     7
370
    30
100
AcDbLine
 10
28.088417
 20
-6.853479
 30
0.0
 11
28.088417
 21
-4.903479
 31
0.0
  0
LINE
  5
70
330
4EA
100
AcDbEntity
  8
_0
  6
Continuous
 62
     7
370
    30
100
AcDbLine
 10
26.388417
 20
-6.853479
 30
0.0
 11
26.966656
 21
-6.853479
 31
0.0
  0
LINE
  5
71
330
4EA
100
AcDbEntity
  8
_0
  6
Continuous
 62
     7
370
    30
100
AcDbLine
 10
25.688417
 20
-4.903479
 30
0.0
 11
26.388417
 21
-4.903479
 31
0.0
  0
LINE
  5
72
330
4EA
100
AcDbEntity
  8
_0
  6
Continuous
 62
     7
370
    30
100
AcDbLine
 10
25.023719
 20
-4.403479
 30
0.0
 11
27.175
 21
-4.403479
 31
0.0
  0
LINE
  5
73
330
4EA
100
AcDbEntity
  8
_0
  6
Continuous
 62
     7
370
    30
100
AcDbLine
 10
27.325
 20
-4.403479
 30
0.0
 11
27.325
 21
-4.903479
 31
0.0
  0
LINE
  5
74
330
4EA
100
AcDbEntity
  8
_0
  6
Continuous
 62
     7
370
    30
100
AcDbLine
 10
27.175
 20
-4.403479
 30
0.0
 11
27.175
 21
-4.903479
 31
0.0
  0
LINE
  5
75
330
4EA
100
AcDbEntity
  8
_0
  6
Continuous
 62
     7
370
    30
100
AcDbLine
 10
28.088417
 20
-4.903479
 30
0.0
 11
28.788417
 21
-4.903479
 31
0.0
  0
LINE
  5
76
330
4EA
100
AcDbEntity
  8
_0
  6
Continuous
 62
     7
370
    30
100
AcDbLine
 10
27.325
 20
-4.403479
 30
0.0
 11
29.70625
 21
-4.403479
 31
0.0
  0
LINE
  5
77
330
4EA
100
AcDbEntity
  8
_0
  6
Continuous
 62
     7
370
    30
100
AcDbLine
 10
25.688417
 20
-4.528479
 30
0.0
 11
27.175
 21
-4.528479
 31
0.0
  0
CIRCLE
  5
7B
330
4EA
100
AcDbEntity
  8
TITLE
  6
Continuous
 62
     7
370
    30
100
AcDbCircle
 10
26.388315
 20
-4.134881
 30
0.0
 40
0.125
  0
CIRCLE
  5
7C
330
4EA
100
AcDbEntity
  8
TITLE
  6
Continuous
 62
     7
370
    30
100
AcDbCircle
 10
28.077978
 20
-4.134881
 30
0.0
 40
0.125
  0
CIRCLE
  5
7F
330
4EA
100
AcDbEntity
  8
NOTES
  6
Continuous
 62
     7
370
    30
100
AcDbCircle
 10
24.630397
 20
-10.261075
 30
0.0
 40
0.125
  0
CIRCLE
  5
80
330
4EA
100
AcDbEntity
  8
NOTES
  6
Continuous
 62
     7
370
    30
100
AcDbCircle
 10
24.629498
 20
-8.516553
 30
0.0
 40
0.125
  0
LINE
  5
82
330
4EA
100
AcDbEntity
  8
_0
  6
Continuous
 62
     7
370
    30
100
AcDbLine
 10
28.088417
 20
-4.903479
 30
0.0
 11
27.325
 21
-4.903479
 31
0.0
  0
CIRCLE
  5
83
330
4EA
100
AcDbEntity
  8
_0
  6
Continuous
 62
     7
370
    30
100
AcDbCircle
 10
27.238416
 20
-6.781034
 30
0.0
 40
0.2812499999999997
  0
LINE
  5
84
330
4EA
100
AcDbEntity
  8
_0
  6
Continuous
 62
     7
370
    30
100
AcDbLine
 10
27.175
 20
-4.903479
 30
0.0
 11
26.388417
 21
-4.903479
 31
0.0
  0
LINE
  5
85
330
4EA
100
AcDbEntity
  8
HATCH
  6
Continuous
 62
     7
370
    30
100
AcDbLine
 10
26.374521
 20
-4.528479
 30
0.0
 11
26.499521
 21
-4.403479
 31
0.0
  0
LINE
  5
86
330
4EA
100
AcDbEntity
  8
HATCH
  6
Continuous
 62
     7
370
    30
100
AcDbLine
 10
26.303802
 20
-4.528479
 30
0.0
 11
26.428802
 21
-4.403479
 31
0.0
  0
LINE
  5
87
330
4EA
100
AcDbEntity
  8
HATCH
  6
Continuous
 62
     7
370
    30
100
AcDbLine
 10
26.233094
 20
-4.528479
 30
0.0
 11
26.358094
 21
-4.403479
 31
0.0
  0
LINE
  5
88
330
4EA
100
AcDbEntity
  8
HATCH
  6
Continuous
 62
     7
370
    30
100
AcDbLine
 10
26.162385
 20
-4.528479
 30
0.0
 11
26.287385
 21
-4.403479
 31
0.0
  0
LINE
  5
89
330
4EA
100
AcDbEntity
  8
HATCH
  6
Continuous
 62
     7
370
    30
100
AcDbLine
 10
26.091677
 20
-4.528479
 30
0.0
 11
26.216677
 21
-4.403479
 31
0.0
  0
LINE
  5
8A
330
4EA
100
AcDbEntity
  8
HATCH
  6
Continuous
 62
     7
370
    30
100
AcDbLine
 10
26.020958
 20
-4.528479
 30
0.0
 11
26.145958
 21
-4.403479
 31
0.0
  0
LINE
  5
8B
330
4EA
100
AcDbEntity
  8
HATCH
  6
Continuous
 62
     7
370
    30
100
AcDbLine
 10
25.95025
 20
-4.528479
 30
0.0
 11
26.07525
 21
-4.403479
 31
0.0
  0
LINE
  5
8C
330
4EA
100
AcDbEntity
  8
HATCH
  6
Continuous
 62
     7
370
    30
100
AcDbLine
 10
25.879542
 20
-4.528479
 30
0.0
 11
26.004542
 21
-4.403479
 31
0.0
  0
LINE
  5
8D
330
4EA
100
AcDbEntity
  8
HATCH
  6
Continuous
 62
     7
370
    30
100
AcDbLine
 10
25.808833
 20
-4.528479
 30
0.0
 11
25.933833
 21
-4.403479
 31
0.0
  0
LINE
  5
8E
330
4EA
100
AcDbEntity
  8
HATCH
  6
Continuous
 62
     7
370
    30
100
AcDbLine
 10
25.738125
 20
-4.528479
 30
0.0
 11
25.863125
 21
-4.403479
 31
0.0
  0
LINE
  5
8F
330
4EA
100
AcDbEntity
  8
HATCH
  6
Continuous
 62
     7
370
    30
100
AcDbLine
 10
25.688417
 20
-4.507469
 30
0.0
 11
25.792406
 21
-4.403479
 31
0.0
  0
LINE
  5
90
330
4EA
100
AcDbEntity
  8
HATCH
  6
Continuous
 62
     7
370
    30
100
AcDbLine
 10
25.688417
 20
-4.43676
 30
0.0
 11
25.721698
 21
-4.403479
 31
0.0
  0
LINE
  5
91
330
4EA
100
AcDbEntity
  8
HATCH
  6
Continuous
 62
     7
370
    30
100
AcDbLine
 10
26.445229
 20
-4.528479
 30
0.0
 11
26.570229
 21
-4.403479
 31
0.0
  0
LINE
  5
92
330
4EA
100
AcDbEntity
  8
HATCH
  6
Continuous
 62
     7
370
    30
100
AcDbLine
 10
26.515937
 20
-4.528479
 30
0.0
 11
26.640937
 21
-4.403479
 31
0.0
  0
LINE
  5
93
330
4EA
100
AcDbEntity
  8
HATCH
  6
Continuous
 62
     7
370
    30
100
AcDbLine
 10
26.586646
 20
-4.528479
 30
0.0
 11
26.711646
 21
-4.403479
 31
0.0
  0
LINE
  5
94
330
4EA
100
AcDbEntity
  8
HATCH
  6
Continuous
 62
     7
370
    30
100
AcDbLine
 10
26.657354
 20
-4.528479
 30
0.0
 11
26.782354
 21
-4.403479
 31
0.0
  0
LINE
  5
95
330
4EA
100
AcDbEntity
  8
HATCH
  6
Continuous
 62
     7
370
    30
100
AcDbLine
 10
26.728073
 20
-4.528479
 30
0.0
 11
26.853073
 21
-4.403479
 31
0.0
  0
LINE
  5
96
330
4EA
100
AcDbEntity
  8
HATCH
  6
Continuous
 62
     7
370
    30
100
AcDbLine
 10
26.798781
 20
-4.528479
 30
0.0
 11
26.923781
 21
-4.403479
 31
0.0
  0
LINE
  5
97
330
4EA
100
AcDbEntity
  8
HATCH
  6
Continuous
 62
     7
370
    30
100
AcDbLine
 10
26.86949
 20
-4.528479
 30
0.0
 11
26.99449
 21
-4.403479
 31
0.0
  0
LINE
  5
98
330
4EA
100
AcDbEntity
  8
HATCH
  6
Continuous
 62
     7
370
    30
100
AcDbLine
 10
26.940198
 20
-4.528479
 30
0.0
 11
27.065198
 21
-4.403479
 31
0.0
  0
LINE
  5
99
330
4EA
100
AcDbEntity
  8
HATCH
  6
Continuous
 62
     7
370
    30
100
AcDbLine
 10
27.010917
 20
-4.528479
 30
0.0
 11
27.135917
 21
-4.403479
 31
0.0
  0
LINE
  5
9A
330
4EA
100
AcDbEntity
  8
HATCH
  6
Continuous
 62
     7
370
    30
100
AcDbLine
 10
27.081625
 20
-4.528479
 30
0.0
 11
27.175
 21
-4.435104
 31
0.0
  0
LINE
  5
9B
330
4EA
100
AcDbEntity
  8
HATCH
  6
Continuous
 62
     7
370
    30
100
AcDbLine
 10
27.152333
 20
-4.528479
 30
0.0
 11
27.175
 21
-4.505813
 31
0.0
  0
LINE
  5
9C
330
4EA
100
AcDbEntity
  8
HATCH
  6
Continuous
 62
     7
370
    30
100
AcDbLine
 10
26.461625
 20
-4.528479
 30
0.0
 11
26.336625
 21
-4.403479
 31
0.0
  0
LINE
  5
9D
330
4EA
100
AcDbEntity
  8
HATCH
  6
Continuous
 62
     7
370
    30
100
AcDbLine
 10
26.390917
 20
-4.528479
 30
0.0
 11
26.265917
 21
-4.403479
 31
0.0
  0
LINE
  5
9E
330
4EA
100
AcDbEntity
  8
HATCH
  6
Continuous
 62
     7
370
    30
100
AcDbLine
 10
26.320208
 20
-4.528479
 30
0.0
 11
26.195208
 21
-4.403479
 31
0.0
  0
LINE
  5
9F
330
4EA
100
AcDbEntity
  8
HATCH
  6
Continuous
 62
     7
370
    30
100
AcDbLine
 10
26.2495
 20
-4.528479
 30
0.0
 11
26.1245
 21
-4.403479
 31
0.0
  0
LINE
  5
A0
330
4EA
100
AcDbEntity
  8
HATCH
  6
Continuous
 62
     7
370
    30
100
AcDbLine
 10
26.178781
 20
-4.528479
 30
0.0
 11
26.053781
 21
-4.403479
 31
0.0
  0
LINE
  5
A1
330
4EA
100
AcDbEntity
  8
HATCH
  6
Continuous
 62
     7
370
    30
100
AcDbLine
 10
26.108073
 20
-4.528479
 30
0.0
 11
25.983073
 21
-4.403479
 31
0.0
  0
LINE
  5
A2
330
4EA
100
AcDbEntity
  8
HATCH
  6
Continuous
 62
     7
370
    30
100
AcDbLine
 10
26.037365
 20
-4.528479
 30
0.0
 11
25.912365
 21
-4.403479
 31
0.0
  0
LINE
  5
A3
330
4EA
100
AcDbEntity
  8
HATCH
  6
Continuous
 62
     7
370
    30
100
AcDbLine
 10
25.966656
 20
-4.528479
 30
0.0
 11
25.841656
 21
-4.403479
 31
0.0
  0
LINE
  5
A4
330
4EA
100
AcDbEntity
  8
HATCH
  6
Continuous
 62
     7
370
    30
100
AcDbLine
 10
25.895937
 20
-4.528479
 30
0.0
 11
25.770937
 21
-4.403479
 31
0.0
  0
LINE
  5
A5
330
4EA
100
AcDbEntity
  8
HATCH
  6
Continuous
 62
     7
370
    30
100
AcDbLine
 10
25.825229
 20
-4.528479
 30
0.0
 11
25.700229
 21
-4.403479
 31
0.0
  0
LINE
  5
A6
330
4EA
100
AcDbEntity
  8
HATCH
  6
Continuous
 62
     7
370
    30
100
AcDbLine
 10
25.754521
 20
-4.528479
 30
0.0
 11
25.688417
 21
-4.462375
 31
0.0
  0
LINE
  5
A7
330
4EA
100
AcDbEntity
  8
HATCH
  6
Continuous
 62
     7
370
    30
100
AcDbLine
 10
26.532333
 20
-4.528479
 30
0.0
 11
26.407333
 21
-4.403479
 31
0.0
  0
LINE
  5
A8
330
4EA
100
AcDbEntity
  8
HATCH
  6
Continuous
 62
     7
370
    30
100
AcDbLine
 10
26.603052
 20
-4.528479
 30
0.0
 11
26.478052
 21
-4.403479
 31
0.0
  0
LINE
  5
A9
330
4EA
100
AcDbEntity
  8
HATCH
  6
Continuous
 62
     7
370
    30
100
AcDbLine
 10
26.67376
 20
-4.528479
 30
0.0
 11
26.54876
 21
-4.403479
 31
0.0
  0
LINE
  5
AA
330
4EA
100
AcDbEntity
  8
HATCH
  6
Continuous
 62
     7
370
    30
100
AcDbLine
 10
26.744469
 20
-4.528479
 30
0.0
 11
26.619469
 21
-4.403479
 31
0.0
  0
LINE
  5
AB
330
4EA
100
AcDbEntity
  8
HATCH
  6
Continuous
 62
     7
370
    30
100
AcDbLine
 10
26.815177
 20
-4.528479
 30
0.0
 11
26.690177
 21
-4.403479
 31
0.0
  0
LINE
  5
AC
330
4EA
100
AcDbEntity
  8
HATCH
  6
Continuous
 62
     7
370
    30
100
AcDbLine
 10
26.885896
 20
-4.528479
 30
0.0
 11
26.760896
 21
-4.403479
 31
0.0
  0
LINE
  5
AD
330
4EA
100
AcDbEntity
  8
HATCH
  6
Continuous
 62
     7
370
    30
100
AcDbLine
 10
26.956604
 20
-4.528479
 30
0.0
 11
26.831604
 21
-4.403479
 31
0.0
  0
LINE
  5
AE
330
4EA
100
AcDbEntity
  8
HATCH
  6
Continuous
 62
     7
370
    30
100
AcDbLine
 10
27.027313
 20
-4.528479
 30
0.0
 11
26.902313
 21
-4.403479
 31
0.0
  0
LINE
  5
AF
330
4EA
100
AcDbEntity
  8
HATCH
  6
Continuous
 62
     7
370
    30
100
AcDbLine
 10
27.098021
 20
-4.528479
 30
0.0
 11
26.973021
 21
-4.403479
 31
0.0
  0
LINE
  5
B0
330
4EA
100
AcDbEntity
  8
HATCH
  6
Continuous
 62
     7
370
    30
100
AcDbLine
 10
27.168729
 20
-4.528479
 30
0.0
 11
27.043729
 21
-4.403479
 31
0.0
  0
LINE
  5
B1
330
4EA
100
AcDbEntity
  8
HATCH
  6
Continuous
 62
     7
370
    30
100
AcDbLine
 10
27.175
 20
-4.464031
 30
0.0
 11
27.114448
 21
-4.403479
 31
0.0
  0
LINE
  5
B2
330
4EA
100
AcDbEntity
  8
HATCH
  6
Continuous
 62
     7
370
    30
100
AcDbLine
 10
25.825
 20
-4.803479
 30
0.0
 11
25.875
 21
-4.803479
 31
0.0
  0
LINE
  5
B3
330
4EA
100
AcDbEntity
  8
HATCH
  6
Continuous
 62
     7
370
    30
100
AcDbLine
 10
26.025
 20
-4.803479
 30
0.0
 11
26.075
 21
-4.803479
 31
0.0
  0
LINE
  5
B4
330
4EA
100
AcDbEntity
  8
HATCH
  6
Continuous
 62
     7
370
    30
100
AcDbLine
 10
26.225
 20
-4.803479
 30
0.0
 11
26.275
 21
-4.803479
 31
0.0
  0
LINE
  5
B5
330
4EA
100
AcDbEntity
  8
HATCH
  6
Continuous
 62
     7
370
    30
100
AcDbLine
 10
26.425
 20
-4.803479
 30
0.0
 11
26.475
 21
-4.803479
 31
0.0
  0
LINE
  5
B6
330
4EA
100
AcDbEntity
  8
HATCH
  6
Continuous
 62
     7
370
    30
100
AcDbLine
 10
26.625
 20
-4.803479
 30
0.0
 11
26.675
 21
-4.803479
 31
0.0
  0
LINE
  5
B7
330
4EA
100
AcDbEntity
  8
HATCH
  6
Continuous
 62
     7
370
    30
100
AcDbLine
 10
26.825
 20
-4.803479
 30
0.0
 11
26.875
 21
-4.803479
 31
0.0
  0
LINE
  5
B8
330
4EA
100
AcDbEntity
  8
HATCH
  6
Continuous
 62
     7
370
    30
100
AcDbLine
 10
27.025
 20
-4.803479
 30
0.0
 11
27.075
 21
-4.803479
 31
0.0
  0
LINE
  5
B9
330
4EA
100
AcDbEntity
  8
HATCH
  6
Continuous
 62
     7
370
    30
100
AcDbLine
 10
25.725
 20
-4.703479
 30
0.0
 11
25.775
 21
-4.703479
 31
0.0
  0
LINE
  5
BA
330
4EA
100
AcDbEntity
  8
HATCH
  6
Continuous
 62
     7
370
    30
100
AcDbLine
 10
25.925
 20
-4.703479
 30
0.0
 11
25.975
 21
-4.703479
 31
0.0
  0
LINE
  5
BB
330
4EA
100
AcDbEntity
  8
HATCH
  6
Continuous
 62
     7
370
    30
100
AcDbLine
 10
26.125
 20
-4.703479
 30
0.0
 11
26.175
 21
-4.703479
 31
0.0
  0
LINE
  5
BC
330
4EA
100
AcDbEntity
  8
HATCH
  6
Continuous
 62
     7
370
    30
100
AcDbLine
 10
26.325
 20
-4.703479
 30
0.0
 11
26.375
 21
-4.703479
 31
0.0
  0
LINE
  5
BD
330
4EA
100
AcDbEntity
  8
HATCH
  6
Continuous
 62
     7
370
    30
100
AcDbLine
 10
26.525
 20
-4.703479
 30
0.0
 11
26.575
 21
-4.703479
 31
0.0
  0
LINE
  5
BE
330
4EA
100
AcDbEntity
  8
HATCH
  6
Continuous
 62
     7
370
    30
100
AcDbLine
 10
26.725
 20
-4.703479
 30
0.0
 11
26.775
 21
-4.703479
 31
0.0
  0
LINE
  5
BF
330
4EA
100
AcDbEntity
  8
HATCH
  6
Continuous
 62
     7
370
    30
100
AcDbLine
 10
26.925
 20
-4.703479
 30
0.0
 11
26.975
 21
-4.703479
 31
0.0
  0
LINE
  5
C0
330
4EA
100
AcDbEntity
  8
HATCH
  6
Continuous
 62
     7
370
    30
100
AcDbLine
 10
27.125
 20
-4.703479
 30
0.0
 11
27.175
 21
-4.703479
 31
0.0
  0
LINE
  5
C1
330
4EA
100
AcDbEntity
  8
HATCH
  6
Continuous
 62
     7
370
    30
100
AcDbLine
 10
25.825
 20
-4.603479
 30
0.0
 11
25.875
 21
-4.603479
 31
0.0
  0
LINE
  5
C2
330
4EA
100
AcDbEntity
  8
HATCH
  6
Continuous
 62
     7
370
    30
100
AcDbLine
 10
26.025
 20
-4.603479
 30
0.0
 11
26.075
 21
-4.603479
 31
0.0
  0
LINE
  5
C3
330
4EA
100
AcDbEntity
  8
HATCH
  6
Continuous
 62
     7
370
    30
100
AcDbLine
 10
26.225
 20
-4.603479
 30
0.0
 11
26.275
 21
-4.603479
 31
0.0
  0
LINE
  5
C4
330
4EA
100
AcDbEntity
  8
HATCH
  6
Continuous
 62
     7
370
    30
100
AcDbLine
 10
26.425
 20
-4.603479
 30
0.0
 11
26.475
 21
-4.603479
 31
0.0
  0
LINE
  5
C5
330
4EA
100
AcDbEntity
  8
HATCH
  6
Continuous
 62
     7
370
    30
100
AcDbLine
 10
26.625
 20
-4.603479
 30
0.0
 11
26.675
 21
-4.603479
 31
0.0
  0
LINE
  5
C6
330
4EA
100
AcDbEntity
  8
HATCH
  6
Continuous
 62
     7
370
    30
100
AcDbLine
 10
26.825
 20
-4.603479
 30
0.0
 11
26.875
 21
-4.603479
 31
0.0
  0
LINE
  5
C7
330
4EA
100
AcDbEntity
  8
HATCH
  6
Continuous
 62
     7
370
    30
100
AcDbLine
 10
27.025
 20
-4.603479
 30
0.0
 11
27.075
 21
-4.603479
 31
0.0
  0
LINE
  5
C8
330
4EA
100
AcDbEntity
  8
HATCH
  6
Continuous
 62
     7
370
    30
100
AcDbLine
 10
26.35
 20
-4.903479
 30
0.0
 11
26.35
 21
-4.878479
 31
0.0
  0
LINE
  5
C9
330
4EA
100
AcDbEntity
  8
HATCH
  6
Continuous
 62
     7
370
    30
100
AcDbLine
 10
26.35
 20
-4.728479
 30
0.0
 11
26.35
 21
-4.678479
 31
0.0
  0
LINE
  5
CA
330
4EA
100
AcDbEntity
  8
HATCH
  6
Continuous
 62
     7
370
    30
100
AcDbLine
 10
26.25
 20
-4.828479
 30
0.0
 11
26.25
 21
-4.778479
 31
0.0
  0
LINE
  5
CB
330
4EA
100
AcDbEntity
  8
HATCH
  6
Continuous
 62
     7
370
    30
100
AcDbLine
 10
26.25
 20
-4.628479
 30
0.0
 11
26.25
 21
-4.578479
 31
0.0
  0
LINE
  5
CC
330
4EA
100
AcDbEntity
  8
HATCH
  6
Continuous
 62
     7
370
    30
100
AcDbLine
 10
26.15
 20
-4.903479
 30
0.0
 11
26.15
 21
-4.878479
 31
0.0
  0
LINE
  5
CD
330
4EA
100
AcDbEntity
  8
HATCH
  6
Continuous
 62
     7
370
    30
100
AcDbLine
 10
26.15
 20
-4.728479
 30
0.0
 11
26.15
 21
-4.678479
 31
0.0
  0
POINT
  5
CE
330
4EA
100
AcDbEntity
  8
HATCH
  6
Continuous
 62
     7
370
    30
100
AcDbPoint
 10
26.15
 20
-4.528479
 30
0.0
  0
LINE
  5
CF
330
4EA
100
AcDbEntity
  8
HATCH
  6
Continuous
 62
     7
370
    30
100
AcDbLine
 10
26.05
 20
-4.828479
 30
0.0
 11
26.05
 21
-4.778479
 31
0.0
  0
LINE
  5
D0
330
4EA
100
AcDbEntity
  8
HATCH
  6
Continuous
 62
     7
370
    30
100
AcDbLine
 10
26.05
 20
-4.628479
 30
0.0
 11
26.05
 21
-4.578479
 31
0.0
  0
LINE
  5
D1
330
4EA
100
AcDbEntity
  8
HATCH
  6
Continuous
 62
     7
370
    30
100
AcDbLine
 10
25.95
 20
-4.903479
 30
0.0
 11
25.95
 21
-4.878479
 31
0.0
  0
LINE
  5
D2
330
4EA
100
AcDbEntity
  8
HATCH
  6
Continuous
 62
     7
370
    30
100
AcDbLine
 10
25.95
 20
-4.728479
 30
0.0
 11
25.95
 21
-4.678479
 31
0.0
  0
POINT
  5
D3
330
4EA
100
AcDbEntity
  8
HATCH
  6
Continuous
 62
     7
370
    30
100
AcDbPoint
 10
25.95
 20
-4.528479
 30
0.0
  0
LINE
  5
D4
330
4EA
100
AcDbEntity
  8
HATCH
  6
Continuous
 62
     7
370
    30
100
AcDbLine
 10
25.85
 20
-4.828479
 30
0.0
 11
25.85
 21
-4.778479
 31
0.0
  0
LINE
  5
D5
330
4EA
100
AcDbEntity
  8
HATCH
  6
Continuous
 62
     7
370
    30
100
AcDbLine
 10
25.85
 20
-4.628479
 30
0.0
 11
25.85
 21
-4.578479
 31
0.0
  0
LINE
  5
D6
330
4EA
100
AcDbEntity
  8
HATCH
  6
Continuous
 62
     7
370
    30
100
AcDbLine
 10
25.75
 20
-4.903479
 30
0.0
 11
25.75
 21
-4.878479
 31
0.0
  0
LINE
  5
D7
330
4EA
100
AcDbEntity
  8
HATCH
  6
Continuous
 62
     7
370
    30
100
AcDbLine
 10
25.75
 20
-4.728479
 30
0.0
 11
25.75
 21
-4.678479
 31
0.0
  0
LINE
  5
D8
330
4EA
100
AcDbEntity
  8
HATCH
  6
Continuous
 62
     7
370
    30
100
AcDbLine
 10
26.45
 20
-4.828479
 30
0.0
 11
26.45
 21
-4.778479
 31
0.0
  0
LINE
  5
D9
330
4EA
100
AcDbEntity
  8
HATCH
  6
Continuous
 62
     7
370
    30
100
AcDbLine
 10
26.45
 20
-4.628479
 30
0.0
 11
26.45
 21
-4.578479
 31
0.0
  0
LINE
  5
DA
330
4EA
100
AcDbEntity
  8
HATCH
  6
Continuous
 62
     7
370
    30
100
AcDbLine
 10
26.55
 20
-4.903479
 30
0.0
 11
26.55
 21
-4.878479
 31
0.0
  0
LINE
  5
DB
330
4EA
100
AcDbEntity
  8
HATCH
  6
Continuous
 62
     7
370
    30
100
AcDbLine
 10
26.55
 20
-4.728479
 30
0.0
 11
26.55
 21
-4.678479
 31
0.0
  0
POINT
  5
DC
330
4EA
100
AcDbEntity
  8
HATCH
  6
Continuous
 62
     7
370
    30
100
AcDbPoint
 10
26.55
 20
-4.528479
 30
0.0
  0
LINE
  5
DD
330
4EA
100
AcDbEntity
  8
HATCH
  6
Continuous
 62
     7
370
    30
100
AcDbLine
 10
26.65
 20
-4.828479
 30
0.0
 11
26.65
 21
-4.778479
 31
0.0
  0
LINE
  5
DE
330
4EA
100
AcDbEntity
  8
HATCH
  6
Continuous
 62
     7
370
    30
100
AcDbLine
 10
26.65
 20
-4.628479
 30
0.0
 11
26.65
 21
-4.578479
 31
0.0
  0
LINE
  5
DF
330
4EA
100
AcDbEntity
  8
HATCH
  6
Continuous
 62
     7
370
    30
100
AcDbLine
 10
26.75
 20
-4.903479
 30
0.0
 11
26.75
 21
-4.878479
 31
0.0
  0
LINE
  5
E0
330
4EA
100
AcDbEntity
  8
HATCH
  6
Continuous
 62
     7
370
    30
100
AcDbLine
 10
26.75
 20
-4.728479
 30
0.0
 11
26.75
 21
-4.678479
 31
0.0
  0
LINE
  5
E1
330
4EA
100
AcDbEntity
  8
HATCH
  6
Continuous
 62
     7
370
    30
100
AcDbLine
 10
26.85
 20
-4.828479
 30
0.0
 11
26.85
 21
-4.778479
 31
0.0
  0
LINE
  5
E2
330
4EA
100
AcDbEntity
  8
HATCH
  6
Continuous
 62
     7
370
    30
100
AcDbLine
 10
26.85
 20
-4.628479
 30
0.0
 11
26.85
 21
-4.578479
 31
0.0
  0
LINE
  5
E3
330
4EA
100
AcDbEntity
  8
HATCH
  6
Continuous
 62
     7
370
    30
100
AcDbLine
 10
26.95
 20
-4.903479
 30
0.0
 11
26.95
 21
-4.878479
 31
0.0
  0
LINE
  5
E4
330
4EA
100
AcDbEntity
  8
HATCH
  6
Continuous
 62
     7
370
    30
100
AcDbLine
 10
26.95
 20
-4.728479
 30
0.0
 11
26.95
 21
-4.678479
 31
0.0
  0
POINT
  5
E5
330
4EA
100
AcDbEntity
  8
HATCH
  6
Continuous
 62
     7
370
    30
100
AcDbPoint
 10
26.95
 20
-4.528479
 30
0.0
  0
LINE
  5
E6
330
4EA
100
AcDbEntity
  8
HATCH
  6
Continuous
 62
     7
370
    30
100
AcDbLine
 10
27.05
 20
-4.828479
 30
0.0
 11
27.05
 21
-4.778479
 31
0.0
  0
LINE
  5
E7
330
4EA
100
AcDbEntity
  8
HATCH
  6
Continuous
 62
     7
370
    30
100
AcDbLine
 10
27.05
 20
-4.628479
 30
0.0
 11
27.05
 21
-4.578479
 31
0.0
  0
LINE
  5
E8
330
4EA
100
AcDbEntity
  8
HATCH
  6
Continuous
 62
     7
370
    30
100
AcDbLine
 10
27.15
 20
-4.903479
 30
0.0
 11
27.15
 21
-4.878479
 31
0.0
  0
LINE
  5
E9
330
4EA
100
AcDbEntity
  8
HATCH
  6
Continuous
 62
     7
370
    30
100
AcDbLine
 10
27.15
 20
-4.728479
 30
0.0
 11
27.15
 21
-4.678479
 31
0.0
  0
POINT
  5
EA
330
4EA
100
AcDbEntity
  8
HATCH
  6
Continuous
 62
     7
370
    30
100
AcDbPoint
 10
27.15
 20
-4.528479
 30
0.0
  0
POINT
  5
EB
330
4EA
100
AcDbEntity
  8
HATCH
  6
Continuous
 62
     7
370
    30
100
AcDbPoint
 10
27.365625
 20
-4.672229
 30
0.0
  0
POINT
  5
EC
330
4EA
100
AcDbEntity
  8
HATCH
  6
Continuous
 62
     7
370
    30
100
AcDbPoint
 10
27.409375
 20
-4.672229
 30
0.0
  0
POINT
  5
ED
330
4EA
100
AcDbEntity
  8
HATCH
  6
Continuous
 62
     7
370
    30
100
AcDbPoint
 10
27.453125
 20
-4.672229
 30
0.0
  0
POINT
  5
EE
330
4EA
100
AcDbEntity
  8
HATCH
  6
Continuous
 62
     7
370
    30
100
AcDbPoint
 10
27.496875
 20
-4.672229
 30
0.0
  0
POINT
  5
EF
330
4EA
100
AcDbEntity
  8
HATCH
  6
Continuous
 62
     7
370
    30
100
AcDbPoint
 10
27.540625
 20
-4.672229
 30
0.0
  0
POINT
  5
F0
330
4EA
100
AcDbEntity
  8
HATCH
  6
Continuous
 62
     7
370
    30
100
AcDbPoint
 10
27.584375
 20
-4.672229
 30
0.0
  0
POINT
  5
F1
330
4EA
100
AcDbEntity
  8
HATCH
  6
Continuous
 62
     7
370
    30
100
AcDbPoint
 10
27.628125
 20
-4.672229
 30
0.0
  0
POINT
  5
F2
330
4EA
100
AcDbEntity
  8
HATCH
  6
Continuous
 62
     7
370
    30
100
AcDbPoint
 10
27.671875
 20
-4.672229
 30
0.0
  0
POINT
  5
F3
330
4EA
100
AcDbEntity
  8
HATCH
  6
Continuous
 62
     7
370
    30
100
AcDbPoint
 10
27.715625
 20
-4.672229
 30
0.0
  0
POINT
  5
F4
330
4EA
100
AcDbEntity
  8
HATCH
  6
Continuous
 62
     7
370
    30
100
AcDbPoint
 10
27.759375
 20
-4.672229
 30
0.0
  0
POINT
  5
F5
330
4EA
100
AcDbEntity
  8
HATCH
  6
Continuous
 62
     7
370
    30
100
AcDbPoint
 10
27.803125
 20
-4.672229
 30
0.0
  0
POINT
  5
F6
330
4EA
100
AcDbEntity
  8
HATCH
  6
Continuous
 62
     7
370
    30
100
AcDbPoint
 10
27.846875
 20
-4.672229
 30
0.0
  0
POINT
  5
F7
330
4EA
100
AcDbEntity
  8
HATCH
  6
Continuous
 62
     7
370
    30
100
AcDbPoint
 10
27.890625
 20
-4.672229
 30
0.0
  0
POINT
  5
F8
330
4EA
100
AcDbEntity
  8
HATCH
  6
Continuous
 62
     7
370
    30
100
AcDbPoint
 10
27.934375
 20
-4.672229
 30
0.0
  0
POINT
  5
F9
330
4EA
100
AcDbEntity
  8
HATCH
  6
Continuous
 62
     7
370
    30
100
AcDbPoint
 10
27.978125
 20
-4.672229
 30
0.0
  0
POINT
  5
FA
330
4EA
100
AcDbEntity
  8
HATCH
  6
Continuous
 62
     7
370
    30
100
AcDbPoint
 10
28.021875
 20
-4.672229
 30
0.0
  0
POINT
  5
FB
330
4EA
100
AcDbEntity
  8
HATCH
  6
Continuous
 62
     7
370
    30
100
AcDbPoint
 10
28.065625
 20
-4.672229
 30
0.0
  0
POINT
  5
FC
330
4EA
100
AcDbEntity
  8
HATCH
  6
Continuous
 62
     7
370
    30
100
AcDbPoint
 10
28.109375
 20
-4.672229
 30
0.0
  0
POINT
  5
FD
330
4EA
100
AcDbEntity
  8
HATCH
  6
Continuous
 62
     7
370
    30
100
AcDbPoint
 10
28.153125
 20
-4.672229
 30
0.0
  0
POINT
  5
FE
330
4EA
100
AcDbEntity
  8
HATCH
  6
Continuous
 62
     7
370
    30
100
AcDbPoint
 10
28.196875
 20
-4.672229
 30
0.0
  0
POINT
  5
FF
330
4EA
100
AcDbEntity
  8
HATCH
  6
Continuous
 62
     7
370
    30
100
AcDbPoint
 10
28.240625
 20
-4.672229
 30
0.0
  0
POINT
  5
100
330
4EA
100
AcDbEntity
  8
HATCH
  6
Continuous
 62
     7
370
    30
100
AcDbPoint
 10
28.284375
 20
-4.672229
 30
0.0
  0
POINT
  5
101
330
4EA
100
AcDbEntity
  8
HATCH
  6
Continuous
 62
     7
370
    30
100
AcDbPoint
 10
28.328125
 20
-4.672229
 30
0.0
  0
POINT
  5
102
330
4EA
100
AcDbEntity
  8
HATCH
  6
Continuous
 62
     7
370
    30
100
AcDbPoint
 10
28.371875
 20
-4.672229
 30
0.0
  0
POINT
  5
103
330
4EA
100
AcDbEntity
  8
HATCH
  6
Continuous
 62
     7
370
    30
100
AcDbPoint
 10
28.415625
 20
-4.672229
 30
0.0
  0
POINT
  5
104
330
4EA
100
AcDbEntity
  8
HATCH
  6
Continuous
 62
     7
370
    30
100
AcDbPoint
 10
28.459375
 20
-4.672229
 30
0.0
  0
POINT
  5
105
330
4EA
100
AcDbEntity
  8
HATCH
  6
Continuous
 62
     7
370
    30
100
AcDbPoint
 10
28.503125
 20
-4.672229
 30
0.0
  0
POINT
  5
106
330
4EA
100
AcDbEntity
  8
HATCH
  6
Continuous
 62
     7
370
    30
100
AcDbPoint
 10
28.546875
 20
-4.672229
 30
0.0
  0
POINT
  5
107
330
4EA
100
AcDbEntity
  8
HATCH
  6
Continuous
 62
     7
370
    30
100
AcDbPoint
 10
28.590625
 20
-4.672229
 30
0.0
  0
POINT
  5
108
330
4EA
100
AcDbEntity
  8
HATCH
  6
Continuous
 62
     7
370
    30
100
AcDbPoint
 10
28.634375
 20
-4.672229
 30
0.0
  0
POINT
  5
109
330
4EA
100
AcDbEntity
  8
HATCH
  6
Continuous
 62
     7
370
    30
100
AcDbPoint
 10
28.678125
 20
-4.672229
 30
0.0
  0
POINT
  5
10A
330
4EA
100
AcDbEntity
  8
HATCH
  6
Continuous
 62
     7
370
    30
100
AcDbPoint
 10
28.721875
 20
-4.672229
 30
0.0
  0
POINT
  5
10B
330
4EA
100
AcDbEntity
  8
HATCH
  6
Continuous
 62
     7
370
    30
100
AcDbPoint
 10
28.765625
 20
-4.672229
 30
0.0
  0
POINT
  5
10C
330
4EA
100
AcDbEntity
  8
HATCH
  6
Continuous
 62
     7
370
    30
100
AcDbPoint
 10
27.34375
 20
-4.628479
 30
0.0
  0
POINT
  5
10D
330
4EA
100
AcDbEntity
  8
HATCH
  6
Continuous
 62
     7
370
    30
100
AcDbPoint
 10
27.3875
 20
-4.628479
 30
0.0
  0
POINT
  5
10E
330
4EA
100
AcDbEntity
  8
HATCH
  6
Continuous
 62
     7
370
    30
100
AcDbPoint
 10
27.43125
 20
-4.628479
 30
0.0
  0
POINT
  5
10F
330
4EA
100
AcDbEntity
  8
HATCH
  6
Continuous
 62
     7
370
    30
100
AcDbPoint
 10
27.475
 20
-4.628479
 30
0.0
  0
POINT
  5
110
330
4EA
100
AcDbEntity
  8
HATCH
  6
Continuous
 62
     7
370
    30
100
AcDbPoint
 10
27.51875
 20
-4.628479
 30
0.0
  0
POINT
  5
111
330
4EA
100
AcDbEntity
  8
HATCH
  6
Continuous
 62
     7
370
    30
100
AcDbPoint
 10
27.5625
 20
-4.628479
 30
0.0
  0
POINT
  5
112
330
4EA
100
AcDbEntity
  8
HATCH
  6
Continuous
 62
     7
370
    30
100
AcDbPoint
 10
27.60625
 20
-4.628479
 30
0.0
  0
POINT
  5
113
330
4EA
100
AcDbEntity
  8
HATCH
  6
Continuous
 62
     7
370
    30
100
AcDbPoint
 10
27.65
 20
-4.628479
 30
0.0
  0
POINT
  5
114
330
4EA
100
AcDbEntity
  8
HATCH
  6
Continuous
 62
     7
370
    30
100
AcDbPoint
 10
27.69375
 20
-4.628479
 30
0.0
  0
POINT
  5
115
330
4EA
100
AcDbEntity
  8
HATCH
  6
Continuous
 62
     7
370
    30
100
AcDbPoint
 10
27.7375
 20
-4.628479
 30
0.0
  0
POINT
  5
116
330
4EA
100
AcDbEntity
  8
HATCH
  6
Continuous
 62
     7
370
    30
100
AcDbPoint
 10
27.78125
 20
-4.628479
 30
0.0
  0
POINT
  5
117
330
4EA
100
AcDbEntity
  8
HATCH
  6
Continuous
 62
     7
370
    30
100
AcDbPoint
 10
27.825
 20
-4.628479
 30
0.0
  0
POINT
  5
118
330
4EA
100
AcDbEntity
  8
HATCH
  6
Continuous
 62
     7
370
    30
100
AcDbPoint
 10
27.86875
 20
-4.628479
 30
0.0
  0
POINT
  5
119
330
4EA
100
AcDbEntity
  8
HATCH
  6
Continuous
 62
     7
370
    30
100
AcDbPoint
 10
27.9125
 20
-4.628479
 30
0.0
  0
POINT
  5
11A
330
4EA
100
AcDbEntity
  8
HATCH
  6
Continuous
 62
     7
370
    30
100
AcDbPoint
 10
27.95625
 20
-4.628479
 30
0.0
  0
POINT
  5
11B
330
4EA
100
AcDbEntity
  8
HATCH
  6
Continuous
 62
     7
370
    30
100
AcDbPoint
 10
28.0
 20
-4.628479
 30
0.0
  0
POINT
  5
11C
330
4EA
100
AcDbEntity
  8
HATCH
  6
Continuous
 62
     7
370
    30
100
AcDbPoint
 10
28.04375
 20
-4.628479
 30
0.0
  0
POINT
  5
11D
330
4EA
100
AcDbEntity
  8
HATCH
  6
Continuous
 62
     7
370
    30
100
AcDbPoint
 10
28.0875
 20
-4.628479
 30
0.0
  0
POINT
  5
11E
330
4EA
100
AcDbEntity
  8
HATCH
  6
Continuous
 62
     7
370
    30
100
AcDbPoint
 10
28.13125
 20
-4.628479
 30
0.0
  0
POINT
  5
11F
330
4EA
100
AcDbEntity
  8
HATCH
  6
Continuous
 62
     7
370
    30
100
AcDbPoint
 10
28.175
 20
-4.628479
 30
0.0
  0
POINT
  5
120
330
4EA
100
AcDbEntity
  8
HATCH
  6
Continuous
 62
     7
370
    30
100
AcDbPoint
 10
28.21875
 20
-4.628479
 30
0.0
  0
POINT
  5
121
330
4EA
100
AcDbEntity
  8
HATCH
  6
Continuous
 62
     7
370
    30
100
AcDbPoint
 10
28.2625
 20
-4.628479
 30
0.0
  0
POINT
  5
122
330
4EA
100
AcDbEntity
  8
HATCH
  6
Continuous
 62
     7
370
    30
100
AcDbPoint
 10
28.30625
 20
-4.628479
 30
0.0
  0
POINT
  5
123
330
4EA
100
AcDbEntity
  8
HATCH
  6
Continuous
 62
     7
370
    30
100
AcDbPoint
 10
28.35
 20
-4.628479
 30
0.0
  0
POINT
  5
124
330
4EA
100
AcDbEntity
  8
HATCH
  6
Continuous
 62
     7
370
    30
100
AcDbPoint
 10
28.39375
 20
-4.628479
 30
0.0
  0
POINT
  5
125
330
4EA
100
AcDbEntity
  8
HATCH
  6
Continuous
 62
     7
370
    30
100
AcDbPoint
 10
28.4375
 20
-4.628479
 30
0.0
  0
POINT
  5
126
330
4EA
100
AcDbEntity
  8
HATCH
  6
Continuous
 62
     7
370
    30
100
AcDbPoint
 10
28.48125
 20
-4.628479
 30
0.0
  0
POINT
  5
127
330
4EA
100
AcDbEntity
  8
HATCH
  6
Continuous
 62
     7
370
    30
100
AcDbPoint
 10
28.525
 20
-4.628479
 30
0.0
  0
POINT
  5
128
330
4EA
100
AcDbEntity
  8
HATCH
  6
Continuous
 62
     7
370
    30
100
AcDbPoint
 10
28.56875
 20
-4.628479
 30
0.0
  0
POINT
  5
129
330
4EA
100
AcDbEntity
  8
HATCH
  6
Continuous
 62
     7
370
    30
100
AcDbPoint
 10
28.6125
 20
-4.628479
 30
0.0
  0
POINT
  5
12A
330
4EA
100
AcDbEntity
  8
HATCH
  6
Continuous
 62
     7
370
    30
100
AcDbPoint
 10
28.65625
 20
-4.628479
 30
0.0
  0
POINT
  5
12B
330
4EA
100
AcDbEntity
  8
HATCH
  6
Continuous
 62
     7
370
    30
100
AcDbPoint
 10
28.7
 20
-4.628479
 30
0.0
  0
POINT
  5
12C
330
4EA
100
AcDbEntity
  8
HATCH
  6
Continuous
 62
     7
370
    30
100
AcDbPoint
 10
28.74375
 20
-4.628479
 30
0.0
  0
POINT
  5
12D
330
4EA
100
AcDbEntity
  8
HATCH
  6
Continuous
 62
     7
370
    30
100
AcDbPoint
 10
28.7875
 20
-4.628479
 30
0.0
  0
POINT
  5
12E
330
4EA
100
AcDbEntity
  8
HATCH
  6
Continuous
 62
     7
370
    30
100
AcDbPoint
 10
27.365625
 20
-4.584729
 30
0.0
  0
POINT
  5
12F
330
4EA
100
AcDbEntity
  8
HATCH
  6
Continuous
 62
     7
370
    30
100
AcDbPoint
 10
27.409375
 20
-4.584729
 30
0.0
  0
POINT
  5
130
330
4EA
100
AcDbEntity
  8
HATCH
  6
Continuous
 62
     7
370
    30
100
AcDbPoint
 10
27.453125
 20
-4.584729
 30
0.0
  0
POINT
  5
131
330
4EA
100
AcDbEntity
  8
HATCH
  6
Continuous
 62
     7
370
    30
100
AcDbPoint
 10
27.496875
 20
-4.584729
 30
0.0
  0
POINT
  5
132
330
4EA
100
AcDbEntity
  8
HATCH
  6
Continuous
 62
     7
370
    30
100
AcDbPoint
 10
27.540625
 20
-4.584729
 30
0.0
  0
POINT
  5
133
330
4EA
100
AcDbEntity
  8
HATCH
  6
Continuous
 62
     7
370
    30
100
AcDbPoint
 10
27.584375
 20
-4.584729
 30
0.0
  0
POINT
  5
134
330
4EA
100
AcDbEntity
  8
HATCH
  6
Continuous
 62
     7
370
    30
100
AcDbPoint
 10
27.628125
 20
-4.584729
 30
0.0
  0
POINT
  5
135
330
4EA
100
AcDbEntity
  8
HATCH
  6
Continuous
 62
     7
370
    30
100
AcDbPoint
 10
27.671875
 20
-4.584729
 30
0.0
  0
POINT
  5
136
330
4EA
100
AcDbEntity
  8
HATCH
  6
Continuous
 62
     7
370
    30
100
AcDbPoint
 10
27.715625
 20
-4.584729
 30
0.0
  0
POINT
  5
137
330
4EA
100
AcDbEntity
  8
HATCH
  6
Continuous
 62
     7
370
    30
100
AcDbPoint
 10
27.759375
 20
-4.584729
 30
0.0
  0
POINT
  5
138
330
4EA
100
AcDbEntity
  8
HATCH
  6
Continuous
 62
     7
370
    30
100
AcDbPoint
 10
27.803125
 20
-4.584729
 30
0.0
  0
POINT
  5
139
330
4EA
100
AcDbEntity
  8
HATCH
  6
Continuous
 62
     7
370
    30
100
AcDbPoint
 10
27.846875
 20
-4.584729
 30
0.0
  0
POINT
  5
13A
330
4EA
100
AcDbEntity
  8
HATCH
  6
Continuous
 62
     7
370
    30
100
AcDbPoint
 10
27.890625
 20
-4.584729
 30
0.0
  0
POINT
  5
13B
330
4EA
100
AcDbEntity
  8
HATCH
  6
Continuous
 62
     7
370
    30
100
AcDbPoint
 10
27.934375
 20
-4.584729
 30
0.0
  0
POINT
  5
13C
330
4EA
100
AcDbEntity
  8
HATCH
  6
Continuous
 62
     7
370
    30
100
AcDbPoint
 10
27.978125
 20
-4.584729
 30
0.0
  0
POINT
  5
13D
330
4EA
100
AcDbEntity
  8
HATCH
  6
Continuous
 62
     7
370
    30
100
AcDbPoint
 10
28.021875
 20
-4.584729
 30
0.0
  0
POINT
  5
13E
330
4EA
100
AcDbEntity
  8
HATCH
  6
Continuous
 62
     7
370
    30
100
AcDbPoint
 10
28.065625
 20
-4.584729
 30
0.0
  0
POINT
  5
13F
330
4EA
100
AcDbEntity
  8
HATCH
  6
Continuous
 62
     7
370
    30
100
AcDbPoint
 10
28.109375
 20
-4.584729
 30
0.0
  0
POINT
  5
140
330
4EA
100
AcDbEntity
  8
HATCH
  6
Continuous
 62
     7
370
    30
100
AcDbPoint
 10
28.153125
 20
-4.584729
 30
0.0
  0
POINT
  5
141
330
4EA
100
AcDbEntity
  8
HATCH
  6
Continuous
 62
     7
370
    30
100
AcDbPoint
 10
28.196875
 20
-4.584729
 30
0.0
  0
POINT
  5
142
330
4EA
100
AcDbEntity
  8
HATCH
  6
Continuous
 62
     7
370
    30
100
AcDbPoint
 10
28.240625
 20
-4.584729
 30
0.0
  0
POINT
  5
143
330
4EA
100
AcDbEntity
  8
HATCH
  6
Continuous
 62
     7
370
    30
100
AcDbPoint
 10
28.284375
 20
-4.584729
 30
0.0
  0
POINT
  5
144
330
4EA
100
AcDbEntity
  8
HATCH
  6
Continuous
 62
     7
370
    30
100
AcDbPoint
 10
28.328125
 20
-4.584729
 30
0.0
  0
POINT
  5
145
330
4EA
100
AcDbEntity
  8
HATCH
  6
Continuous
 62
     7
370
    30
100
AcDbPoint
 10
28.371875
 20
-4.584729
 30
0.0
  0
POINT
  5
146
330
4EA
100
AcDbEntity
  8
HATCH
  6
Continuous
 62
     7
370
    30
100
AcDbPoint
 10
28.415625
 20
-4.584729
 30
0.0
  0
POINT
  5
147
330
4EA
100
AcDbEntity
  8
HATCH
  6
Continuous
 62
     7
370
    30
100
AcDbPoint
 10
28.459375
 20
-4.584729
 30
0.0
  0
POINT
  5
148
330
4EA
100
AcDbEntity
  8
HATCH
  6
Continuous
 62
     7
370
    30
100
AcDbPoint
 10
28.503125
 20
-4.584729
 30
0.0
  0
POINT
  5
149
330
4EA
100
AcDbEntity
  8
HATCH
  6
Continuous
 62
     7
370
    30
100
AcDbPoint
 10
28.546875
 20
-4.584729
 30
0.0
  0
POINT
  5
14A
330
4EA
100
AcDbEntity
  8
HATCH
  6
Continuous
 62
     7
370
    30
100
AcDbPoint
 10
28.590625
 20
-4.584729
 30
0.0
  0
POINT
  5
14B
330
4EA
100
AcDbEntity
  8
HATCH
  6
Continuous
 62
     7
370
    30
100
AcDbPoint
 10
28.634375
 20
-4.584729
 30
0.0
  0
POINT
  5
14C
330
4EA
100
AcDbEntity
  8
HATCH
  6
Continuous
 62
     7
370
    30
100
AcDbPoint
 10
28.678125
 20
-4.584729
 30
0.0
  0
POINT
  5
14D
330
4EA
100
AcDbEntity
  8
HATCH
  6
Continuous
 62
     7
370
    30
100
AcDbPoint
 10
28.721875
 20
-4.584729
 30
0.0
  0
POINT
  5
14E
330
4EA
100
AcDbEntity
  8
HATCH
  6
Continuous
 62
     7
370
    30
100
AcDbPoint
 10
28.765625
 20
-4.584729
 30
0.0
  0
POINT
  5
14F
330
4EA
100
AcDbEntity
  8
HATCH
  6
Continuous
 62
     7
370
    30
100
AcDbPoint
 10
27.34375
 20
-4.540979
 30
0.0
  0
POINT
  5
150
330
4EA
100
AcDbEntity
  8
HATCH
  6
Continuous
 62
     7
370
    30
100
AcDbPoint
 10
27.3875
 20
-4.540979
 30
0.0
  0
POINT
  5
151
330
4EA
100
AcDbEntity
  8
HATCH
  6
Continuous
 62
     7
370
    30
100
AcDbPoint
 10
27.43125
 20
-4.540979
 30
0.0
  0
POINT
  5
152
330
4EA
100
AcDbEntity
  8
HATCH
  6
Continuous
 62
     7
370
    30
100
AcDbPoint
 10
27.475
 20
-4.540979
 30
0.0
  0
POINT
  5
153
330
4EA
100
AcDbEntity
  8
HATCH
  6
Continuous
 62
     7
370
    30
100
AcDbPoint
 10
27.51875
 20
-4.540979
 30
0.0
  0
POINT
  5
154
330
4EA
100
AcDbEntity
  8
HATCH
  6
Continuous
 62
     7
370
    30
100
AcDbPoint
 10
27.5625
 20
-4.540979
 30
0.0
  0
POINT
  5
155
330
4EA
100
AcDbEntity
  8
HATCH
  6
Continuous
 62
     7
370
    30
100
AcDbPoint
 10
27.60625
 20
-4.540979
 30
0.0
  0
POINT
  5
156
330
4EA
100
AcDbEntity
  8
HATCH
  6
Continuous
 62
     7
370
    30
100
AcDbPoint
 10
27.65
 20
-4.540979
 30
0.0
  0
POINT
  5
157
330
4EA
100
AcDbEntity
  8
HATCH
  6
Continuous
 62
     7
370
    30
100
AcDbPoint
 10
27.69375
 20
-4.540979
 30
0.0
  0
POINT
  5
158
330
4EA
100
AcDbEntity
  8
HATCH
  6
Continuous
 62
     7
370
    30
100
AcDbPoint
 10
27.7375
 20
-4.540979
 30
0.0
  0
POINT
  5
159
330
4EA
100
AcDbEntity
  8
HATCH
  6
Continuous
 62
     7
370
    30
100
AcDbPoint
 10
27.78125
 20
-4.540979
 30
0.0
  0
POINT
  5
15A
330
4EA
100
AcDbEntity
  8
HATCH
  6
Continuous
 62
     7
370
    30
100
AcDbPoint
 10
27.825
 20
-4.540979
 30
0.0
  0
POINT
  5
15B
330
4EA
100
AcDbEntity
  8
HATCH
  6
Continuous
 62
     7
370
    30
100
AcDbPoint
 10
27.86875
 20
-4.540979
 30
0.0
  0
POINT
  5
15C
330
4EA
100
AcDbEntity
  8
HATCH
  6
Continuous
 62
     7
370
    30
100
AcDbPoint
 10
27.9125
 20
-4.540979
 30
0.0
  0
POINT
  5
15D
330
4EA
100
AcDbEntity
  8
HATCH
  6
Continuous
 62
     7
370
    30
100
AcDbPoint
 10
27.95625
 20
-4.540979
 30
0.0
  0
POINT
  5
15E
330
4EA
100
AcDbEntity
  8
HATCH
  6
Continuous
 62
     7
370
    30
100
AcDbPoint
 10
28.0
 20
-4.540979
 30
0.0
  0
POINT
  5
15F
330
4EA
100
AcDbEntity
  8
HATCH
  6
Continuous
 62
     7
370
    30
100
AcDbPoint
 10
28.04375
 20
-4.540979
 30
0.0
  0
POINT
  5
160
330
4EA
100
AcDbEntity
  8
HATCH
  6
Continuous
 62
     7
370
    30
100
AcDbPoint
 10
28.0875
 20
-4.540979
 30
0.0
  0
POINT
  5
161
330
4EA
100
AcDbEntity
  8
HATCH
  6
Continuous
 62
     7
370
    30
100
AcDbPoint
 10
28.13125
 20
-4.540979
 30
0.0
  0
POINT
  5
162
330
4EA
100
AcDbEntity
  8
HATCH
  6
Continuous
 62
     7
370
    30
100
AcDbPoint
 10
28.175
 20
-4.540979
 30
0.0
  0
POINT
  5
163
330
4EA
100
AcDbEntity
  8
HATCH
  6
Continuous
 62
     7
370
    30
100
AcDbPoint
 10
28.21875
 20
-4.540979
 30
0.0
  0
POINT
  5
164
330
4EA
100
AcDbEntity
  8
HATCH
  6
Continuous
 62
     7
370
    30
100
AcDbPoint
 10
28.2625
 20
-4.540979
 30
0.0
  0
POINT
  5
165
330
4EA
100
AcDbEntity
  8
HATCH
  6
Continuous
 62
     7
370
    30
100
AcDbPoint
 10
28.30625
 20
-4.540979
 30
0.0
  0
POINT
  5
166
330
4EA
100
AcDbEntity
  8
HATCH
  6
Continuous
 62
     7
370
    30
100
AcDbPoint
 10
28.35
 20
-4.540979
 30
0.0
  0
POINT
  5
167
330
4EA
100
AcDbEntity
  8
HATCH
  6
Continuous
 62
     7
370
    30
100
AcDbPoint
 10
28.39375
 20
-4.540979
 30
0.0
  0
POINT
  5
168
330
4EA
100
AcDbEntity
  8
HATCH
  6
Continuous
 62
     7
370
    30
100
AcDbPoint
 10
28.4375
 20
-4.540979
 30
0.0
  0
POINT
  5
169
330
4EA
100
AcDbEntity
  8
HATCH
  6
Continuous
 62
     7
370
    30
100
AcDbPoint
 10
28.48125
 20
-4.540979
 30
0.0
  0
POINT
  5
16A
330
4EA
100
AcDbEntity
  8
HATCH
  6
Continuous
 62
     7
370
    30
100
AcDbPoint
 10
28.525
 20
-4.540979
 30
0.0
  0
POINT
  5
16B
330
4EA
100
AcDbEntity
  8
HATCH
  6
Continuous
 62
     7
370
    30
100
AcDbPoint
 10
28.56875
 20
-4.540979
 30
0.0
  0
POINT
  5
16C
330
4EA
100
AcDbEntity
  8
HATCH
  6
Continuous
 62
     7
370
    30
100
AcDbPoint
 10
28.6125
 20
-4.540979
 30
0.0
  0
POINT
  5
16D
330
4EA
100
AcDbEntity
  8
HATCH
  6
Continuous
 62
     7
370
    30
100
AcDbPoint
 10
28.65625
 20
-4.540979
 30
0.0
  0
POINT
  5
16E
330
4EA
100
AcDbEntity
  8
HATCH
  6
Continuous
 62
     7
370
    30
100
AcDbPoint
 10
28.7
 20
-4.540979
 30
0.0
  0
POINT
  5
16F
330
4EA
100
AcDbEntity
  8
HATCH
  6
Continuous
 62
     7
370
    30
100
AcDbPoint
 10
28.74375
 20
-4.540979
 30
0.0
  0
POINT
  5
170
330
4EA
100
AcDbEntity
  8
HATCH
  6
Continuous
 62
     7
370
    30
100
AcDbPoint
 10
28.7875
 20
-4.540979
 30
0.0
  0
POINT
  5
171
330
4EA
100
AcDbEntity
  8
HATCH
  6
Continuous
 62
     7
370
    30
100
AcDbPoint
 10
27.365625
 20
-4.497229
 30
0.0
  0
POINT
  5
172
330
4EA
100
AcDbEntity
  8
HATCH
  6
Continuous
 62
     7
370
    30
100
AcDbPoint
 10
27.409375
 20
-4.497229
 30
0.0
  0
POINT
  5
173
330
4EA
100
AcDbEntity
  8
HATCH
  6
Continuous
 62
     7
370
    30
100
AcDbPoint
 10
27.453125
 20
-4.497229
 30
0.0
  0
POINT
  5
174
330
4EA
100
AcDbEntity
  8
HATCH
  6
Continuous
 62
     7
370
    30
100
AcDbPoint
 10
27.496875
 20
-4.497229
 30
0.0
  0
POINT
  5
175
330
4EA
100
AcDbEntity
  8
HATCH
  6
Continuous
 62
     7
370
    30
100
AcDbPoint
 10
27.540625
 20
-4.497229
 30
0.0
  0
POINT
  5
176
330
4EA
100
AcDbEntity
  8
HATCH
  6
Continuous
 62
     7
370
    30
100
AcDbPoint
 10
27.584375
 20
-4.497229
 30
0.0
  0
POINT
  5
177
330
4EA
100
AcDbEntity
  8
HATCH
  6
Continuous
 62
     7
370
    30
100
AcDbPoint
 10
27.628125
 20
-4.497229
 30
0.0
  0
POINT
  5
178
330
4EA
100
AcDbEntity
  8
HATCH
  6
Continuous
 62
     7
370
    30
100
AcDbPoint
 10
27.671875
 20
-4.497229
 30
0.0
  0
POINT
  5
179
330
4EA
100
AcDbEntity
  8
HATCH
  6
Continuous
 62
     7
370
    30
100
AcDbPoint
 10
27.715625
 20
-4.497229
 30
0.0
  0
POINT
  5
17A
330
4EA
100
AcDbEntity
  8
HATCH
  6
Continuous
 62
     7
370
    30
100
AcDbPoint
 10
27.759375
 20
-4.497229
 30
0.0
  0
POINT
  5
17B
330
4EA
100
AcDbEntity
  8
HATCH
  6
Continuous
 62
     7
370
    30
100
AcDbPoint
 10
27.803125
 20
-4.497229
 30
0.0
  0
POINT
  5
17C
330
4EA
100
AcDbEntity
  8
HATCH
  6
Continuous
 62
     7
370
    30
100
AcDbPoint
 10
27.846875
 20
-4.497229
 30
0.0
  0
POINT
  5
17D
330
4EA
100
AcDbEntity
  8
HATCH
  6
Continuous
 62
     7
370
    30
100
AcDbPoint
 10
27.890625
 20
-4.497229
 30
0.0
  0
POINT
  5
17E
330
4EA
100
AcDbEntity
  8
HATCH
  6
Continuous
 62
     7
370
    30
100
AcDbPoint
 10
27.934375
 20
-4.497229
 30
0.0
  0
POINT
  5
17F
330
4EA
100
AcDbEntity
  8
HATCH
  6
Continuous
 62
     7
370
    30
100
AcDbPoint
 10
27.978125
 20
-4.497229
 30
0.0
  0
POINT
  5
180
330
4EA
100
AcDbEntity
  8
HATCH
  6
Continuous
 62
     7
370
    30
100
AcDbPoint
 10
28.021875
 20
-4.497229
 30
0.0
  0
POINT
  5
181
330
4EA
100
AcDbEntity
  8
HATCH
  6
Continuous
 62
     7
370
    30
100
AcDbPoint
 10
28.065625
 20
-4.497229
 30
0.0
  0
POINT
  5
182
330
4EA
100
AcDbEntity
  8
HATCH
  6
Continuous
 62
     7
370
    30
100
AcDbPoint
 10
28.109375
 20
-4.497229
 30
0.0
  0
POINT
  5
183
330
4EA
100
AcDbEntity
  8
HATCH
  6
Continuous
 62
     7
370
    30
100
AcDbPoint
 10
28.153125
 20
-4.497229
 30
0.0
  0
POINT
  5
184
330
4EA
100
AcDbEntity
  8
HATCH
  6
Continuous
 62
     7
370
    30
100
AcDbPoint
 10
28.196875
 20
-4.497229
 30
0.0
  0
POINT
  5
185
330
4EA
100
AcDbEntity
  8
HATCH
  6
Continuous
 62
     7
370
    30
100
AcDbPoint
 10
28.240625
 20
-4.497229
 30
0.0
  0
POINT
  5
186
330
4EA
100
AcDbEntity
  8
HATCH
  6
Continuous
 62
     7
370
    30
100
AcDbPoint
 10
28.284375
 20
-4.497229
 30
0.0
  0
POINT
  5
187
330
4EA
100
AcDbEntity
  8
HATCH
  6
Continuous
 62
     7
370
    30
100
AcDbPoint
 10
28.328125
 20
-4.497229
 30
0.0
  0
POINT
  5
188
330
4EA
100
AcDbEntity
  8
HATCH
  6
Continuous
 62
     7
370
    30
100
AcDbPoint
 10
28.371875
 20
-4.497229
 30
0.0
  0
POINT
  5
189
330
4EA
100
AcDbEntity
  8
HATCH
  6
Continuous
 62
     7
370
    30
100
AcDbPoint
 10
28.415625
 20
-4.497229
 30
0.0
  0
POINT
  5
18A
330
4EA
100
AcDbEntity
  8
HATCH
  6
Continuous
 62
     7
370
    30
100
AcDbPoint
 10
28.459375
 20
-4.497229
 30
0.0
  0
POINT
  5
18B
330
4EA
100
AcDbEntity
  8
HATCH
  6
Continuous
 62
     7
370
    30
100
AcDbPoint
 10
28.503125
 20
-4.497229
 30
0.0
  0
POINT
  5
18C
330
4EA
100
AcDbEntity
  8
HATCH
  6
Continuous
 62
     7
370
    30
100
AcDbPoint
 10
28.546875
 20
-4.497229
 30
0.0
  0
POINT
  5
18D
330
4EA
100
AcDbEntity
  8
HATCH
  6
Continuous
 62
     7
370
    30
100
AcDbPoint
 10
28.590625
 20
-4.497229
 30
0.0
  0
POINT
  5
18E
330
4EA
100
AcDbEntity
  8
HATCH
  6
Continuous
 62
     7
370
    30
100
AcDbPoint
 10
28.634375
 20
-4.497229
 30
0.0
  0
POINT
  5
18F
330
4EA
100
AcDbEntity
  8
HATCH
  6
Continuous
 62
     7
370
    30
100
AcDbPoint
 10
28.678125
 20
-4.497229
 30
0.0
  0
POINT
  5
190
330
4EA
100
AcDbEntity
  8
HATCH
  6
Continuous
 62
     7
370
    30
100
AcDbPoint
 10
28.721875
 20
-4.497229
 30
0.0
  0
POINT
  5
191
330
4EA
100
AcDbEntity
  8
HATCH
  6
Continuous
 62
     7
370
    30
100
AcDbPoint
 10
28.765625
 20
-4.497229
 30
0.0
  0
POINT
  5
192
330
4EA
100
AcDbEntity
  8
HATCH
  6
Continuous
 62
     7
370
    30
100
AcDbPoint
 10
27.34375
 20
-4.453479
 30
0.0
  0
POINT
  5
193
330
4EA
100
AcDbEntity
  8
HATCH
  6
Continuous
 62
     7
370
    30
100
AcDbPoint
 10
27.3875
 20
-4.453479
 30
0.0
  0
POINT
  5
194
330
4EA
100
AcDbEntity
  8
HATCH
  6
Continuous
 62
     7
370
    30
100
AcDbPoint
 10
27.43125
 20
-4.453479
 30
0.0
  0
POINT
  5
195
330
4EA
100
AcDbEntity
  8
HATCH
  6
Continuous
 62
     7
370
    30
100
AcDbPoint
 10
27.475
 20
-4.453479
 30
0.0
  0
POINT
  5
196
330
4EA
100
AcDbEntity
  8
HATCH
  6
Continuous
 62
     7
370
    30
100
AcDbPoint
 10
27.51875
 20
-4.453479
 30
0.0
  0
POINT
  5
197
330
4EA
100
AcDbEntity
  8
HATCH
  6
Continuous
 62
     7
370
    30
100
AcDbPoint
 10
27.5625
 20
-4.453479
 30
0.0
  0
POINT
  5
198
330
4EA
100
AcDbEntity
  8
HATCH
  6
Continuous
 62
     7
370
    30
100
AcDbPoint
 10
27.60625
 20
-4.453479
 30
0.0
  0
POINT
  5
199
330
4EA
100
AcDbEntity
  8
HATCH
  6
Continuous
 62
     7
370
    30
100
AcDbPoint
 10
27.65
 20
-4.453479
 30
0.0
  0
POINT
  5
19A
330
4EA
100
AcDbEntity
  8
HATCH
  6
Continuous
 62
     7
370
    30
100
AcDbPoint
 10
27.69375
 20
-4.453479
 30
0.0
  0
POINT
  5
19B
330
4EA
100
AcDbEntity
  8
HATCH
  6
Continuous
 62
     7
370
    30
100
AcDbPoint
 10
27.7375
 20
-4.453479
 30
0.0
  0
POINT
  5
19C
330
4EA
100
AcDbEntity
  8
HATCH
  6
Continuous
 62
     7
370
    30
100
AcDbPoint
 10
27.78125
 20
-4.453479
 30
0.0
  0
POINT
  5
19D
330
4EA
100
AcDbEntity
  8
HATCH
  6
Continuous
 62
     7
370
    30
100
AcDbPoint
 10
27.825
 20
-4.453479
 30
0.0
  0
POINT
  5
19E
330
4EA
100
AcDbEntity
  8
HATCH
  6
Continuous
 62
     7
370
    30
100
AcDbPoint
 10
27.86875
 20
-4.453479
 30
0.0
  0
POINT
  5
19F
330
4EA
100
AcDbEntity
  8
HATCH
  6
Continuous
 62
     7
370
    30
100
AcDbPoint
 10
27.9125
 20
-4.453479
 30
0.0
  0
POINT
  5
1A0
330
4EA
100
AcDbEntity
  8
HATCH
  6
Continuous
 62
     7
370
    30
100
AcDbPoint
 10
27.95625
 20
-4.453479
 30
0.0
  0
POINT
  5
1A1
330
4EA
100
AcDbEntity
  8
HATCH
  6
Continuous
 62
     7
370
    30
100
AcDbPoint
 10
28.0
 20
-4.453479
 30
0.0
  0
POINT
  5
1A2
330
4EA
100
AcDbEntity
  8
HATCH
  6
Continuous
 62
     7
370
    30
100
AcDbPoint
 10
28.04375
 20
-4.453479
 30
0.0
  0
POINT
  5
1A3
330
4EA
100
AcDbEntity
  8
HATCH
  6
Continuous
 62
     7
370
    30
100
AcDbPoint
 10
28.0875
 20
-4.453479
 30
0.0
  0
POINT
  5
1A4
330
4EA
100
AcDbEntity
  8
HATCH
  6
Continuous
 62
     7
370
    30
100
AcDbPoint
 10
28.13125
 20
-4.453479
 30
0.0
  0
POINT
  5
1A5
330
4EA
100
AcDbEntity
  8
HATCH
  6
Continuous
 62
     7
370
    30
100
AcDbPoint
 10
28.175
 20
-4.453479
 30
0.0
  0
POINT
  5
1A6
330
4EA
100
AcDbEntity
  8
HATCH
  6
Continuous
 62
     7
370
    30
100
AcDbPoint
 10
28.21875
 20
-4.453479
 30
0.0
  0
POINT
  5
1A7
330
4EA
100
AcDbEntity
  8
HATCH
  6
Continuous
 62
     7
370
    30
100
AcDbPoint
 10
28.2625
 20
-4.453479
 30
0.0
  0
POINT
  5
1A8
330
4EA
100
AcDbEntity
  8
HATCH
  6
Continuous
 62
     7
370
    30
100
AcDbPoint
 10
28.30625
 20
-4.453479
 30
0.0
  0
POINT
  5
1A9
330
4EA
100
AcDbEntity
  8
HATCH
  6
Continuous
 62
     7
370
    30
100
AcDbPoint
 10
28.35
 20
-4.453479
 30
0.0
  0
POINT
  5
1AA
330
4EA
100
AcDbEntity
  8
HATCH
  6
Continuous
 62
     7
370
    30
100
AcDbPoint
 10
28.39375
 20
-4.453479
 30
0.0
  0
POINT
  5
1AB
330
4EA
100
AcDbEntity
  8
HATCH
  6
Continuous
 62
     7
370
    30
100
AcDbPoint
 10
28.4375
 20
-4.453479
 30
0.0
  0
POINT
  5
1AC
330
4EA
100
AcDbEntity
  8
HATCH
  6
Continuous
 62
     7
370
    30
100
AcDbPoint
 10
28.48125
 20
-4.453479
 30
0.0
  0
POINT
  5
1AD
330
4EA
100
AcDbEntity
  8
HATCH
  6
Continuous
 62
     7
370
    30
100
AcDbPoint
 10
28.525
 20
-4.453479
 30
0.0
  0
POINT
  5
1AE
330
4EA
100
AcDbEntity
  8
HATCH
  6
Continuous
 62
     7
370
    30
100
AcDbPoint
 10
28.56875
 20
-4.453479
 30
0.0
  0
POINT
  5
1AF
330
4EA
100
AcDbEntity
  8
HATCH
  6
Continuous
 62
     7
370
    30
100
AcDbPoint
 10
28.6125
 20
-4.453479
 30
0.0
  0
POINT
  5
1B0
330
4EA
100
AcDbEntity
  8
HATCH
  6
Continuous
 62
     7
370
    30
100
AcDbPoint
 10
28.65625
 20
-4.453479
 30
0.0
  0
POINT
  5
1B1
330
4EA
100
AcDbEntity
  8
HATCH
  6
Continuous
 62
     7
370
    30
100
AcDbPoint
 10
28.7
 20
-4.453479
 30
0.0
  0
POINT
  5
1B2
330
4EA
100
AcDbEntity
  8
HATCH
  6
Continuous
 62
     7
370
    30
100
AcDbPoint
 10
28.74375
 20
-4.453479
 30
0.0
  0
POINT
  5
1B3
330
4EA
100
AcDbEntity
  8
HATCH
  6
Continuous
 62
     7
370
    30
100
AcDbPoint
 10
28.7875
 20
-4.453479
 30
0.0
  0
POINT
  5
1B4
330
4EA
100
AcDbEntity
  8
HATCH
  6
Continuous
 62
     7
370
    30
100
AcDbPoint
 10
27.365625
 20
-4.409729
 30
0.0
  0
POINT
  5
1B5
330
4EA
100
AcDbEntity
  8
HATCH
  6
Continuous
 62
     7
370
    30
100
AcDbPoint
 10
27.409375
 20
-4.409729
 30
0.0
  0
POINT
  5
1B6
330
4EA
100
AcDbEntity
  8
HATCH
  6
Continuous
 62
     7
370
    30
100
AcDbPoint
 10
27.453125
 20
-4.409729
 30
0.0
  0
POINT
  5
1B7
330
4EA
100
AcDbEntity
  8
HATCH
  6
Continuous
 62
     7
370
    30
100
AcDbPoint
 10
27.496875
 20
-4.409729
 30
0.0
  0
POINT
  5
1B8
330
4EA
100
AcDbEntity
  8
HATCH
  6
Continuous
 62
     7
370
    30
100
AcDbPoint
 10
27.540625
 20
-4.409729
 30
0.0
  0
POINT
  5
1B9
330
4EA
100
AcDbEntity
  8
HATCH
  6
Continuous
 62
     7
370
    30
100
AcDbPoint
 10
27.584375
 20
-4.409729
 30
0.0
  0
POINT
  5
1BA
330
4EA
100
AcDbEntity
  8
HATCH
  6
Continuous
 62
     7
370
    30
100
AcDbPoint
 10
27.628125
 20
-4.409729
 30
0.0
  0
POINT
  5
1BB
330
4EA
100
AcDbEntity
  8
HATCH
  6
Continuous
 62
     7
370
    30
100
AcDbPoint
 10
27.671875
 20
-4.409729
 30
0.0
  0
POINT
  5
1BC
330
4EA
100
AcDbEntity
  8
HATCH
  6
Continuous
 62
     7
370
    30
100
AcDbPoint
 10
27.715625
 20
-4.409729
 30
0.0
  0
POINT
  5
1BD
330
4EA
100
AcDbEntity
  8
HATCH
  6
Continuous
 62
     7
370
    30
100
AcDbPoint
 10
27.759375
 20
-4.409729
 30
0.0
  0
POINT
  5
1BE
330
4EA
100
AcDbEntity
  8
HATCH
  6
Continuous
 62
     7
370
    30
100
AcDbPoint
 10
27.803125
 20
-4.409729
 30
0.0
  0
POINT
  5
1BF
330
4EA
100
AcDbEntity
  8
HATCH
  6
Continuous
 62
     7
370
    30
100
AcDbPoint
 10
27.846875
 20
-4.409729
 30
0.0
  0
POINT
  5
1C0
330
4EA
100
AcDbEntity
  8
HATCH
  6
Continuous
 62
     7
370
    30
100
AcDbPoint
 10
27.890625
 20
-4.409729
 30
0.0
  0
POINT
  5
1C1
330
4EA
100
AcDbEntity
  8
HATCH
  6
Continuous
 62
     7
370
    30
100
AcDbPoint
 10
27.934375
 20
-4.409729
 30
0.0
  0
POINT
  5
1C2
330
4EA
100
AcDbEntity
  8
HATCH
  6
Continuous
 62
     7
370
    30
100
AcDbPoint
 10
27.978125
 20
-4.409729
 30
0.0
  0
POINT
  5
1C3
330
4EA
100
AcDbEntity
  8
HATCH
  6
Continuous
 62
     7
370
    30
100
AcDbPoint
 10
28.021875
 20
-4.409729
 30
0.0
  0
POINT
  5
1C4
330
4EA
100
AcDbEntity
  8
HATCH
  6
Continuous
 62
     7
370
    30
100
AcDbPoint
 10
28.065625
 20
-4.409729
 30
0.0
  0
POINT
  5
1C5
330
4EA
100
AcDbEntity
  8
HATCH
  6
Continuous
 62
     7
370
    30
100
AcDbPoint
 10
28.109375
 20
-4.409729
 30
0.0
  0
POINT
  5
1C6
330
4EA
100
AcDbEntity
  8
HATCH
  6
Continuous
 62
     7
370
    30
100
AcDbPoint
 10
28.153125
 20
-4.409729
 30
0.0
  0
POINT
  5
1C7
330
4EA
100
AcDbEntity
  8
HATCH
  6
Continuous
 62
     7
370
    30
100
AcDbPoint
 10
28.196875
 20
-4.409729
 30
0.0
  0
POINT
  5
1C8
330
4EA
100
AcDbEntity
  8
HATCH
  6
Continuous
 62
     7
370
    30
100
AcDbPoint
 10
28.240625
 20
-4.409729
 30
0.0
  0
POINT
  5
1C9
330
4EA
100
AcDbEntity
  8
HATCH
  6
Continuous
 62
     7
370
    30
100
AcDbPoint
 10
28.284375
 20
-4.409729
 30
0.0
  0
POINT
  5
1CA
330
4EA
100
AcDbEntity
  8
HATCH
  6
Continuous
 62
     7
370
    30
100
AcDbPoint
 10
28.328125
 20
-4.409729
 30
0.0
  0
POINT
  5
1CB
330
4EA
100
AcDbEntity
  8
HATCH
  6
Continuous
 62
     7
370
    30
100
AcDbPoint
 10
28.371875
 20
-4.409729
 30
0.0
  0
POINT
  5
1CC
330
4EA
100
AcDbEntity
  8
HATCH
  6
Continuous
 62
     7
370
    30
100
AcDbPoint
 10
28.415625
 20
-4.409729
 30
0.0
  0
POINT
  5
1CD
330
4EA
100
AcDbEntity
  8
HATCH
  6
Continuous
 62
     7
370
    30
100
AcDbPoint
 10
28.459375
 20
-4.409729
 30
0.0
  0
POINT
  5
1CE
330
4EA
100
AcDbEntity
  8
HATCH
  6
Continuous
 62
     7
370
    30
100
AcDbPoint
 10
28.503125
 20
-4.409729
 30
0.0
  0
POINT
  5
1CF
330
4EA
100
AcDbEntity
  8
HATCH
  6
Continuous
 62
     7
370
    30
100
AcDbPoint
 10
28.546875
 20
-4.409729
 30
0.0
  0
POINT
  5
1D0
330
4EA
100
AcDbEntity
  8
HATCH
  6
Continuous
 62
     7
370
    30
100
AcDbPoint
 10
28.590625
 20
-4.409729
 30
0.0
  0
POINT
  5
1D1
330
4EA
100
AcDbEntity
  8
HATCH
  6
Continuous
 62
     7
370
    30
100
AcDbPoint
 10
28.634375
 20
-4.409729
 30
0.0
  0
POINT
  5
1D2
330
4EA
100
AcDbEntity
  8
HATCH
  6
Continuous
 62
     7
370
    30
100
AcDbPoint
 10
28.678125
 20
-4.409729
 30
0.0
  0
POINT
  5
1D3
330
4EA
100
AcDbEntity
  8
HATCH
  6
Continuous
 62
     7
370
    30
100
AcDbPoint
 10
28.721875
 20
-4.409729
 30
0.0
  0
POINT
  5
1D4
330
4EA
100
AcDbEntity
  8
HATCH
  6
Continuous
 62
     7
370
    30
100
AcDbPoint
 10
28.765625
 20
-4.409729
 30
0.0
  0
POINT
  5
1D5
330
4EA
100
AcDbEntity
  8
HATCH
  6
Continuous
 62
     7
370
    30
100
AcDbPoint
 10
27.34375
 20
-4.715979
 30
0.0
  0
POINT
  5
1D6
330
4EA
100
AcDbEntity
  8
HATCH
  6
Continuous
 62
     7
370
    30
100
AcDbPoint
 10
27.3875
 20
-4.715979
 30
0.0
  0
POINT
  5
1D7
330
4EA
100
AcDbEntity
  8
HATCH
  6
Continuous
 62
     7
370
    30
100
AcDbPoint
 10
27.43125
 20
-4.715979
 30
0.0
  0
POINT
  5
1D8
330
4EA
100
AcDbEntity
  8
HATCH
  6
Continuous
 62
     7
370
    30
100
AcDbPoint
 10
27.475
 20
-4.715979
 30
0.0
  0
POINT
  5
1D9
330
4EA
100
AcDbEntity
  8
HATCH
  6
Continuous
 62
     7
370
    30
100
AcDbPoint
 10
27.51875
 20
-4.715979
 30
0.0
  0
POINT
  5
1DA
330
4EA
100
AcDbEntity
  8
HATCH
  6
Continuous
 62
     7
370
    30
100
AcDbPoint
 10
27.5625
 20
-4.715979
 30
0.0
  0
POINT
  5
1DB
330
4EA
100
AcDbEntity
  8
HATCH
  6
Continuous
 62
     7
370
    30
100
AcDbPoint
 10
27.60625
 20
-4.715979
 30
0.0
  0
POINT
  5
1DC
330
4EA
100
AcDbEntity
  8
HATCH
  6
Continuous
 62
     7
370
    30
100
AcDbPoint
 10
27.65
 20
-4.715979
 30
0.0
  0
POINT
  5
1DD
330
4EA
100
AcDbEntity
  8
HATCH
  6
Continuous
 62
     7
370
    30
100
AcDbPoint
 10
27.69375
 20
-4.715979
 30
0.0
  0
POINT
  5
1DE
330
4EA
100
AcDbEntity
  8
HATCH
  6
Continuous
 62
     7
370
    30
100
AcDbPoint
 10
27.7375
 20
-4.715979
 30
0.0
  0
POINT
  5
1DF
330
4EA
100
AcDbEntity
  8
HATCH
  6
Continuous
 62
     7
370
    30
100
AcDbPoint
 10
27.78125
 20
-4.715979
 30
0.0
  0
POINT
  5
1E0
330
4EA
100
AcDbEntity
  8
HATCH
  6
Continuous
 62
     7
370
    30
100
AcDbPoint
 10
27.825
 20
-4.715979
 30
0.0
  0
POINT
  5
1E1
330
4EA
100
AcDbEntity
  8
HATCH
  6
Continuous
 62
     7
370
    30
100
AcDbPoint
 10
27.86875
 20
-4.715979
 30
0.0
  0
POINT
  5
1E2
330
4EA
100
AcDbEntity
  8
HATCH
  6
Continuous
 62
     7
370
    30
100
AcDbPoint
 10
27.9125
 20
-4.715979
 30
0.0
  0
POINT
  5
1E3
330
4EA
100
AcDbEntity
  8
HATCH
  6
Continuous
 62
     7
370
    30
100
AcDbPoint
 10
27.95625
 20
-4.715979
 30
0.0
  0
POINT
  5
1E4
330
4EA
100
AcDbEntity
  8
HATCH
  6
Continuous
 62
     7
370
    30
100
AcDbPoint
 10
28.0
 20
-4.715979
 30
0.0
  0
POINT
  5
1E5
330
4EA
100
AcDbEntity
  8
HATCH
  6
Continuous
 62
     7
370
    30
100
AcDbPoint
 10
28.04375
 20
-4.715979
 30
0.0
  0
POINT
  5
1E6
330
4EA
100
AcDbEntity
  8
HATCH
  6
Continuous
 62
     7
370
    30
100
AcDbPoint
 10
28.0875
 20
-4.715979
 30
0.0
  0
POINT
  5
1E7
330
4EA
100
AcDbEntity
  8
HATCH
  6
Continuous
 62
     7
370
    30
100
AcDbPoint
 10
28.13125
 20
-4.715979
 30
0.0
  0
POINT
  5
1E8
330
4EA
100
AcDbEntity
  8
HATCH
  6
Continuous
 62
     7
370
    30
100
AcDbPoint
 10
28.175
 20
-4.715979
 30
0.0
  0
POINT
  5
1E9
330
4EA
100
AcDbEntity
  8
HATCH
  6
Continuous
 62
     7
370
    30
100
AcDbPoint
 10
28.21875
 20
-4.715979
 30
0.0
  0
POINT
  5
1EA
330
4EA
100
AcDbEntity
  8
HATCH
  6
Continuous
 62
     7
370
    30
100
AcDbPoint
 10
28.2625
 20
-4.715979
 30
0.0
  0
POINT
  5
1EB
330
4EA
100
AcDbEntity
  8
HATCH
  6
Continuous
 62
     7
370
    30
100
AcDbPoint
 10
28.30625
 20
-4.715979
 30
0.0
  0
POINT
  5
1EC
330
4EA
100
AcDbEntity
  8
HATCH
  6
Continuous
 62
     7
370
    30
100
AcDbPoint
 10
28.35
 20
-4.715979
 30
0.0
  0
POINT
  5
1ED
330
4EA
100
AcDbEntity
  8
HATCH
  6
Continuous
 62
     7
370
    30
100
AcDbPoint
 10
28.39375
 20
-4.715979
 30
0.0
  0
POINT
  5
1EE
330
4EA
100
AcDbEntity
  8
HATCH
  6
Continuous
 62
     7
370
    30
100
AcDbPoint
 10
28.4375
 20
-4.715979
 30
0.0
  0
POINT
  5
1EF
330
4EA
100
AcDbEntity
  8
HATCH
  6
Continuous
 62
     7
370
    30
100
AcDbPoint
 10
28.48125
 20
-4.715979
 30
0.0
  0
POINT
  5
1F0
330
4EA
100
AcDbEntity
  8
HATCH
  6
Continuous
 62
     7
370
    30
100
AcDbPoint
 10
28.525
 20
-4.715979
 30
0.0
  0
POINT
  5
1F1
330
4EA
100
AcDbEntity
  8
HATCH
  6
Continuous
 62
     7
370
    30
100
AcDbPoint
 10
28.56875
 20
-4.715979
 30
0.0
  0
POINT
  5
1F2
330
4EA
100
AcDbEntity
  8
HATCH
  6
Continuous
 62
     7
370
    30
100
AcDbPoint
 10
28.6125
 20
-4.715979
 30
0.0
  0
POINT
  5
1F3
330
4EA
100
AcDbEntity
  8
HATCH
  6
Continuous
 62
     7
370
    30
100
AcDbPoint
 10
28.65625
 20
-4.715979
 30
0.0
  0
POINT
  5
1F4
330
4EA
100
AcDbEntity
  8
HATCH
  6
Continuous
 62
     7
370
    30
100
AcDbPoint
 10
28.7
 20
-4.715979
 30
0.0
  0
POINT
  5
1F5
330
4EA
100
AcDbEntity
  8
HATCH
  6
Continuous
 62
     7
370
    30
100
AcDbPoint
 10
28.74375
 20
-4.715979
 30
0.0
  0
POINT
  5
1F6
330
4EA
100
AcDbEntity
  8
HATCH
  6
Continuous
 62
     7
370
    30
100
AcDbPoint
 10
28.7875
 20
-4.715979
 30
0.0
  0
POINT
  5
1F7
330
4EA
100
AcDbEntity
  8
HATCH
  6
Continuous
 62
     7
370
    30
100
AcDbPoint
 10
27.365625
 20
-4.759729
 30
0.0
  0
POINT
  5
1F8
330
4EA
100
AcDbEntity
  8
HATCH
  6
Continuous
 62
     7
370
    30
100
AcDbPoint
 10
27.409375
 20
-4.759729
 30
0.0
  0
POINT
  5
1F9
330
4EA
100
AcDbEntity
  8
HATCH
  6
Continuous
 62
     7
370
    30
100
AcDbPoint
 10
27.453125
 20
-4.759729
 30
0.0
  0
POINT
  5
1FA
330
4EA
100
AcDbEntity
  8
HATCH
  6
Continuous
 62
     7
370
    30
100
AcDbPoint
 10
27.496875
 20
-4.759729
 30
0.0
  0
POINT
  5
1FB
330
4EA
100
AcDbEntity
  8
HATCH
  6
Continuous
 62
     7
370
    30
100
AcDbPoint
 10
27.540625
 20
-4.759729
 30
0.0
  0
POINT
  5
1FC
330
4EA
100
AcDbEntity
  8
HATCH
  6
Continuous
 62
     7
370
    30
100
AcDbPoint
 10
27.584375
 20
-4.759729
 30
0.0
  0
POINT
  5
1FD
330
4EA
100
AcDbEntity
  8
HATCH
  6
Continuous
 62
     7
370
    30
100
AcDbPoint
 10
27.628125
 20
-4.759729
 30
0.0
  0
POINT
  5
1FE
330
4EA
100
AcDbEntity
  8
HATCH
  6
Continuous
 62
     7
370
    30
100
AcDbPoint
 10
27.671875
 20
-4.759729
 30
0.0
  0
POINT
  5
1FF
330
4EA
100
AcDbEntity
  8
HATCH
  6
Continuous
 62
     7
370
    30
100
AcDbPoint
 10
27.715625
 20
-4.759729
 30
0.0
  0
POINT
  5
200
330
4EA
100
AcDbEntity
  8
HATCH
  6
Continuous
 62
     7
370
    30
100
AcDbPoint
 10
27.759375
 20
-4.759729
 30
0.0
  0
POINT
  5
201
330
4EA
100
AcDbEntity
  8
HATCH
  6
Continuous
 62
     7
370
    30
100
AcDbPoint
 10
27.803125
 20
-4.759729
 30
0.0
  0
POINT
  5
202
330
4EA
100
AcDbEntity
  8
HATCH
  6
Continuous
 62
     7
370
    30
100
AcDbPoint
 10
27.846875
 20
-4.759729
 30
0.0
  0
POINT
  5
203
330
4EA
100
AcDbEntity
  8
HATCH
  6
Continuous
 62
     7
370
    30
100
AcDbPoint
 10
27.890625
 20
-4.759729
 30
0.0
  0
POINT
  5
204
330
4EA
100
AcDbEntity
  8
HATCH
  6
Continuous
 62
     7
370
    30
100
AcDbPoint
 10
27.934375
 20
-4.759729
 30
0.0
  0
POINT
  5
205
330
4EA
100
AcDbEntity
  8
HATCH
  6
Continuous
 62
     7
370
    30
100
AcDbPoint
 10
27.978125
 20
-4.759729
 30
0.0
  0
POINT
  5
206
330
4EA
100
AcDbEntity
  8
HATCH
  6
Continuous
 62
     7
370
    30
100
AcDbPoint
 10
28.021875
 20
-4.759729
 30
0.0
  0
POINT
  5
207
330
4EA
100
AcDbEntity
  8
HATCH
  6
Continuous
 62
     7
370
    30
100
AcDbPoint
 10
28.065625
 20
-4.759729
 30
0.0
  0
POINT
  5
208
330
4EA
100
AcDbEntity
  8
HATCH
  6
Continuous
 62
     7
370
    30
100
AcDbPoint
 10
28.109375
 20
-4.759729
 30
0.0
  0
POINT
  5
209
330
4EA
100
AcDbEntity
  8
HATCH
  6
Continuous
 62
     7
370
    30
100
AcDbPoint
 10
28.153125
 20
-4.759729
 30
0.0
  0
POINT
  5
20A
330
4EA
100
AcDbEntity
  8
HATCH
  6
Continuous
 62
     7
370
    30
100
AcDbPoint
 10
28.196875
 20
-4.759729
 30
0.0
  0
POINT
  5
20B
330
4EA
100
AcDbEntity
  8
HATCH
  6
Continuous
 62
     7
370
    30
100
AcDbPoint
 10
28.240625
 20
-4.759729
 30
0.0
  0
POINT
  5
20C
330
4EA
100
AcDbEntity
  8
HATCH
  6
Continuous
 62
     7
370
    30
100
AcDbPoint
 10
28.284375
 20
-4.759729
 30
0.0
  0
POINT
  5
20D
330
4EA
100
AcDbEntity
  8
HATCH
  6
Continuous
 62
     7
370
    30
100
AcDbPoint
 10
28.328125
 20
-4.759729
 30
0.0
  0
POINT
  5
20E
330
4EA
100
AcDbEntity
  8
HATCH
  6
Continuous
 62
     7
370
    30
100
AcDbPoint
 10
28.371875
 20
-4.759729
 30
0.0
  0
POINT
  5
20F
330
4EA
100
AcDbEntity
  8
HATCH
  6
Continuous
 62
     7
370
    30
100
AcDbPoint
 10
28.415625
 20
-4.759729
 30
0.0
  0
POINT
  5
210
330
4EA
100
AcDbEntity
  8
HATCH
  6
Continuous
 62
     7
370
    30
100
AcDbPoint
 10
28.459375
 20
-4.759729
 30
0.0
  0
POINT
  5
211
330
4EA
100
AcDbEntity
  8
HATCH
  6
Continuous
 62
     7
370
    30
100
AcDbPoint
 10
28.503125
 20
-4.759729
 30
0.0
  0
POINT
  5
212
330
4EA
100
AcDbEntity
  8
HATCH
  6
Continuous
 62
     7
370
    30
100
AcDbPoint
 10
28.546875
 20
-4.759729
 30
0.0
  0
POINT
  5
213
330
4EA
100
AcDbEntity
  8
HATCH
  6
Continuous
 62
     7
370
    30
100
AcDbPoint
 10
28.590625
 20
-4.759729
 30
0.0
  0
POINT
  5
214
330
4EA
100
AcDbEntity
  8
HATCH
  6
Continuous
 62
     7
370
    30
100
AcDbPoint
 10
28.634375
 20
-4.759729
 30
0.0
  0
POINT
  5
215
330
4EA
100
AcDbEntity
  8
HATCH
  6
Continuous
 62
     7
370
    30
100
AcDbPoint
 10
28.678125
 20
-4.759729
 30
0.0
  0
POINT
  5
216
330
4EA
100
AcDbEntity
  8
HATCH
  6
Continuous
 62
     7
370
    30
100
AcDbPoint
 10
28.721875
 20
-4.759729
 30
0.0
  0
POINT
  5
217
330
4EA
100
AcDbEntity
  8
HATCH
  6
Continuous
 62
     7
370
    30
100
AcDbPoint
 10
28.765625
 20
-4.759729
 30
0.0
  0
POINT
  5
218
330
4EA
100
AcDbEntity
  8
HATCH
  6
Continuous
 62
     7
370
    30
100
AcDbPoint
 10
27.34375
 20
-4.803479
 30
0.0
  0
POINT
  5
219
330
4EA
100
AcDbEntity
  8
HATCH
  6
Continuous
 62
     7
370
    30
100
AcDbPoint
 10
27.3875
 20
-4.803479
 30
0.0
  0
POINT
  5
21A
330
4EA
100
AcDbEntity
  8
HATCH
  6
Continuous
 62
     7
370
    30
100
AcDbPoint
 10
27.43125
 20
-4.803479
 30
0.0
  0
POINT
  5
21B
330
4EA
100
AcDbEntity
  8
HATCH
  6
Continuous
 62
     7
370
    30
100
AcDbPoint
 10
27.475
 20
-4.803479
 30
0.0
  0
POINT
  5
21C
330
4EA
100
AcDbEntity
  8
HATCH
  6
Continuous
 62
     7
370
    30
100
AcDbPoint
 10
27.51875
 20
-4.803479
 30
0.0
  0
POINT
  5
21D
330
4EA
100
AcDbEntity
  8
HATCH
  6
Continuous
 62
     7
370
    30
100
AcDbPoint
 10
27.5625
 20
-4.803479
 30
0.0
  0
POINT
  5
21E
330
4EA
100
AcDbEntity
  8
HATCH
  6
Continuous
 62
     7
370
    30
100
AcDbPoint
 10
27.60625
 20
-4.803479
 30
0.0
  0
POINT
  5
21F
330
4EA
100
AcDbEntity
  8
HATCH
  6
Continuous
 62
     7
370
    30
100
AcDbPoint
 10
27.65
 20
-4.803479
 30
0.0
  0
POINT
  5
220
330
4EA
100
AcDbEntity
  8
HATCH
  6
Continuous
 62
     7
370
    30
100
AcDbPoint
 10
27.69375
 20
-4.803479
 30
0.0
  0
POINT
  5
221
330
4EA
100
AcDbEntity
  8
HATCH
  6
Continuous
 62
     7
370
    30
100
AcDbPoint
 10
27.7375
 20
-4.803479
 30
0.0
  0
POINT
  5
222
330
4EA
100
AcDbEntity
  8
HATCH
  6
Continuous
 62
     7
370
    30
100
AcDbPoint
 10
27.78125
 20
-4.803479
 30
0.0
  0
POINT
  5
223
330
4EA
100
AcDbEntity
  8
HATCH
  6
Continuous
 62
     7
370
    30
100
AcDbPoint
 10
27.825
 20
-4.803479
 30
0.0
  0
POINT
  5
224
330
4EA
100
AcDbEntity
  8
HATCH
  6
Continuous
 62
     7
370
    30
100
AcDbPoint
 10
27.86875
 20
-4.803479
 30
0.0
  0
POINT
  5
225
330
4EA
100
AcDbEntity
  8
HATCH
  6
Continuous
 62
     7
370
    30
100
AcDbPoint
 10
27.9125
 20
-4.803479
 30
0.0
  0
POINT
  5
226
330
4EA
100
AcDbEntity
  8
HATCH
  6
Continuous
 62
     7
370
    30
100
AcDbPoint
 10
27.95625
 20
-4.803479
 30
0.0
  0
POINT
  5
227
330
4EA
100
AcDbEntity
  8
HATCH
  6
Continuous
 62
     7
370
    30
100
AcDbPoint
 10
28.0
 20
-4.803479
 30
0.0
  0
POINT
  5
228
330
4EA
100
AcDbEntity
  8
HATCH
  6
Continuous
 62
     7
370
    30
100
AcDbPoint
 10
28.04375
 20
-4.803479
 30
0.0
  0
POINT
  5
229
330
4EA
100
AcDbEntity
  8
HATCH
  6
Continuous
 62
     7
370
    30
100
AcDbPoint
 10
28.0875
 20
-4.803479
 30
0.0
  0
POINT
  5
22A
330
4EA
100
AcDbEntity
  8
HATCH
  6
Continuous
 62
     7
370
    30
100
AcDbPoint
 10
28.13125
 20
-4.803479
 30
0.0
  0
POINT
  5
22B
330
4EA
100
AcDbEntity
  8
HATCH
  6
Continuous
 62
     7
370
    30
100
AcDbPoint
 10
28.175
 20
-4.803479
 30
0.0
  0
POINT
  5
22C
330
4EA
100
AcDbEntity
  8
HATCH
  6
Continuous
 62
     7
370
    30
100
AcDbPoint
 10
28.21875
 20
-4.803479
 30
0.0
  0
POINT
  5
22D
330
4EA
100
AcDbEntity
  8
HATCH
  6
Continuous
 62
     7
370
    30
100
AcDbPoint
 10
28.2625
 20
-4.803479
 30
0.0
  0
POINT
  5
22E
330
4EA
100
AcDbEntity
  8
HATCH
  6
Continuous
 62
     7
370
    30
100
AcDbPoint
 10
28.30625
 20
-4.803479
 30
0.0
  0
POINT
  5
22F
330
4EA
100
AcDbEntity
  8
HATCH
  6
Continuous
 62
     7
370
    30
100
AcDbPoint
 10
28.35
 20
-4.803479
 30
0.0
  0
POINT
  5
230
330
4EA
100
AcDbEntity
  8
HATCH
  6
Continuous
 62
     7
370
    30
100
AcDbPoint
 10
28.39375
 20
-4.803479
 30
0.0
  0
POINT
  5
231
330
4EA
100
AcDbEntity
  8
HATCH
  6
Continuous
 62
     7
370
    30
100
AcDbPoint
 10
28.4375
 20
-4.803479
 30
0.0
  0
POINT
  5
232
330
4EA
100
AcDbEntity
  8
HATCH
  6
Continuous
 62
     7
370
    30
100
AcDbPoint
 10
28.48125
 20
-4.803479
 30
0.0
  0
POINT
  5
233
330
4EA
100
AcDbEntity
  8
HATCH
  6
Continuous
 62
     7
370
    30
100
AcDbPoint
 10
28.525
 20
-4.803479
 30
0.0
  0
POINT
  5
234
330
4EA
100
AcDbEntity
  8
HATCH
  6
Continuous
 62
     7
370
    30
100
AcDbPoint
 10
28.56875
 20
-4.803479
 30
0.0
  0
POINT
  5
235
330
4EA
100
AcDbEntity
  8
HATCH
  6
Continuous
 62
     7
370
    30
100
AcDbPoint
 10
28.6125
 20
-4.803479
 30
0.0
  0
POINT
  5
236
330
4EA
100
AcDbEntity
  8
HATCH
  6
Continuous
 62
     7
370
    30
100
AcDbPoint
 10
28.65625
 20
-4.803479
 30
0.0
  0
POINT
  5
237
330
4EA
100
AcDbEntity
  8
HATCH
  6
Continuous
 62
     7
370
    30
100
AcDbPoint
 10
28.7
 20
-4.803479
 30
0.0
  0
POINT
  5
238
330
4EA
100
AcDbEntity
  8
HATCH
  6
Continuous
 62
     7
370
    30
100
AcDbPoint
 10
28.74375
 20
-4.803479
 30
0.0
  0
POINT
  5
239
330
4EA
100
AcDbEntity
  8
HATCH
  6
Continuous
 62
     7
370
    30
100
AcDbPoint
 10
28.7875
 20
-4.803479
 30
0.0
  0
POINT
  5
23A
330
4EA
100
AcDbEntity
  8
HATCH
  6
Continuous
 62
     7
370
    30
100
AcDbPoint
 10
27.365625
 20
-4.847229
 30
0.0
  0
POINT
  5
23B
330
4EA
100
AcDbEntity
  8
HATCH
  6
Continuous
 62
     7
370
    30
100
AcDbPoint
 10
27.409375
 20
-4.847229
 30
0.0
  0
POINT
  5
23C
330
4EA
100
AcDbEntity
  8
HATCH
  6
Continuous
 62
     7
370
    30
100
AcDbPoint
 10
27.453125
 20
-4.847229
 30
0.0
  0
POINT
  5
23D
330
4EA
100
AcDbEntity
  8
HATCH
  6
Continuous
 62
     7
370
    30
100
AcDbPoint
 10
27.496875
 20
-4.847229
 30
0.0
  0
POINT
  5
23E
330
4EA
100
AcDbEntity
  8
HATCH
  6
Continuous
 62
     7
370
    30
100
AcDbPoint
 10
27.540625
 20
-4.847229
 30
0.0
  0
POINT
  5
23F
330
4EA
100
AcDbEntity
  8
HATCH
  6
Continuous
 62
     7
370
    30
100
AcDbPoint
 10
27.584375
 20
-4.847229
 30
0.0
  0
POINT
  5
240
330
4EA
100
AcDbEntity
  8
HATCH
  6
Continuous
 62
     7
370
    30
100
AcDbPoint
 10
27.628125
 20
-4.847229
 30
0.0
  0
POINT
  5
241
330
4EA
100
AcDbEntity
  8
HATCH
  6
Continuous
 62
     7
370
    30
100
AcDbPoint
 10
27.671875
 20
-4.847229
 30
0.0
  0
POINT
  5
242
330
4EA
100
AcDbEntity
  8
HATCH
  6
Continuous
 62
     7
370
    30
100
AcDbPoint
 10
27.715625
 20
-4.847229
 30
0.0
  0
POINT
  5
243
330
4EA
100
AcDbEntity
  8
HATCH
  6
Continuous
 62
     7
370
    30
100
AcDbPoint
 10
27.759375
 20
-4.847229
 30
0.0
  0
POINT
  5
244
330
4EA
100
AcDbEntity
  8
HATCH
  6
Continuous
 62
     7
370
    30
100
AcDbPoint
 10
27.803125
 20
-4.847229
 30
0.0
  0
POINT
  5
245
330
4EA
100
AcDbEntity
  8
HATCH
  6
Continuous
 62
     7
370
    30
100
AcDbPoint
 10
27.846875
 20
-4.847229
 30
0.0
  0
POINT
  5
246
330
4EA
100
AcDbEntity
  8
HATCH
  6
Continuous
 62
     7
370
    30
100
AcDbPoint
 10
27.890625
 20
-4.847229
 30
0.0
  0
POINT
  5
247
330
4EA
100
AcDbEntity
  8
HATCH
  6
Continuous
 62
     7
370
    30
100
AcDbPoint
 10
27.934375
 20
-4.847229
 30
0.0
  0
POINT
  5
248
330
4EA
100
AcDbEntity
  8
HATCH
  6
Continuous
 62
     7
370
    30
100
AcDbPoint
 10
27.978125
 20
-4.847229
 30
0.0
  0
POINT
  5
249
330
4EA
100
AcDbEntity
  8
HATCH
  6
Continuous
 62
     7
370
    30
100
AcDbPoint
 10
28.021875
 20
-4.847229
 30
0.0
  0
POINT
  5
24A
330
4EA
100
AcDbEntity
  8
HATCH
  6
Continuous
 62
     7
370
    30
100
AcDbPoint
 10
28.065625
 20
-4.847229
 30
0.0
  0
POINT
  5
24B
330
4EA
100
AcDbEntity
  8
HATCH
  6
Continuous
 62
     7
370
    30
100
AcDbPoint
 10
28.109375
 20
-4.847229
 30
0.0
  0
POINT
  5
24C
330
4EA
100
AcDbEntity
  8
HATCH
  6
Continuous
 62
     7
370
    30
100
AcDbPoint
 10
28.153125
 20
-4.847229
 30
0.0
  0
POINT
  5
24D
330
4EA
100
AcDbEntity
  8
HATCH
  6
Continuous
 62
     7
370
    30
100
AcDbPoint
 10
28.196875
 20
-4.847229
 30
0.0
  0
POINT
  5
24E
330
4EA
100
AcDbEntity
  8
HATCH
  6
Continuous
 62
     7
370
    30
100
AcDbPoint
 10
28.240625
 20
-4.847229
 30
0.0
  0
POINT
  5
24F
330
4EA
100
AcDbEntity
  8
HATCH
  6
Continuous
 62
     7
370
    30
100
AcDbPoint
 10
28.284375
 20
-4.847229
 30
0.0
  0
POINT
  5
250
330
4EA
100
AcDbEntity
  8
HATCH
  6
Continuous
 62
     7
370
    30
100
AcDbPoint
 10
28.328125
 20
-4.847229
 30
0.0
  0
POINT
  5
251
330
4EA
100
AcDbEntity
  8
HATCH
  6
Continuous
 62
     7
370
    30
100
AcDbPoint
 10
28.371875
 20
-4.847229
 30
0.0
  0
POINT
  5
252
330
4EA
100
AcDbEntity
  8
HATCH
  6
Continuous
 62
     7
370
    30
100
AcDbPoint
 10
28.415625
 20
-4.847229
 30
0.0
  0
POINT
  5
253
330
4EA
100
AcDbEntity
  8
HATCH
  6
Continuous
 62
     7
370
    30
100
AcDbPoint
 10
28.459375
 20
-4.847229
 30
0.0
  0
POINT
  5
254
330
4EA
100
AcDbEntity
  8
HATCH
  6
Continuous
 62
     7
370
    30
100
AcDbPoint
 10
28.503125
 20
-4.847229
 30
0.0
  0
POINT
  5
255
330
4EA
100
AcDbEntity
  8
HATCH
  6
Continuous
 62
     7
370
    30
100
AcDbPoint
 10
28.546875
 20
-4.847229
 30
0.0
  0
POINT
  5
256
330
4EA
100
AcDbEntity
  8
HATCH
  6
Continuous
 62
     7
370
    30
100
AcDbPoint
 10
28.590625
 20
-4.847229
 30
0.0
  0
POINT
  5
257
330
4EA
100
AcDbEntity
  8
HATCH
  6
Continuous
 62
     7
370
    30
100
AcDbPoint
 10
28.634375
 20
-4.847229
 30
0.0
  0
POINT
  5
258
330
4EA
100
AcDbEntity
  8
HATCH
  6
Continuous
 62
     7
370
    30
100
AcDbPoint
 10
28.678125
 20
-4.847229
 30
0.0
  0
POINT
  5
259
330
4EA
100
AcDbEntity
  8
HATCH
  6
Continuous
 62
     7
370
    30
100
AcDbPoint
 10
28.721875
 20
-4.847229
 30
0.0
  0
POINT
  5
25A
330
4EA
100
AcDbEntity
  8
HATCH
  6
Continuous
 62
     7
370
    30
100
AcDbPoint
 10
28.765625
 20
-4.847229
 30
0.0
  0
POINT
  5
25B
330
4EA
100
AcDbEntity
  8
HATCH
  6
Continuous
 62
     7
370
    30
100
AcDbPoint
 10
27.34375
 20
-4.890979
 30
0.0
  0
POINT
  5
25C
330
4EA
100
AcDbEntity
  8
HATCH
  6
Continuous
 62
     7
370
    30
100
AcDbPoint
 10
27.3875
 20
-4.890979
 30
0.0
  0
POINT
  5
25D
330
4EA
100
AcDbEntity
  8
HATCH
  6
Continuous
 62
     7
370
    30
100
AcDbPoint
 10
27.43125
 20
-4.890979
 30
0.0
  0
POINT
  5
25E
330
4EA
100
AcDbEntity
  8
HATCH
  6
Continuous
 62
     7
370
    30
100
AcDbPoint
 10
27.475
 20
-4.890979
 30
0.0
  0
POINT
  5
25F
330
4EA
100
AcDbEntity
  8
HATCH
  6
Continuous
 62
     7
370
    30
100
AcDbPoint
 10
27.51875
 20
-4.890979
 30
0.0
  0
POINT
  5
260
330
4EA
100
AcDbEntity
  8
HATCH
  6
Continuous
 62
     7
370
    30
100
AcDbPoint
 10
27.5625
 20
-4.890979
 30
0.0
  0
POINT
  5
261
330
4EA
100
AcDbEntity
  8
HATCH
  6
Continuous
 62
     7
370
    30
100
AcDbPoint
 10
27.60625
 20
-4.890979
 30
0.0
  0
POINT
  5
262
330
4EA
100
AcDbEntity
  8
HATCH
  6
Continuous
 62
     7
370
    30
100
AcDbPoint
 10
27.65
 20
-4.890979
 30
0.0
  0
POINT
  5
263
330
4EA
100
AcDbEntity
  8
HATCH
  6
Continuous
 62
     7
370
    30
100
AcDbPoint
 10
27.69375
 20
-4.890979
 30
0.0
  0
POINT
  5
264
330
4EA
100
AcDbEntity
  8
HATCH
  6
Continuous
 62
     7
370
    30
100
AcDbPoint
 10
27.7375
 20
-4.890979
 30
0.0
  0
POINT
  5
265
330
4EA
100
AcDbEntity
  8
HATCH
  6
Continuous
 62
     7
370
    30
100
AcDbPoint
 10
27.78125
 20
-4.890979
 30
0.0
  0
POINT
  5
266
330
4EA
100
AcDbEntity
  8
HATCH
  6
Continuous
 62
     7
370
    30
100
AcDbPoint
 10
27.825
 20
-4.890979
 30
0.0
  0
POINT
  5
267
330
4EA
100
AcDbEntity
  8
HATCH
  6
Continuous
 62
     7
370
    30
100
AcDbPoint
 10
27.86875
 20
-4.890979
 30
0.0
  0
POINT
  5
268
330
4EA
100
AcDbEntity
  8
HATCH
  6
Continuous
 62
     7
370
    30
100
AcDbPoint
 10
27.9125
 20
-4.890979
 30
0.0
  0
POINT
  5
269
330
4EA
100
AcDbEntity
  8
HATCH
  6
Continuous
 62
     7
370
    30
100
AcDbPoint
 10
27.95625
 20
-4.890979
 30
0.0
  0
POINT
  5
26A
330
4EA
100
AcDbEntity
  8
HATCH
  6
Continuous
 62
     7
370
    30
100
AcDbPoint
 10
28.0
 20
-4.890979
 30
0.0
  0
POINT
  5
26B
330
4EA
100
AcDbEntity
  8
HATCH
  6
Continuous
 62
     7
370
    30
100
AcDbPoint
 10
28.04375
 20
-4.890979
 30
0.0
  0
POINT
  5
26C
330
4EA
100
AcDbEntity
  8
HATCH
  6
Continuous
 62
     7
370
    30
100
AcDbPoint
 10
28.0875
 20
-4.890979
 30
0.0
  0
POINT
  5
26D
330
4EA
100
AcDbEntity
  8
HATCH
  6
Continuous
 62
     7
370
    30
100
AcDbPoint
 10
28.13125
 20
-4.890979
 30
0.0
  0
POINT
  5
26E
330
4EA
100
AcDbEntity
  8
HATCH
  6
Continuous
 62
     7
370
    30
100
AcDbPoint
 10
28.175
 20
-4.890979
 30
0.0
  0
POINT
  5
26F
330
4EA
100
AcDbEntity
  8
HATCH
  6
Continuous
 62
     7
370
    30
100
AcDbPoint
 10
28.21875
 20
-4.890979
 30
0.0
  0
POINT
  5
270
330
4EA
100
AcDbEntity
  8
HATCH
  6
Continuous
 62
     7
370
    30
100
AcDbPoint
 10
28.2625
 20
-4.890979
 30
0.0
  0
POINT
  5
271
330
4EA
100
AcDbEntity
  8
HATCH
  6
Continuous
 62
     7
370
    30
100
AcDbPoint
 10
28.30625
 20
-4.890979
 30
0.0
  0
POINT
  5
272
330
4EA
100
AcDbEntity
  8
HATCH
  6
Continuous
 62
     7
370
    30
100
AcDbPoint
 10
28.35
 20
-4.890979
 30
0.0
  0
POINT
  5
273
330
4EA
100
AcDbEntity
  8
HATCH
  6
Continuous
 62
     7
370
    30
100
AcDbPoint
 10
28.39375
 20
-4.890979
 30
0.0
  0
POINT
  5
274
330
4EA
100
AcDbEntity
  8
HATCH
  6
Continuous
 62
     7
370
    30
100
AcDbPoint
 10
28.4375
 20
-4.890979
 30
0.0
  0
POINT
  5
275
330
4EA
100
AcDbEntity
  8
HATCH
  6
Continuous
 62
     7
370
    30
100
AcDbPoint
 10
28.48125
 20
-4.890979
 30
0.0
  0
POINT
  5
276
330
4EA
100
AcDbEntity
  8
HATCH
  6
Continuous
 62
     7
370
    30
100
AcDbPoint
 10
28.525
 20
-4.890979
 30
0.0
  0
POINT
  5
277
330
4EA
100
AcDbEntity
  8
HATCH
  6
Continuous
 62
     7
370
    30
100
AcDbPoint
 10
28.56875
 20
-4.890979
 30
0.0
  0
POINT
  5
278
330
4EA
100
AcDbEntity
  8
HATCH
  6
Continuous
 62
     7
370
    30
100
AcDbPoint
 10
28.6125
 20
-4.890979
 30
0.0
  0
POINT
  5
279
330
4EA
100
AcDbEntity
  8
HATCH
  6
Continuous
 62
     7
370
    30
100
AcDbPoint
 10
28.65625
 20
-4.890979
 30
0.0
  0
POINT
  5
27A
330
4EA
100
AcDbEntity
  8
HATCH
  6
Continuous
 62
     7
370
    30
100
AcDbPoint
 10
28.7
 20
-4.890979
 30
0.0
  0
POINT
  5
27B
330
4EA
100
AcDbEntity
  8
HATCH
  6
Continuous
 62
     7
370
    30
100
AcDbPoint
 10
28.74375
 20
-4.890979
 30
0.0
  0
POINT
  5
27C
330
4EA
100
AcDbEntity
  8
HATCH
  6
Continuous
 62
     7
370
    30
100
AcDbPoint
 10
28.7875
 20
-4.890979
 30
0.0
  0
LINE
  5
27D
330
4EA
100
AcDbEntity
  8
HATCH
  6
Continuous
 62
     7
370
    30
100
AcDbLine
 10
26.633604
 20
-7.203885
 30
0.0
 11
26.718594
 21
-7.118896
 31
0.0
  0
LINE
  5
27E
330
4EA
100
AcDbEntity
  8
HATCH
  6
Continuous
 62
     7
370
    30
100
AcDbLine
 10
26.806979
 20
-7.03051
 30
0.0
 11
26.895365
 21
-6.942125
 31
0.0
  0
LINE
  5
27F
330
4EA
100
AcDbEntity
  8
HATCH
  6
Continuous
 62
     7
370
    30
100
AcDbLine
 10
26.505552
 20
-7.155156
 30
0.0
 11
26.541812
 21
-7.118896
 31
0.0
  0
LINE
  5
280
330
4EA
100
AcDbEntity
  8
HATCH
  6
Continuous
 62
     7
370
    30
100
AcDbLine
 10
26.630208
 20
-7.03051
 30
0.0
 11
26.718594
 21
-6.942125
 31
0.0
  0
LINE
  5
281
330
4EA
100
AcDbEntity
  8
HATCH
  6
Continuous
 62
     7
370
    30
100
AcDbLine
 10
26.806979
 20
-6.853729
 30
0.0
 11
26.807229
 21
-6.853479
 31
0.0
  0
LINE
  5
282
330
4EA
100
AcDbEntity
  8
HATCH
  6
Continuous
 62
     7
370
    30
100
AcDbLine
 10
26.453427
 20
-7.03051
 30
0.0
 11
26.541812
 21
-6.942125
 31
0.0
  0
LINE
  5
283
330
4EA
100
AcDbEntity
  8
HATCH
  6
Continuous
 62
     7
370
    30
100
AcDbLine
 10
26.630208
 20
-6.853729
 30
0.0
 11
26.630458
 21
-6.853479
 31
0.0
  0
LINE
  5
284
330
4EA
100
AcDbEntity
  8
HATCH
  6
Continuous
 62
     7
370
    30
100
AcDbLine
 10
26.276646
 20
-7.03051
 30
0.0
 11
26.365042
 21
-6.942125
 31
0.0
  0
LINE
  5
285
330
4EA
100
AcDbEntity
  8
HATCH
  6
Continuous
 62
     7
370
    30
100
AcDbLine
 10
26.453427
 20
-6.853729
 30
0.0
 11
26.453677
 21
-6.853479
 31
0.0
  0
LINE
  5
286
330
4EA
100
AcDbEntity
  8
HATCH
  6
Continuous
 62
     7
370
    30
100
AcDbLine
 10
26.121406
 20
-7.008979
 30
0.0
 11
26.18826
 21
-6.942125
 31
0.0
  0
LINE
  5
287
330
4EA
100
AcDbEntity
  8
HATCH
  6
Continuous
 62
     7
370
    30
100
AcDbLine
 10
26.276646
 20
-6.853729
 30
0.0
 11
26.365042
 21
-6.765344
 31
0.0
  0
LINE
  5
288
330
4EA
100
AcDbEntity
  8
HATCH
  6
Continuous
 62
     7
370
    30
100
AcDbLine
 10
25.993365
 20
-6.96025
 30
0.0
 11
26.01149
 21
-6.942125
 31
0.0
  0
LINE
  5
289
330
4EA
100
AcDbEntity
  8
HATCH
  6
Continuous
 62
     7
370
    30
100
AcDbLine
 10
26.099875
 20
-6.853729
 30
0.0
 11
26.18826
 21
-6.765344
 31
0.0
  0
LINE
  5
28A
330
4EA
100
AcDbEntity
  8
HATCH
  6
Continuous
 62
     7
370
    30
100
AcDbLine
 10
26.276646
 20
-6.676958
 30
0.0
 11
26.365042
 21
-6.588563
 31
0.0
  0
LINE
  5
28B
330
4EA
100
AcDbEntity
  8
HATCH
  6
Continuous
 62
     7
370
    30
100
AcDbLine
 10
25.973
 20
-6.803823
 30
0.0
 11
26.01149
 21
-6.765344
 31
0.0
  0
LINE
  5
28C
330
4EA
100
AcDbEntity
  8
HATCH
  6
Continuous
 62
     7
370
    30
100
AcDbLine
 10
26.099875
 20
-6.676958
 30
0.0
 11
26.18826
 21
-6.588563
 31
0.0
  0
LINE
  5
28D
330
4EA
100
AcDbEntity
  8
HATCH
  6
Continuous
 62
     7
370
    30
100
AcDbLine
 10
26.276646
 20
-6.500177
 30
0.0
 11
26.365042
 21
-6.411792
 31
0.0
  0
LINE
  5
28E
330
4EA
100
AcDbEntity
  8
HATCH
  6
Continuous
 62
     7
370
    30
100
AcDbLine
 10
25.976406
 20
-6.623646
 30
0.0
 11
26.01149
 21
-6.588563
 31
0.0
  0
LINE
  5
28F
330
4EA
100
AcDbEntity
  8
HATCH
  6
Continuous
 62
     7
370
    30
100
AcDbLine
 10
26.099875
 20
-6.500177
 30
0.0
 11
26.18826
 21
-6.411792
 31
0.0
  0
LINE
  5
290
330
4EA
100
AcDbEntity
  8
HATCH
  6
Continuous
 62
     7
370
    30
100
AcDbLine
 10
26.276646
 20
-6.323406
 30
0.0
 11
26.365042
 21
-6.23501
 31
0.0
  0
LINE
  5
291
330
4EA
100
AcDbEntity
  8
HATCH
  6
Continuous
 62
     7
370
    30
100
AcDbLine
 10
25.979802
 20
-6.443469
 30
0.0
 11
26.01149
 21
-6.411792
 31
0.0
  0
LINE
  5
292
330
4EA
100
AcDbEntity
  8
HATCH
  6
Continuous
 62
     7
370
    30
100
AcDbLine
 10
26.099875
 20
-6.323406
 30
0.0
 11
26.18826
 21
-6.23501
 31
0.0
  0
LINE
  5
293
330
4EA
100
AcDbEntity
  8
HATCH
  6
Continuous
 62
     7
370
    30
100
AcDbLine
 10
26.276646
 20
-6.146625
 30
0.0
 11
26.365042
 21
-6.05824
 31
0.0
  0
LINE
  5
294
330
4EA
100
AcDbEntity
  8
HATCH
  6
Continuous
 62
     7
370
    30
100
AcDbLine
 10
25.983198
 20
-6.263302
 30
0.0
 11
26.01149
 21
-6.23501
 31
0.0
  0
LINE
  5
295
330
4EA
100
AcDbEntity
  8
HATCH
  6
Continuous
 62
     7
370
    30
100
AcDbLine
 10
26.806979
 20
-7.207281
 30
0.0
 11
26.895365
 21
-7.118896
 31
0.0
  0
LINE
  5
296
330
4EA
100
AcDbEntity
  8
HATCH
  6
Continuous
 62
     7
370
    30
100
AcDbLine
 10
26.98376
 20
-7.03051
 30
0.0
 11
27.034615
 21
-6.979646
 31
0.0
  0
LINE
  5
297
330
4EA
100
AcDbEntity
  8
HATCH
  6
Continuous
 62
     7
370
    30
100
AcDbLine
 10
28.088417
 20
-5.925854
 30
0.0
 11
28.104417
 21
-5.909854
 31
0.0
  0
LINE
  5
298
330
4EA
100
AcDbEntity
  8
HATCH
  6
Continuous
 62
     7
370
    30
100
AcDbLine
 10
26.98376
 20
-7.207281
 30
0.0
 11
27.072146
 21
-7.118896
 31
0.0
  0
LINE
  5
299
330
4EA
100
AcDbEntity
  8
HATCH
  6
Continuous
 62
     7
370
    30
100
AcDbLine
 10
28.088417
 20
-6.102625
 30
0.0
 11
28.132802
 21
-6.05824
 31
0.0
  0
LINE
  5
29A
330
4EA
100
AcDbEntity
  8
HATCH
  6
Continuous
 62
     7
370
    30
100
AcDbLine
 10
27.160531
 20
-7.207281
 30
0.0
 11
27.248927
 21
-7.118896
 31
0.0
  0
LINE
  5
29B
330
4EA
100
AcDbEntity
  8
HATCH
  6
Continuous
 62
     7
370
    30
100
AcDbLine
 10
28.088417
 20
-6.279406
 30
0.0
 11
28.132802
 21
-6.23501
 31
0.0
  0
LINE
  5
29C
330
4EA
100
AcDbEntity
  8
HATCH
  6
Continuous
 62
     7
370
    30
100
AcDbLine
 10
28.221198
 20
-6.146625
 30
0.0
 11
28.305594
 21
-6.062229
 31
0.0
  0
LINE
  5
29D
330
4EA
100
AcDbEntity
  8
HATCH
  6
Continuous
 62
     7
370
    30
100
AcDbLine
 10
27.514083
 20
-6.853729
 30
0.0
 11
27.514344
 21
-6.853479
 31
0.0
  0
LINE
  5
29E
330
4EA
100
AcDbEntity
  8
HATCH
  6
Continuous
 62
     7
370
    30
100
AcDbLine
 10
27.337312
 20
-7.207281
 30
0.0
 11
27.425698
 21
-7.118896
 31
0.0
  0
LINE
  5
29F
330
4EA
100
AcDbEntity
  8
HATCH
  6
Continuous
 62
     7
370
    30
100
AcDbLine
 10
27.514083
 20
-7.03051
 30
0.0
 11
27.602479
 21
-6.942125
 31
0.0
  0
LINE
  5
2A0
330
4EA
100
AcDbEntity
  8
HATCH
  6
Continuous
 62
     7
370
    30
100
AcDbLine
 10
27.690865
 20
-6.853729
 30
0.0
 11
27.691115
 21
-6.853479
 31
0.0
  0
LINE
  5
2A1
330
4EA
100
AcDbEntity
  8
HATCH
  6
Continuous
 62
     7
370
    30
100
AcDbLine
 10
28.088417
 20
-6.456177
 30
0.0
 11
28.132802
 21
-6.411792
 31
0.0
  0
LINE
  5
2A2
330
4EA
100
AcDbEntity
  8
HATCH
  6
Continuous
 62
     7
370
    30
100
AcDbLine
 10
28.221198
 20
-6.323406
 30
0.0
 11
28.309583
 21
-6.23501
 31
0.0
  0
LINE
  5
2A3
330
4EA
100
AcDbEntity
  8
HATCH
  6
Continuous
 62
     7
370
    30
100
AcDbLine
 10
28.397969
 20
-6.146625
 30
0.0
 11
28.406177
 21
-6.138417
 31
0.0
  0
LINE
  5
2A4
330
4EA
100
AcDbEntity
  8
HATCH
  6
Continuous
 62
     7
370
    30
100
AcDbLine
 10
27.514083
 20
-7.207281
 30
0.0
 11
27.602479
 21
-7.118896
 31
0.0
  0
LINE
  5
2A5
330
4EA
100
AcDbEntity
  8
HATCH
  6
Continuous
 62
     7
370
    30
100
AcDbLine
 10
27.690865
 20
-7.03051
 30
0.0
 11
27.77925
 21
-6.942125
 31
0.0
  0
LINE
  5
2A6
330
4EA
100
AcDbEntity
  8
HATCH
  6
Continuous
 62
     7
370
    30
100
AcDbLine
 10
27.867646
 20
-6.853729
 30
0.0
 11
27.867896
 21
-6.853479
 31
0.0
  0
LINE
  5
2A7
330
4EA
100
AcDbEntity
  8
HATCH
  6
Continuous
 62
     7
370
    30
100
AcDbLine
 10
28.088417
 20
-6.632958
 30
0.0
 11
28.132802
 21
-6.588563
 31
0.0
  0
LINE
  5
2A8
330
4EA
100
AcDbEntity
  8
HATCH
  6
Continuous
 62
     7
370
    30
100
AcDbLine
 10
28.221198
 20
-6.500177
 30
0.0
 11
28.309583
 21
-6.411792
 31
0.0
  0
LINE
  5
2A9
330
4EA
100
AcDbEntity
  8
HATCH
  6
Continuous
 62
     7
370
    30
100
AcDbLine
 10
28.397969
 20
-6.323406
 30
0.0
 11
28.486354
 21
-6.23501
 31
0.0
  0
LINE
  5
2AA
330
4EA
100
AcDbEntity
  8
HATCH
  6
Continuous
 62
     7
370
    30
100
AcDbLine
 10
27.690865
 20
-7.207281
 30
0.0
 11
27.77925
 21
-7.118896
 31
0.0
  0
LINE
  5
2AB
330
4EA
100
AcDbEntity
  8
HATCH
  6
Continuous
 62
     7
370
    30
100
AcDbLine
 10
27.867646
 20
-7.03051
 30
0.0
 11
27.956031
 21
-6.942125
 31
0.0
  0
LINE
  5
2AC
330
4EA
100
AcDbEntity
  8
HATCH
  6
Continuous
 62
     7
370
    30
100
AcDbLine
 10
28.044417
 20
-6.853729
 30
0.0
 11
28.044667
 21
-6.853479
 31
0.0
  0
LINE
  5
2AD
330
4EA
100
AcDbEntity
  8
HATCH
  6
Continuous
 62
     7
370
    30
100
AcDbLine
 10
28.088417
 20
-6.809729
 30
0.0
 11
28.132802
 21
-6.765344
 31
0.0
  0
LINE
  5
2AE
330
4EA
100
AcDbEntity
  8
HATCH
  6
Continuous
 62
     7
370
    30
100
AcDbLine
 10
28.221198
 20
-6.676958
 30
0.0
 11
28.309583
 21
-6.588563
 31
0.0
  0
LINE
  5
2AF
330
4EA
100
AcDbEntity
  8
HATCH
  6
Continuous
 62
     7
370
    30
100
AcDbLine
 10
28.397969
 20
-6.500177
 30
0.0
 11
28.486354
 21
-6.411792
 31
0.0
  0
LINE
  5
2B0
330
4EA
100
AcDbEntity
  8
HATCH
  6
Continuous
 62
     7
370
    30
100
AcDbLine
 10
27.867646
 20
-7.207281
 30
0.0
 11
27.956031
 21
-7.118896
 31
0.0
  0
LINE
  5
2B1
330
4EA
100
AcDbEntity
  8
HATCH
  6
Continuous
 62
     7
370
    30
100
AcDbLine
 10
28.044417
 20
-7.03051
 30
0.0
 11
28.132802
 21
-6.942125
 31
0.0
  0
LINE
  5
2B2
330
4EA
100
AcDbEntity
  8
HATCH
  6
Continuous
 62
     7
370
    30
100
AcDbLine
 10
28.221198
 20
-6.853729
 30
0.0
 11
28.309583
 21
-6.765344
 31
0.0
  0
LINE
  5
2B3
330
4EA
100
AcDbEntity
  8
HATCH
  6
Continuous
 62
     7
370
    30
100
AcDbLine
 10
28.397969
 20
-6.676958
 30
0.0
 11
28.486354
 21
-6.588563
 31
0.0
  0
LINE
  5
2B4
330
4EA
100
AcDbEntity
  8
HATCH
  6
Continuous
 62
     7
370
    30
100
AcDbLine
 10
28.264823
 20
-6.986875
 30
0.0
 11
28.309583
 21
-6.942125
 31
0.0
  0
LINE
  5
2B5
330
4EA
100
AcDbEntity
  8
HATCH
  6
Continuous
 62
     7
370
    30
100
AcDbLine
 10
28.397969
 20
-6.853729
 30
0.0
 11
28.484302
 21
-6.767406
 31
0.0
  0
LINE
  5
2B6
330
4EA
100
AcDbEntity
  8
HATCH
  6
Continuous
 62
     7
370
    30
100
AcDbLine
 10
26.773833
 20
-7.174135
 30
0.0
 11
26.862219
 21
-7.08575
 31
0.0
  0
LINE
  5
2B7
330
4EA
100
AcDbEntity
  8
HATCH
  6
Continuous
 62
     7
370
    30
100
AcDbLine
 10
26.950615
 20
-6.997365
 30
0.0
 11
27.005615
 21
-6.942354
 31
0.0
  0
LINE
  5
2B8
330
4EA
100
AcDbEntity
  8
HATCH
  6
Continuous
 62
     7
370
    30
100
AcDbLine
 10
26.597062
 20
-7.174135
 30
0.0
 11
26.685448
 21
-7.08575
 31
0.0
  0
LINE
  5
2B9
330
4EA
100
AcDbEntity
  8
HATCH
  6
Continuous
 62
     7
370
    30
100
AcDbLine
 10
26.773833
 20
-6.997365
 30
0.0
 11
26.862219
 21
-6.908979
 31
0.0
  0
LINE
  5
2BA
330
4EA
100
AcDbEntity
  8
HATCH
  6
Continuous
 62
     7
370
    30
100
AcDbLine
 10
26.457531
 20
-7.136885
 30
0.0
 11
26.508667
 21
-7.08575
 31
0.0
  0
LINE
  5
2BB
330
4EA
100
AcDbEntity
  8
HATCH
  6
Continuous
 62
     7
370
    30
100
AcDbLine
 10
26.597062
 20
-6.997365
 30
0.0
 11
26.685448
 21
-6.908979
 31
0.0
  0
LINE
  5
2BC
330
4EA
100
AcDbEntity
  8
HATCH
  6
Continuous
 62
     7
370
    30
100
AcDbLine
 10
26.32949
 20
-7.088156
 30
0.0
 11
26.331896
 21
-7.08575
 31
0.0
  0
LINE
  5
2BD
330
4EA
100
AcDbEntity
  8
HATCH
  6
Continuous
 62
     7
370
    30
100
AcDbLine
 10
26.420281
 20
-6.997365
 30
0.0
 11
26.508667
 21
-6.908979
 31
0.0
  0
LINE
  5
2BE
330
4EA
100
AcDbEntity
  8
HATCH
  6
Continuous
 62
     7
370
    30
100
AcDbLine
 10
26.2435
 20
-6.997365
 30
0.0
 11
26.331896
 21
-6.908979
 31
0.0
  0
LINE
  5
2BF
330
4EA
100
AcDbEntity
  8
HATCH
  6
Continuous
 62
     7
370
    30
100
AcDbLine
 10
26.073385
 20
-6.990698
 30
0.0
 11
26.155115
 21
-6.908979
 31
0.0
  0
LINE
  5
2C0
330
4EA
100
AcDbEntity
  8
HATCH
  6
Continuous
 62
     7
370
    30
100
AcDbLine
 10
26.2435
 20
-6.820583
 30
0.0
 11
26.331896
 21
-6.732198
 31
0.0
  0
LINE
  5
2C1
330
4EA
100
AcDbEntity
  8
HATCH
  6
Continuous
 62
     7
370
    30
100
AcDbLine
 10
25.970875
 20
-6.916437
 30
0.0
 11
25.978344
 21
-6.908979
 31
0.0
  0
LINE
  5
2C2
330
4EA
100
AcDbEntity
  8
HATCH
  6
Continuous
 62
     7
370
    30
100
AcDbLine
 10
26.066729
 20
-6.820583
 30
0.0
 11
26.155115
 21
-6.732198
 31
0.0
  0
LINE
  5
2C3
330
4EA
100
AcDbEntity
  8
HATCH
  6
Continuous
 62
     7
370
    30
100
AcDbLine
 10
26.2435
 20
-6.643813
 30
0.0
 11
26.331896
 21
-6.555417
 31
0.0
  0
LINE
  5
2C4
330
4EA
100
AcDbEntity
  8
HATCH
  6
Continuous
 62
     7
370
    30
100
AcDbLine
 10
25.974281
 20
-6.73626
 30
0.0
 11
25.978344
 21
-6.732198
 31
0.0
  0
LINE
  5
2C5
330
4EA
100
AcDbEntity
  8
HATCH
  6
Continuous
 62
     7
370
    30
100
AcDbLine
 10
26.066729
 20
-6.643813
 30
0.0
 11
26.155115
 21
-6.555417
 31
0.0
  0
LINE
  5
2C6
330
4EA
100
AcDbEntity
  8
HATCH
  6
Continuous
 62
     7
370
    30
100
AcDbLine
 10
26.2435
 20
-6.467031
 30
0.0
 11
26.331896
 21
-6.378646
 31
0.0
  0
LINE
  5
2C7
330
4EA
100
AcDbEntity
  8
HATCH
  6
Continuous
 62
     7
370
    30
100
AcDbLine
 10
25.977677
 20
-6.556083
 30
0.0
 11
25.978344
 21
-6.555417
 31
0.0
  0
LINE
  5
2C8
330
4EA
100
AcDbEntity
  8
HATCH
  6
Continuous
 62
     7
370
    30
100
AcDbLine
 10
26.066729
 20
-6.467031
 30
0.0
 11
26.155115
 21
-6.378646
 31
0.0
  0
LINE
  5
2C9
330
4EA
100
AcDbEntity
  8
HATCH
  6
Continuous
 62
     7
370
    30
100
AcDbLine
 10
26.2435
 20
-6.29026
 30
0.0
 11
26.331896
 21
-6.201865
 31
0.0
  0
LINE
  5
2CA
330
4EA
100
AcDbEntity
  8
HATCH
  6
Continuous
 62
     7
370
    30
100
AcDbLine
 10
26.066729
 20
-6.29026
 30
0.0
 11
26.155115
 21
-6.201865
 31
0.0
  0
LINE
  5
2CB
330
4EA
100
AcDbEntity
  8
HATCH
  6
Continuous
 62
     7
370
    30
100
AcDbLine
 10
26.2435
 20
-6.113479
 30
0.0
 11
26.267656
 21
-6.089323
 31
0.0
  0
LINE
  5
2CC
330
4EA
100
AcDbEntity
  8
HATCH
  6
Continuous
 62
     7
370
    30
100
AcDbLine
 10
26.950615
 20
-7.174135
 30
0.0
 11
27.039
 21
-7.08575
 31
0.0
  0
LINE
  5
2CD
330
4EA
100
AcDbEntity
  8
HATCH
  6
Continuous
 62
     7
370
    30
100
AcDbLine
 10
28.088417
 20
-6.036333
 30
0.0
 11
28.099656
 21
-6.025094
 31
0.0
  0
LINE
  5
2CE
330
4EA
100
AcDbEntity
  8
HATCH
  6
Continuous
 62
     7
370
    30
100
AcDbLine
 10
27.127385
 20
-7.174135
 30
0.0
 11
27.215781
 21
-7.08575
 31
0.0
  0
LINE
  5
2CF
330
4EA
100
AcDbEntity
  8
HATCH
  6
Continuous
 62
     7
370
    30
100
AcDbLine
 10
28.088417
 20
-6.213115
 30
0.0
 11
28.099656
 21
-6.201865
 31
0.0
  0
LINE
  5
2D0
330
4EA
100
AcDbEntity
  8
HATCH
  6
Continuous
 62
     7
370
    30
100
AcDbLine
 10
28.188052
 20
-6.113479
 30
0.0
 11
28.267865
 21
-6.033656
 31
0.0
  0
LINE
  5
2D1
330
4EA
100
AcDbEntity
  8
HATCH
  6
Continuous
 62
     7
370
    30
100
AcDbLine
 10
27.304167
 20
-7.174135
 30
0.0
 11
27.392552
 21
-7.08575
 31
0.0
  0
LINE
  5
2D2
330
4EA
100
AcDbEntity
  8
HATCH
  6
Continuous
 62
     7
370
    30
100
AcDbLine
 10
27.480937
 20
-6.997365
 30
0.0
 11
27.569333
 21
-6.908979
 31
0.0
  0
LINE
  5
2D3
330
4EA
100
AcDbEntity
  8
HATCH
  6
Continuous
 62
     7
370
    30
100
AcDbLine
 10
28.088417
 20
-6.389885
 30
0.0
 11
28.099656
 21
-6.378646
 31
0.0
  0
LINE
  5
2D4
330
4EA
100
AcDbEntity
  8
HATCH
  6
Continuous
 62
     7
370
    30
100
AcDbLine
 10
28.188052
 20
-6.29026
 30
0.0
 11
28.276438
 21
-6.201865
 31
0.0
  0
LINE
  5
2D5
330
4EA
100
AcDbEntity
  8
HATCH
  6
Continuous
 62
     7
370
    30
100
AcDbLine
 10
28.364823
 20
-6.113479
 30
0.0
 11
28.368458
 21
-6.109844
 31
0.0
  0
LINE
  5
2D6
330
4EA
100
AcDbEntity
  8
HATCH
  6
Continuous
 62
     7
370
    30
100
AcDbLine
 10
27.480937
 20
-7.174135
 30
0.0
 11
27.569333
 21
-7.08575
 31
0.0
  0
LINE
  5
2D7
330
4EA
100
AcDbEntity
  8
HATCH
  6
Continuous
 62
     7
370
    30
100
AcDbLine
 10
27.657719
 20
-6.997365
 30
0.0
 11
27.746104
 21
-6.908979
 31
0.0
  0
LINE
  5
2D8
330
4EA
100
AcDbEntity
  8
HATCH
  6
Continuous
 62
     7
370
    30
100
AcDbLine
 10
28.088417
 20
-6.566667
 30
0.0
 11
28.099656
 21
-6.555417
 31
0.0
  0
LINE
  5
2D9
330
4EA
100
AcDbEntity
  8
HATCH
  6
Continuous
 62
     7
370
    30
100
AcDbLine
 10
28.188052
 20
-6.467031
 30
0.0
 11
28.276438
 21
-6.378646
 31
0.0
  0
LINE
  5
2DA
330
4EA
100
AcDbEntity
  8
HATCH
  6
Continuous
 62
     7
370
    30
100
AcDbLine
 10
28.364823
 20
-6.29026
 30
0.0
 11
28.453208
 21
-6.201865
 31
0.0
  0
LINE
  5
2DB
330
4EA
100
AcDbEntity
  8
HATCH
  6
Continuous
 62
     7
370
    30
100
AcDbLine
 10
27.657719
 20
-7.174135
 30
0.0
 11
27.746104
 21
-7.08575
 31
0.0
  0
LINE
  5
2DC
330
4EA
100
AcDbEntity
  8
HATCH
  6
Continuous
 62
     7
370
    30
100
AcDbLine
 10
27.8345
 20
-6.997365
 30
0.0
 11
27.922885
 21
-6.908979
 31
0.0
  0
LINE
  5
2DD
330
4EA
100
AcDbEntity
  8
HATCH
  6
Continuous
 62
     7
370
    30
100
AcDbLine
 10
28.088417
 20
-6.743437
 30
0.0
 11
28.099656
 21
-6.732198
 31
0.0
  0
LINE
  5
2DE
330
4EA
100
AcDbEntity
  8
HATCH
  6
Continuous
 62
     7
370
    30
100
AcDbLine
 10
28.188052
 20
-6.643813
 30
0.0
 11
28.276438
 21
-6.555417
 31
0.0
  0
LINE
  5
2DF
330
4EA
100
AcDbEntity
  8
HATCH
  6
Continuous
 62
     7
370
    30
100
AcDbLine
 10
28.364823
 20
-6.467031
 30
0.0
 11
28.453208
 21
-6.378646
 31
0.0
  0
LINE
  5
2E0
330
4EA
100
AcDbEntity
  8
HATCH
  6
Continuous
 62
     7
370
    30
100
AcDbLine
 10
27.744125
 20
-7.26451
 30
0.0
 11
27.746104
 21
-7.262531
 31
0.0
  0
LINE
  5
2E1
330
4EA
100
AcDbEntity
  8
HATCH
  6
Continuous
 62
     7
370
    30
100
AcDbLine
 10
27.8345
 20
-7.174135
 30
0.0
 11
27.922885
 21
-7.08575
 31
0.0
  0
LINE
  5
2E2
330
4EA
100
AcDbEntity
  8
HATCH
  6
Continuous
 62
     7
370
    30
100
AcDbLine
 10
28.011271
 20
-6.997365
 30
0.0
 11
28.099656
 21
-6.908979
 31
0.0
  0
LINE
  5
2E3
330
4EA
100
AcDbEntity
  8
HATCH
  6
Continuous
 62
     7
370
    30
100
AcDbLine
 10
28.188052
 20
-6.820583
 30
0.0
 11
28.276438
 21
-6.732198
 31
0.0
  0
LINE
  5
2E4
330
4EA
100
AcDbEntity
  8
HATCH
  6
Continuous
 62
     7
370
    30
100
AcDbLine
 10
28.364823
 20
-6.643813
 30
0.0
 11
28.453208
 21
-6.555417
 31
0.0
  0
LINE
  5
2E5
330
4EA
100
AcDbEntity
  8
HATCH
  6
Continuous
 62
     7
370
    30
100
AcDbLine
 10
28.068
 20
-7.117406
 30
0.0
 11
28.099656
 21
-7.08575
 31
0.0
  0
LINE
  5
2E6
330
4EA
100
AcDbEntity
  8
HATCH
  6
Continuous
 62
     7
370
    30
100
AcDbLine
 10
28.188052
 20
-6.997365
 30
0.0
 11
28.276438
 21
-6.908979
 31
0.0
  0
LINE
  5
2E7
330
4EA
100
AcDbEntity
  8
HATCH
  6
Continuous
 62
     7
370
    30
100
AcDbLine
 10
28.364823
 20
-6.820583
 30
0.0
 11
28.453208
 21
-6.732198
 31
0.0
  0
LINE
  5
2E8
330
4EA
100
AcDbEntity
  8
HATCH
  6
Continuous
 62
     7
370
    30
100
AcDbLine
 10
26.740687
 20
-7.14099
 30
0.0
 11
26.829073
 21
-7.052604
 31
0.0
  0
LINE
  5
2E9
330
4EA
100
AcDbEntity
  8
HATCH
  6
Continuous
 62
     7
370
    30
100
AcDbLine
 10
26.917469
 20
-6.964219
 30
0.0
 11
26.983927
 21
-6.89775
 31
0.0
  0
LINE
  5
2EA
330
4EA
100
AcDbEntity
  8
HATCH
  6
Continuous
 62
     7
370
    30
100
AcDbLine
 10
26.563917
 20
-7.14099
 30
0.0
 11
26.652302
 21
-7.052604
 31
0.0
  0
LINE
  5
2EB
330
4EA
100
AcDbEntity
  8
HATCH
  6
Continuous
 62
     7
370
    30
100
AcDbLine
 10
26.740687
 20
-6.964219
 30
0.0
 11
26.829073
 21
-6.875833
 31
0.0
  0
LINE
  5
2EC
330
4EA
100
AcDbEntity
  8
HATCH
  6
Continuous
 62
     7
370
    30
100
AcDbLine
 10
26.409521
 20
-7.118615
 30
0.0
 11
26.475521
 21
-7.052604
 31
0.0
  0
LINE
  5
2ED
330
4EA
100
AcDbEntity
  8
HATCH
  6
Continuous
 62
     7
370
    30
100
AcDbLine
 10
26.563917
 20
-6.964219
 30
0.0
 11
26.652302
 21
-6.875833
 31
0.0
  0
LINE
  5
2EE
330
4EA
100
AcDbEntity
  8
HATCH
  6
Continuous
 62
     7
370
    30
100
AcDbLine
 10
26.281469
 20
-7.069885
 30
0.0
 11
26.29875
 21
-7.052604
 31
0.0
  0
LINE
  5
2EF
330
4EA
100
AcDbEntity
  8
HATCH
  6
Continuous
 62
     7
370
    30
100
AcDbLine
 10
26.387135
 20
-6.964219
 30
0.0
 11
26.475521
 21
-6.875833
 31
0.0
  0
LINE
  5
2F0
330
4EA
100
AcDbEntity
  8
HATCH
  6
Continuous
 62
     7
370
    30
100
AcDbLine
 10
26.210354
 20
-6.964219
 30
0.0
 11
26.29875
 21
-6.875833
 31
0.0
  0
LINE
  5
2F1
330
4EA
100
AcDbEntity
  8
HATCH
  6
Continuous
 62
     7
370
    30
100
AcDbLine
 10
26.387135
 20
-6.787437
 30
0.0
 11
26.388417
 21
-6.786156
 31
0.0
  0
LINE
  5
2F2
330
4EA
100
AcDbEntity
  8
HATCH
  6
Continuous
 62
     7
370
    30
100
AcDbLine
 10
26.033583
 20
-6.964219
 30
0.0
 11
26.121969
 21
-6.875833
 31
0.0
  0
LINE
  5
2F3
330
4EA
100
AcDbEntity
  8
HATCH
  6
Continuous
 62
     7
370
    30
100
AcDbLine
 10
26.210354
 20
-6.787437
 30
0.0
 11
26.29875
 21
-6.699052
 31
0.0
  0
LINE
  5
2F4
330
4EA
100
AcDbEntity
  8
HATCH
  6
Continuous
 62
     7
370
    30
100
AcDbLine
 10
26.387135
 20
-6.610667
 30
0.0
 11
26.388417
 21
-6.609385
 31
0.0
  0
LINE
  5
2F5
330
4EA
100
AcDbEntity
  8
HATCH
  6
Continuous
 62
     7
370
    30
100
AcDbLine
 10
26.033583
 20
-6.787437
 30
0.0
 11
26.121969
 21
-6.699052
 31
0.0
  0
LINE
  5
2F6
330
4EA
100
AcDbEntity
  8
HATCH
  6
Continuous
 62
     7
370
    30
100
AcDbLine
 10
26.210354
 20
-6.610667
 30
0.0
 11
26.29875
 21
-6.522271
 31
0.0
  0
LINE
  5
2F7
330
4EA
100
AcDbEntity
  8
HATCH
  6
Continuous
 62
     7
370
    30
100
AcDbLine
 10
26.387135
 20
-6.433885
 30
0.0
 11
26.388417
 21
-6.432604
 31
0.0
  0
LINE
  5
2F8
330
4EA
100
AcDbEntity
  8
HATCH
  6
Continuous
 62
     7
370
    30
100
AcDbLine
 10
26.033583
 20
-6.610667
 30
0.0
 11
26.121969
 21
-6.522271
 31
0.0
  0
LINE
  5
2F9
330
4EA
100
AcDbEntity
  8
HATCH
  6
Continuous
 62
     7
370
    30
100
AcDbLine
 10
26.210354
 20
-6.433885
 30
0.0
 11
26.29875
 21
-6.3455
 31
0.0
  0
LINE
  5
2FA
330
4EA
100
AcDbEntity
  8
HATCH
  6
Continuous
 62
     7
370
    30
100
AcDbLine
 10
26.387135
 20
-6.257115
 30
0.0
 11
26.388417
 21
-6.255833
 31
0.0
  0
LINE
  5
2FB
330
4EA
100
AcDbEntity
  8
HATCH
  6
Continuous
 62
     7
370
    30
100
AcDbLine
 10
26.033583
 20
-6.433885
 30
0.0
 11
26.121969
 21
-6.3455
 31
0.0
  0
LINE
  5
2FC
330
4EA
100
AcDbEntity
  8
HATCH
  6
Continuous
 62
     7
370
    30
100
AcDbLine
 10
26.210354
 20
-6.257115
 30
0.0
 11
26.29875
 21
-6.168719
 31
0.0
  0
LINE
  5
2FD
330
4EA
100
AcDbEntity
  8
HATCH
  6
Continuous
 62
     7
370
    30
100
AcDbLine
 10
26.387135
 20
-6.080333
 30
0.0
 11
26.388417
 21
-6.079052
 31
0.0
  0
LINE
  5
2FE
330
4EA
100
AcDbEntity
  8
HATCH
  6
Continuous
 62
     7
370
    30
100
AcDbLine
 10
26.033583
 20
-6.257115
 30
0.0
 11
26.121969
 21
-6.168719
 31
0.0
  0
LINE
  5
2FF
330
4EA
100
AcDbEntity
  8
HATCH
  6
Continuous
 62
     7
370
    30
100
AcDbLine
 10
26.816312
 20
-7.242146
 30
0.0
 11
26.829073
 21
-7.229385
 31
0.0
  0
LINE
  5
300
330
4EA
100
AcDbEntity
  8
HATCH
  6
Continuous
 62
     7
370
    30
100
AcDbLine
 10
26.917469
 20
-7.14099
 30
0.0
 11
27.005854
 21
-7.052604
 31
0.0
  0
LINE
  5
301
330
4EA
100
AcDbEntity
  8
HATCH
  6
Continuous
 62
     7
370
    30
100
AcDbLine
 10
26.988927
 20
-7.246302
 30
0.0
 11
27.005854
 21
-7.229385
 31
0.0
  0
LINE
  5
302
330
4EA
100
AcDbEntity
  8
HATCH
  6
Continuous
 62
     7
370
    30
100
AcDbLine
 10
27.09424
 20
-7.14099
 30
0.0
 11
27.174906
 21
-7.060333
 31
0.0
  0
LINE
  5
303
330
4EA
100
AcDbEntity
  8
HATCH
  6
Continuous
 62
     7
370
    30
100
AcDbLine
 10
28.154906
 20
-6.080333
 30
0.0
 11
28.230146
 21
-6.005083
 31
0.0
  0
LINE
  5
304
330
4EA
100
AcDbEntity
  8
HATCH
  6
Continuous
 62
     7
370
    30
100
AcDbLine
 10
27.161542
 20
-7.250469
 30
0.0
 11
27.182635
 21
-7.229385
 31
0.0
  0
LINE
  5
305
330
4EA
100
AcDbEntity
  8
HATCH
  6
Continuous
 62
     7
370
    30
100
AcDbLine
 10
27.271021
 20
-7.14099
 30
0.0
 11
27.359406
 21
-7.052604
 31
0.0
  0
LINE
  5
306
330
4EA
100
AcDbEntity
  8
HATCH
  6
Continuous
 62
     7
370
    30
100
AcDbLine
 10
28.154906
 20
-6.257115
 30
0.0
 11
28.243292
 21
-6.168719
 31
0.0
  0
LINE
  5
307
330
4EA
100
AcDbEntity
  8
HATCH
  6
Continuous
 62
     7
370
    30
100
AcDbLine
 10
27.48401
 20
-6.928
 30
0.0
 11
27.536188
 21
-6.875833
 31
0.0
  0
LINE
  5
308
330
4EA
100
AcDbEntity
  8
HATCH
  6
Continuous
 62
     7
370
    30
100
AcDbLine
 10
27.334167
 20
-7.254625
 30
0.0
 11
27.359406
 21
-7.229385
 31
0.0
  0
LINE
  5
309
330
4EA
100
AcDbEntity
  8
HATCH
  6
Continuous
 62
     7
370
    30
100
AcDbLine
 10
27.447792
 20
-7.14099
 30
0.0
 11
27.536188
 21
-7.052604
 31
0.0
  0
LINE
  5
30A
330
4EA
100
AcDbEntity
  8
HATCH
  6
Continuous
 62
     7
370
    30
100
AcDbLine
 10
27.624573
 20
-6.964219
 30
0.0
 11
27.712958
 21
-6.875833
 31
0.0
  0
LINE
  5
30B
330
4EA
100
AcDbEntity
  8
HATCH
  6
Continuous
 62
     7
370
    30
100
AcDbLine
 10
28.154906
 20
-6.433885
 30
0.0
 11
28.243292
 21
-6.3455
 31
0.0
  0
LINE
  5
30C
330
4EA
100
AcDbEntity
  8
HATCH
  6
Continuous
 62
     7
370
    30
100
AcDbLine
 10
28.331677
 20
-6.257115
 30
0.0
 11
28.420073
 21
-6.168719
 31
0.0
  0
LINE
  5
30D
330
4EA
100
AcDbEntity
  8
HATCH
  6
Continuous
 62
     7
370
    30
100
AcDbLine
 10
27.506781
 20
-7.258781
 30
0.0
 11
27.536188
 21
-7.229385
 31
0.0
  0
LINE
  5
30E
330
4EA
100
AcDbEntity
  8
HATCH
  6
Continuous
 62
     7
370
    30
100
AcDbLine
 10
27.624573
 20
-7.14099
 30
0.0
 11
27.712958
 21
-7.052604
 31
0.0
  0
LINE
  5
30F
330
4EA
100
AcDbEntity
  8
HATCH
  6
Continuous
 62
     7
370
    30
100
AcDbLine
 10
27.801354
 20
-6.964219
 30
0.0
 11
27.88974
 21
-6.875833
 31
0.0
  0
LINE
  5
310
330
4EA
100
AcDbEntity
  8
HATCH
  6
Continuous
 62
     7
370
    30
100
AcDbLine
 10
28.154906
 20
-6.610667
 30
0.0
 11
28.243292
 21
-6.522271
 31
0.0
  0
LINE
  5
311
330
4EA
100
AcDbEntity
  8
HATCH
  6
Continuous
 62
     7
370
    30
100
AcDbLine
 10
28.331677
 20
-6.433885
 30
0.0
 11
28.420073
 21
-6.3455
 31
0.0
  0
LINE
  5
312
330
4EA
100
AcDbEntity
  8
HATCH
  6
Continuous
 62
     7
370
    30
100
AcDbLine
 10
28.508458
 20
-6.257115
 30
0.0
 11
28.511917
 21
-6.253646
 31
0.0
  0
LINE
  5
313
330
4EA
100
AcDbEntity
  8
HATCH
  6
Continuous
 62
     7
370
    30
100
AcDbLine
 10
27.679396
 20
-7.262948
 30
0.0
 11
27.712958
 21
-7.229385
 31
0.0
  0
LINE
  5
314
330
4EA
100
AcDbEntity
  8
HATCH
  6
Continuous
 62
     7
370
    30
100
AcDbLine
 10
27.801354
 20
-7.14099
 30
0.0
 11
27.88974
 21
-7.052604
 31
0.0
  0
LINE
  5
315
330
4EA
100
AcDbEntity
  8
HATCH
  6
Continuous
 62
     7
370
    30
100
AcDbLine
 10
27.978125
 20
-6.964219
 30
0.0
 11
28.06651
 21
-6.875833
 31
0.0
  0
LINE
  5
316
330
4EA
100
AcDbEntity
  8
HATCH
  6
Continuous
 62
     7
370
    30
100
AcDbLine
 10
28.154906
 20
-6.787437
 30
0.0
 11
28.243292
 21
-6.699052
 31
0.0
  0
LINE
  5
317
330
4EA
100
AcDbEntity
  8
HATCH
  6
Continuous
 62
     7
370
    30
100
AcDbLine
 10
28.331677
 20
-6.610667
 30
0.0
 11
28.420073
 21
-6.522271
 31
0.0
  0
LINE
  5
318
330
4EA
100
AcDbEntity
  8
HATCH
  6
Continuous
 62
     7
370
    30
100
AcDbLine
 10
27.871177
 20
-7.247937
 30
0.0
 11
27.88974
 21
-7.229385
 31
0.0
  0
LINE
  5
319
330
4EA
100
AcDbEntity
  8
HATCH
  6
Continuous
 62
     7
370
    30
100
AcDbLine
 10
27.978125
 20
-7.14099
 30
0.0
 11
28.06651
 21
-7.052604
 31
0.0
  0
LINE
  5
31A
330
4EA
100
AcDbEntity
  8
HATCH
  6
Continuous
 62
     7
370
    30
100
AcDbLine
 10
28.154906
 20
-6.964219
 30
0.0
 11
28.243292
 21
-6.875833
 31
0.0
  0
LINE
  5
31B
330
4EA
100
AcDbEntity
  8
HATCH
  6
Continuous
 62
     7
370
    30
100
AcDbLine
 10
28.331677
 20
-6.787437
 30
0.0
 11
28.420073
 21
-6.699052
 31
0.0
  0
LINE
  5
31C
330
4EA
100
AcDbEntity
  8
HATCH
  6
Continuous
 62
     7
370
    30
100
AcDbLine
 10
28.396042
 20
-6.899854
 30
0.0
 11
28.420073
 21
-6.875833
 31
0.0
  0
LINE
  5
31D
330
4EA
100
AcDbEntity
  8
HATCH
  6
Continuous
 62
     7
370
    30
100
AcDbLine
 10
27.770823
 20
-7.265146
 30
0.0
 11
27.712958
 21
-7.207281
 31
0.0
  0
LINE
  5
31E
330
4EA
100
AcDbEntity
  8
HATCH
  6
Continuous
 62
     7
370
    30
100
AcDbLine
 10
27.624573
 20
-7.118896
 30
0.0
 11
27.536188
 21
-7.03051
 31
0.0
  0
LINE
  5
31F
330
4EA
100
AcDbEntity
  8
HATCH
  6
Continuous
 62
     7
370
    30
100
AcDbLine
 10
27.589688
 20
-7.260781
 30
0.0
 11
27.536188
 21
-7.207281
 31
0.0
  0
LINE
  5
320
330
4EA
100
AcDbEntity
  8
HATCH
  6
Continuous
 62
     7
370
    30
100
AcDbLine
 10
27.447792
 20
-7.118896
 30
0.0
 11
27.363323
 21
-7.034427
 31
0.0
  0
LINE
  5
321
330
4EA
100
AcDbEntity
  8
HATCH
  6
Continuous
 62
     7
370
    30
100
AcDbLine
 10
26.387135
 20
-6.05824
 30
0.0
 11
26.366031
 21
-6.037135
 31
0.0
  0
LINE
  5
322
330
4EA
100
AcDbEntity
  8
HATCH
  6
Continuous
 62
     7
370
    30
100
AcDbLine
 10
27.408542
 20
-7.256417
 30
0.0
 11
27.359406
 21
-7.207281
 31
0.0
  0
LINE
  5
323
330
4EA
100
AcDbEntity
  8
HATCH
  6
Continuous
 62
     7
370
    30
100
AcDbLine
 10
27.271021
 20
-7.118896
 30
0.0
 11
27.214437
 21
-7.062312
 31
0.0
  0
LINE
  5
324
330
4EA
100
AcDbEntity
  8
HATCH
  6
Continuous
 62
     7
370
    30
100
AcDbLine
 10
26.387135
 20
-6.23501
 30
0.0
 11
26.29875
 21
-6.146625
 31
0.0
  0
LINE
  5
325
330
4EA
100
AcDbEntity
  8
HATCH
  6
Continuous
 62
     7
370
    30
100
AcDbLine
 10
27.227396
 20
-7.252052
 30
0.0
 11
27.182635
 21
-7.207281
 31
0.0
  0
LINE
  5
326
330
4EA
100
AcDbEntity
  8
HATCH
  6
Continuous
 62
     7
370
    30
100
AcDbLine
 10
27.09424
 20
-7.118896
 30
0.0
 11
27.005854
 21
-7.03051
 31
0.0
  0
LINE
  5
327
330
4EA
100
AcDbEntity
  8
HATCH
  6
Continuous
 62
     7
370
    30
100
AcDbLine
 10
26.917469
 20
-6.942125
 30
0.0
 11
26.829073
 21
-6.853729
 31
0.0
  0
LINE
  5
328
330
4EA
100
AcDbEntity
  8
HATCH
  6
Continuous
 62
     7
370
    30
100
AcDbLine
 10
26.387135
 20
-6.411792
 30
0.0
 11
26.29875
 21
-6.323406
 31
0.0
  0
LINE
  5
329
330
4EA
100
AcDbEntity
  8
HATCH
  6
Continuous
 62
     7
370
    30
100
AcDbLine
 10
26.210354
 20
-6.23501
 30
0.0
 11
26.135042
 21
-6.159687
 31
0.0
  0
LINE
  5
32A
330
4EA
100
AcDbEntity
  8
HATCH
  6
Continuous
 62
     7
370
    30
100
AcDbLine
 10
27.04626
 20
-7.247687
 30
0.0
 11
27.005854
 21
-7.207281
 31
0.0
  0
LINE
  5
32B
330
4EA
100
AcDbEntity
  8
HATCH
  6
Continuous
 62
     7
370
    30
100
AcDbLine
 10
26.917469
 20
-7.118896
 30
0.0
 11
26.829073
 21
-7.03051
 31
0.0
  0
LINE
  5
32C
330
4EA
100
AcDbEntity
  8
HATCH
  6
Continuous
 62
     7
370
    30
100
AcDbLine
 10
26.740687
 20
-6.942125
 30
0.0
 11
26.652302
 21
-6.853729
 31
0.0
  0
LINE
  5
32D
330
4EA
100
AcDbEntity
  8
HATCH
  6
Continuous
 62
     7
370
    30
100
AcDbLine
 10
26.387135
 20
-6.588563
 30
0.0
 11
26.29875
 21
-6.500177
 31
0.0
  0
LINE
  5
32E
330
4EA
100
AcDbEntity
  8
HATCH
  6
Continuous
 62
     7
370
    30
100
AcDbLine
 10
26.210354
 20
-6.411792
 30
0.0
 11
26.121969
 21
-6.323406
 31
0.0
  0
LINE
  5
32F
330
4EA
100
AcDbEntity
  8
HATCH
  6
Continuous
 62
     7
370
    30
100
AcDbLine
 10
26.033583
 20
-6.23501
 30
0.0
 11
26.019542
 21
-6.220969
 31
0.0
  0
LINE
  5
330
330
4EA
100
AcDbEntity
  8
HATCH
  6
Continuous
 62
     7
370
    30
100
AcDbLine
 10
26.865115
 20
-7.243323
 30
0.0
 11
26.829073
 21
-7.207281
 31
0.0
  0
LINE
  5
331
330
4EA
100
AcDbEntity
  8
HATCH
  6
Continuous
 62
     7
370
    30
100
AcDbLine
 10
26.740687
 20
-7.118896
 30
0.0
 11
26.652302
 21
-7.03051
 31
0.0
  0
LINE
  5
332
330
4EA
100
AcDbEntity
  8
HATCH
  6
Continuous
 62
     7
370
    30
100
AcDbLine
 10
26.563917
 20
-6.942125
 30
0.0
 11
26.475521
 21
-6.853729
 31
0.0
  0
LINE
  5
333
330
4EA
100
AcDbEntity
  8
HATCH
  6
Continuous
 62
     7
370
    30
100
AcDbLine
 10
26.387135
 20
-6.765344
 30
0.0
 11
26.29875
 21
-6.676958
 31
0.0
  0
LINE
  5
334
330
4EA
100
AcDbEntity
  8
HATCH
  6
Continuous
 62
     7
370
    30
100
AcDbLine
 10
26.210354
 20
-6.588563
 30
0.0
 11
26.121969
 21
-6.500177
 31
0.0
  0
LINE
  5
335
330
4EA
100
AcDbEntity
  8
HATCH
  6
Continuous
 62
     7
370
    30
100
AcDbLine
 10
26.033583
 20
-6.411792
 30
0.0
 11
25.981385
 21
-6.359594
 31
0.0
  0
LINE
  5
336
330
4EA
100
AcDbEntity
  8
HATCH
  6
Continuous
 62
     7
370
    30
100
AcDbLine
 10
26.658312
 20
-7.213292
 30
0.0
 11
26.652302
 21
-7.207281
 31
0.0
  0
LINE
  5
337
330
4EA
100
AcDbEntity
  8
HATCH
  6
Continuous
 62
     7
370
    30
100
AcDbLine
 10
26.563917
 20
-7.118896
 30
0.0
 11
26.475521
 21
-7.03051
 31
0.0
  0
LINE
  5
338
330
4EA
100
AcDbEntity
  8
HATCH
  6
Continuous
 62
     7
370
    30
100
AcDbLine
 10
26.387135
 20
-6.942125
 30
0.0
 11
26.29875
 21
-6.853729
 31
0.0
  0
LINE
  5
339
330
4EA
100
AcDbEntity
  8
HATCH
  6
Continuous
 62
     7
370
    30
100
AcDbLine
 10
26.210354
 20
-6.765344
 30
0.0
 11
26.121969
 21
-6.676958
 31
0.0
  0
LINE
  5
33A
330
4EA
100
AcDbEntity
  8
HATCH
  6
Continuous
 62
     7
370
    30
100
AcDbLine
 10
26.033583
 20
-6.588563
 30
0.0
 11
25.978115
 21
-6.533094
 31
0.0
  0
LINE
  5
33B
330
4EA
100
AcDbEntity
  8
HATCH
  6
Continuous
 62
     7
370
    30
100
AcDbLine
 10
26.372927
 20
-7.104687
 30
0.0
 11
26.29875
 21
-7.03051
 31
0.0
  0
LINE
  5
33C
330
4EA
100
AcDbEntity
  8
HATCH
  6
Continuous
 62
     7
370
    30
100
AcDbLine
 10
26.210354
 20
-6.942125
 30
0.0
 11
26.121969
 21
-6.853729
 31
0.0
  0
LINE
  5
33D
330
4EA
100
AcDbEntity
  8
HATCH
  6
Continuous
 62
     7
370
    30
100
AcDbLine
 10
26.033583
 20
-6.765344
 30
0.0
 11
25.974833
 21
-6.706594
 31
0.0
  0
LINE
  5
33E
330
4EA
100
AcDbEntity
  8
HATCH
  6
Continuous
 62
     7
370
    30
100
AcDbLine
 10
26.033583
 20
-6.942125
 30
0.0
 11
25.971562
 21
-6.880104
 31
0.0
  0
LINE
  5
33F
330
4EA
100
AcDbEntity
  8
HATCH
  6
Continuous
 62
     7
370
    30
100
AcDbLine
 10
27.906781
 20
-7.224333
 30
0.0
 11
27.88974
 21
-7.207281
 31
0.0
  0
LINE
  5
340
330
4EA
100
AcDbEntity
  8
HATCH
  6
Continuous
 62
     7
370
    30
100
AcDbLine
 10
27.801354
 20
-7.118896
 30
0.0
 11
27.712958
 21
-7.03051
 31
0.0
  0
LINE
  5
341
330
4EA
100
AcDbEntity
  8
HATCH
  6
Continuous
 62
     7
370
    30
100
AcDbLine
 10
27.624573
 20
-6.942125
 30
0.0
 11
27.536188
 21
-6.853729
 31
0.0
  0
LINE
  5
342
330
4EA
100
AcDbEntity
  8
HATCH
  6
Continuous
 62
     7
370
    30
100
AcDbLine
 10
27.978125
 20
-7.118896
 30
0.0
 11
27.88974
 21
-7.03051
 31
0.0
  0
LINE
  5
343
330
4EA
100
AcDbEntity
  8
HATCH
  6
Continuous
 62
     7
370
    30
100
AcDbLine
 10
27.801354
 20
-6.942125
 30
0.0
 11
27.712958
 21
-6.853729
 31
0.0
  0
LINE
  5
344
330
4EA
100
AcDbEntity
  8
HATCH
  6
Continuous
 62
     7
370
    30
100
AcDbLine
 10
28.119354
 20
-7.083354
 30
0.0
 11
28.06651
 21
-7.03051
 31
0.0
  0
LINE
  5
345
330
4EA
100
AcDbEntity
  8
HATCH
  6
Continuous
 62
     7
370
    30
100
AcDbLine
 10
27.978125
 20
-6.942125
 30
0.0
 11
27.88974
 21
-6.853729
 31
0.0
  0
LINE
  5
346
330
4EA
100
AcDbEntity
  8
HATCH
  6
Continuous
 62
     7
370
    30
100
AcDbLine
 10
28.154906
 20
-6.942125
 30
0.0
 11
28.06651
 21
-6.853729
 31
0.0
  0
LINE
  5
347
330
4EA
100
AcDbEntity
  8
HATCH
  6
Continuous
 62
     7
370
    30
100
AcDbLine
 10
28.331677
 20
-6.942125
 30
0.0
 11
28.243292
 21
-6.853729
 31
0.0
  0
LINE
  5
348
330
4EA
100
AcDbEntity
  8
HATCH
  6
Continuous
 62
     7
370
    30
100
AcDbLine
 10
28.154906
 20
-6.765344
 30
0.0
 11
28.088417
 21
-6.698854
 31
0.0
  0
LINE
  5
349
330
4EA
100
AcDbEntity
  8
HATCH
  6
Continuous
 62
     7
370
    30
100
AcDbLine
 10
28.438219
 20
-6.871885
 30
0.0
 11
28.420073
 21
-6.853729
 31
0.0
  0
LINE
  5
34A
330
4EA
100
AcDbEntity
  8
HATCH
  6
Continuous
 62
     7
370
    30
100
AcDbLine
 10
28.331677
 20
-6.765344
 30
0.0
 11
28.243292
 21
-6.676958
 31
0.0
  0
LINE
  5
34B
330
4EA
100
AcDbEntity
  8
HATCH
  6
Continuous
 62
     7
370
    30
100
AcDbLine
 10
28.154906
 20
-6.588563
 30
0.0
 11
28.088417
 21
-6.522083
 31
0.0
  0
LINE
  5
34C
330
4EA
100
AcDbEntity
  8
HATCH
  6
Continuous
 62
     7
370
    30
100
AcDbLine
 10
28.485635
 20
-6.742521
 30
0.0
 11
28.420073
 21
-6.676958
 31
0.0
  0
LINE
  5
34D
330
4EA
100
AcDbEntity
  8
HATCH
  6
Continuous
 62
     7
370
    30
100
AcDbLine
 10
28.331677
 20
-6.588563
 30
0.0
 11
28.243292
 21
-6.500177
 31
0.0
  0
LINE
  5
34E
330
4EA
100
AcDbEntity
  8
HATCH
  6
Continuous
 62
     7
370
    30
100
AcDbLine
 10
28.154906
 20
-6.411792
 30
0.0
 11
28.088417
 21
-6.345302
 31
0.0
  0
LINE
  5
34F
330
4EA
100
AcDbEntity
  8
HATCH
  6
Continuous
 62
     7
370
    30
100
AcDbLine
 10
28.494656
 20
-6.574771
 30
0.0
 11
28.420073
 21
-6.500177
 31
0.0
  0
LINE
  5
350
330
4EA
100
AcDbEntity
  8
HATCH
  6
Continuous
 62
     7
370
    30
100
AcDbLine
 10
28.331677
 20
-6.411792
 30
0.0
 11
28.243292
 21
-6.323406
 31
0.0
  0
LINE
  5
351
330
4EA
100
AcDbEntity
  8
HATCH
  6
Continuous
 62
     7
370
    30
100
AcDbLine
 10
28.154906
 20
-6.23501
 30
0.0
 11
28.088417
 21
-6.168531
 31
0.0
  0
LINE
  5
352
330
4EA
100
AcDbEntity
  8
HATCH
  6
Continuous
 62
     7
370
    30
100
AcDbLine
 10
28.503677
 20
-6.40701
 30
0.0
 11
28.420073
 21
-6.323406
 31
0.0
  0
LINE
  5
353
330
4EA
100
AcDbEntity
  8
HATCH
  6
Continuous
 62
     7
370
    30
100
AcDbLine
 10
28.331677
 20
-6.23501
 30
0.0
 11
28.243292
 21
-6.146625
 31
0.0
  0
LINE
  5
354
330
4EA
100
AcDbEntity
  8
HATCH
  6
Continuous
 62
     7
370
    30
100
AcDbLine
 10
28.154906
 20
-6.05824
 30
0.0
 11
28.088417
 21
-5.99175
 31
0.0
  0
LINE
  5
355
330
4EA
100
AcDbEntity
  8
HATCH
  6
Continuous
 62
     7
370
    30
100
AcDbLine
 10
28.508458
 20
-6.23501
 30
0.0
 11
28.429604
 21
-6.156167
 31
0.0
  0
LINE
  5
356
330
4EA
100
AcDbEntity
  8
HATCH
  6
Continuous
 62
     7
370
    30
100
AcDbLine
 10
27.8345
 20
-7.262531
 30
0.0
 11
27.746104
 21
-7.174135
 31
0.0
  0
LINE
  5
357
330
4EA
100
AcDbEntity
  8
HATCH
  6
Continuous
 62
     7
370
    30
100
AcDbLine
 10
27.657719
 20
-7.08575
 30
0.0
 11
27.569333
 21
-6.997365
 31
0.0
  0
LINE
  5
358
330
4EA
100
AcDbEntity
  8
HATCH
  6
Continuous
 62
     7
370
    30
100
AcDbLine
 10
27.657615
 20
-7.262417
 30
0.0
 11
27.569333
 21
-7.174135
 31
0.0
  0
LINE
  5
359
330
4EA
100
AcDbEntity
  8
HATCH
  6
Continuous
 62
     7
370
    30
100
AcDbLine
 10
27.480937
 20
-7.08575
 30
0.0
 11
27.409792
 21
-7.014594
 31
0.0
  0
LINE
  5
35A
330
4EA
100
AcDbEntity
  8
HATCH
  6
Continuous
 62
     7
370
    30
100
AcDbLine
 10
27.476469
 20
-7.258052
 30
0.0
 11
27.392552
 21
-7.174135
 31
0.0
  0
LINE
  5
35B
330
4EA
100
AcDbEntity
  8
HATCH
  6
Continuous
 62
     7
370
    30
100
AcDbLine
 10
27.304167
 20
-7.08575
 30
0.0
 11
27.282583
 21
-7.064177
 31
0.0
  0
LINE
  5
35C
330
4EA
100
AcDbEntity
  8
HATCH
  6
Continuous
 62
     7
370
    30
100
AcDbLine
 10
26.388417
 20
-6.17
 30
0.0
 11
26.331896
 21
-6.113479
 31
0.0
  0
LINE
  5
35D
330
4EA
100
AcDbEntity
  8
HATCH
  6
Continuous
 62
     7
370
    30
100
AcDbLine
 10
27.295323
 20
-7.253687
 30
0.0
 11
27.215781
 21
-7.174135
 31
0.0
  0
LINE
  5
35E
330
4EA
100
AcDbEntity
  8
HATCH
  6
Continuous
 62
     7
370
    30
100
AcDbLine
 10
27.127385
 20
-7.08575
 30
0.0
 11
27.039
 21
-6.997365
 31
0.0
  0
LINE
  5
35F
330
4EA
100
AcDbEntity
  8
HATCH
  6
Continuous
 62
     7
370
    30
100
AcDbLine
 10
26.950615
 20
-6.908979
 30
0.0
 11
26.895115
 21
-6.853479
 31
0.0
  0
LINE
  5
360
330
4EA
100
AcDbEntity
  8
HATCH
  6
Continuous
 62
     7
370
    30
100
AcDbLine
 10
26.388417
 20
-6.346781
 30
0.0
 11
26.331896
 21
-6.29026
 31
0.0
  0
LINE
  5
361
330
4EA
100
AcDbEntity
  8
HATCH
  6
Continuous
 62
     7
370
    30
100
AcDbLine
 10
26.2435
 20
-6.201865
 30
0.0
 11
26.178344
 21
-6.136708
 31
0.0
  0
LINE
  5
362
330
4EA
100
AcDbEntity
  8
HATCH
  6
Continuous
 62
     7
370
    30
100
AcDbLine
 10
27.114187
 20
-7.249323
 30
0.0
 11
27.039
 21
-7.174135
 31
0.0
  0
LINE
  5
363
330
4EA
100
AcDbEntity
  8
HATCH
  6
Continuous
 62
     7
370
    30
100
AcDbLine
 10
26.950615
 20
-7.08575
 30
0.0
 11
26.862219
 21
-6.997365
 31
0.0
  0
LINE
  5
364
330
4EA
100
AcDbEntity
  8
HATCH
  6
Continuous
 62
     7
370
    30
100
AcDbLine
 10
26.773833
 20
-6.908979
 30
0.0
 11
26.718344
 21
-6.853479
 31
0.0
  0
LINE
  5
365
330
4EA
100
AcDbEntity
  8
HATCH
  6
Continuous
 62
     7
370
    30
100
AcDbLine
 10
26.388417
 20
-6.523552
 30
0.0
 11
26.331896
 21
-6.467031
 31
0.0
  0
LINE
  5
366
330
4EA
100
AcDbEntity
  8
HATCH
  6
Continuous
 62
     7
370
    30
100
AcDbLine
 10
26.2435
 20
-6.378646
 30
0.0
 11
26.155115
 21
-6.29026
 31
0.0
  0
LINE
  5
367
330
4EA
100
AcDbEntity
  8
HATCH
  6
Continuous
 62
     7
370
    30
100
AcDbLine
 10
26.066729
 20
-6.201865
 30
0.0
 11
26.062854
 21
-6.19799
 31
0.0
  0
LINE
  5
368
330
4EA
100
AcDbEntity
  8
HATCH
  6
Continuous
 62
     7
370
    30
100
AcDbLine
 10
26.933042
 20
-7.244958
 30
0.0
 11
26.862219
 21
-7.174135
 31
0.0
  0
LINE
  5
369
330
4EA
100
AcDbEntity
  8
HATCH
  6
Continuous
 62
     7
370
    30
100
AcDbLine
 10
26.773833
 20
-7.08575
 30
0.0
 11
26.685448
 21
-6.997365
 31
0.0
  0
LINE
  5
36A
330
4EA
100
AcDbEntity
  8
HATCH
  6
Continuous
 62
     7
370
    30
100
AcDbLine
 10
26.597062
 20
-6.908979
 30
0.0
 11
26.541562
 21
-6.853479
 31
0.0
  0
LINE
  5
36B
330
4EA
100
AcDbEntity
  8
HATCH
  6
Continuous
 62
     7
370
    30
100
AcDbLine
 10
26.388417
 20
-6.700333
 30
0.0
 11
26.331896
 21
-6.643813
 31
0.0
  0
LINE
  5
36C
330
4EA
100
AcDbEntity
  8
HATCH
  6
Continuous
 62
     7
370
    30
100
AcDbLine
 10
26.2435
 20
-6.555417
 30
0.0
 11
26.155115
 21
-6.467031
 31
0.0
  0
LINE
  5
36D
330
4EA
100
AcDbEntity
  8
HATCH
  6
Continuous
 62
     7
370
    30
100
AcDbLine
 10
26.066729
 20
-6.378646
 30
0.0
 11
25.982615
 21
-6.294531
 31
0.0
  0
LINE
  5
36E
330
4EA
100
AcDbEntity
  8
HATCH
  6
Continuous
 62
     7
370
    30
100
AcDbLine
 10
26.751906
 20
-7.240594
 30
0.0
 11
26.685448
 21
-7.174135
 31
0.0
  0
LINE
  5
36F
330
4EA
100
AcDbEntity
  8
HATCH
  6
Continuous
 62
     7
370
    30
100
AcDbLine
 10
26.597062
 20
-7.08575
 30
0.0
 11
26.508667
 21
-6.997365
 31
0.0
  0
LINE
  5
370
330
4EA
100
AcDbEntity
  8
HATCH
  6
Continuous
 62
     7
370
    30
100
AcDbLine
 10
26.420281
 20
-6.908979
 30
0.0
 11
26.331896
 21
-6.820583
 31
0.0
  0
LINE
  5
371
330
4EA
100
AcDbEntity
  8
HATCH
  6
Continuous
 62
     7
370
    30
100
AcDbLine
 10
26.2435
 20
-6.732198
 30
0.0
 11
26.155115
 21
-6.643813
 31
0.0
  0
LINE
  5
372
330
4EA
100
AcDbEntity
  8
HATCH
  6
Continuous
 62
     7
370
    30
100
AcDbLine
 10
26.066729
 20
-6.555417
 30
0.0
 11
25.979344
 21
-6.468031
 31
0.0
  0
LINE
  5
373
330
4EA
100
AcDbEntity
  8
HATCH
  6
Continuous
 62
     7
370
    30
100
AcDbLine
 10
26.420281
 20
-7.08575
 30
0.0
 11
26.331896
 21
-6.997365
 31
0.0
  0
LINE
  5
374
330
4EA
100
AcDbEntity
  8
HATCH
  6
Continuous
 62
     7
370
    30
100
AcDbLine
 10
26.2435
 20
-6.908979
 30
0.0
 11
26.155115
 21
-6.820583
 31
0.0
  0
LINE
  5
375
330
4EA
100
AcDbEntity
  8
HATCH
  6
Continuous
 62
     7
370
    30
100
AcDbLine
 10
26.066729
 20
-6.732198
 30
0.0
 11
25.978344
 21
-6.643813
 31
0.0
  0
LINE
  5
376
330
4EA
100
AcDbEntity
  8
HATCH
  6
Continuous
 62
     7
370
    30
100
AcDbLine
 10
26.194573
 20
-7.036812
 30
0.0
 11
26.155115
 21
-6.997365
 31
0.0
  0
LINE
  5
377
330
4EA
100
AcDbEntity
  8
HATCH
  6
Continuous
 62
     7
370
    30
100
AcDbLine
 10
26.066729
 20
-6.908979
 30
0.0
 11
25.978344
 21
-6.820583
 31
0.0
  0
LINE
  5
378
330
4EA
100
AcDbEntity
  8
HATCH
  6
Continuous
 62
     7
370
    30
100
AcDbLine
 10
27.946635
 20
-7.197896
 30
0.0
 11
27.922885
 21
-7.174135
 31
0.0
  0
LINE
  5
379
330
4EA
100
AcDbEntity
  8
HATCH
  6
Continuous
 62
     7
370
    30
100
AcDbLine
 10
27.8345
 20
-7.08575
 30
0.0
 11
27.746104
 21
-6.997365
 31
0.0
  0
LINE
  5
37A
330
4EA
100
AcDbEntity
  8
HATCH
  6
Continuous
 62
     7
370
    30
100
AcDbLine
 10
27.657719
 20
-6.908979
 30
0.0
 11
27.602219
 21
-6.853479
 31
0.0
  0
LINE
  5
37B
330
4EA
100
AcDbEntity
  8
HATCH
  6
Continuous
 62
     7
370
    30
100
AcDbLine
 10
28.011271
 20
-7.08575
 30
0.0
 11
27.922885
 21
-6.997365
 31
0.0
  0
LINE
  5
37C
330
4EA
100
AcDbEntity
  8
HATCH
  6
Continuous
 62
     7
370
    30
100
AcDbLine
 10
27.8345
 20
-6.908979
 30
0.0
 11
27.779
 21
-6.853479
 31
0.0
  0
LINE
  5
37D
330
4EA
100
AcDbEntity
  8
HATCH
  6
Continuous
 62
     7
370
    30
100
AcDbLine
 10
28.159219
 20
-7.056917
 30
0.0
 11
28.099656
 21
-6.997365
 31
0.0
  0
LINE
  5
37E
330
4EA
100
AcDbEntity
  8
HATCH
  6
Continuous
 62
     7
370
    30
100
AcDbLine
 10
28.011271
 20
-6.908979
 30
0.0
 11
27.955781
 21
-6.853479
 31
0.0
  0
LINE
  5
37F
330
4EA
100
AcDbEntity
  8
HATCH
  6
Continuous
 62
     7
370
    30
100
AcDbLine
 10
28.188052
 20
-6.908979
 30
0.0
 11
28.099656
 21
-6.820583
 31
0.0
  0
LINE
  5
380
330
4EA
100
AcDbEntity
  8
HATCH
  6
Continuous
 62
     7
370
    30
100
AcDbLine
 10
28.364823
 20
-6.908979
 30
0.0
 11
28.276438
 21
-6.820583
 31
0.0
  0
LINE
  5
381
330
4EA
100
AcDbEntity
  8
HATCH
  6
Continuous
 62
     7
370
    30
100
AcDbLine
 10
28.188052
 20
-6.732198
 30
0.0
 11
28.099656
 21
-6.643813
 31
0.0
  0
LINE
  5
382
330
4EA
100
AcDbEntity
  8
HATCH
  6
Continuous
 62
     7
370
    30
100
AcDbLine
 10
28.478073
 20
-6.845448
 30
0.0
 11
28.453208
 21
-6.820583
 31
0.0
  0
LINE
  5
383
330
4EA
100
AcDbEntity
  8
HATCH
  6
Continuous
 62
     7
370
    30
100
AcDbLine
 10
28.364823
 20
-6.732198
 30
0.0
 11
28.276438
 21
-6.643813
 31
0.0
  0
LINE
  5
384
330
4EA
100
AcDbEntity
  8
HATCH
  6
Continuous
 62
     7
370
    30
100
AcDbLine
 10
28.188052
 20
-6.555417
 30
0.0
 11
28.099656
 21
-6.467031
 31
0.0
  0
LINE
  5
385
330
4EA
100
AcDbEntity
  8
HATCH
  6
Continuous
 62
     7
370
    30
100
AcDbLine
 10
28.489021
 20
-6.679615
 30
0.0
 11
28.453208
 21
-6.643813
 31
0.0
  0
LINE
  5
386
330
4EA
100
AcDbEntity
  8
HATCH
  6
Continuous
 62
     7
370
    30
100
AcDbLine
 10
28.364823
 20
-6.555417
 30
0.0
 11
28.276438
 21
-6.467031
 31
0.0
  0
LINE
  5
387
330
4EA
100
AcDbEntity
  8
HATCH
  6
Continuous
 62
     7
370
    30
100
AcDbLine
 10
28.188052
 20
-6.378646
 30
0.0
 11
28.099656
 21
-6.29026
 31
0.0
  0
LINE
  5
388
330
4EA
100
AcDbEntity
  8
HATCH
  6
Continuous
 62
     7
370
    30
100
AcDbLine
 10
28.498042
 20
-6.511854
 30
0.0
 11
28.453208
 21
-6.467031
 31
0.0
  0
LINE
  5
389
330
4EA
100
AcDbEntity
  8
HATCH
  6
Continuous
 62
     7
370
    30
100
AcDbLine
 10
28.364823
 20
-6.378646
 30
0.0
 11
28.276438
 21
-6.29026
 31
0.0
  0
LINE
  5
38A
330
4EA
100
AcDbEntity
  8
HATCH
  6
Continuous
 62
     7
370
    30
100
AcDbLine
 10
28.188052
 20
-6.201865
 30
0.0
 11
28.099656
 21
-6.113479
 31
0.0
  0
LINE
  5
38B
330
4EA
100
AcDbEntity
  8
HATCH
  6
Continuous
 62
     7
370
    30
100
AcDbLine
 10
28.507062
 20
-6.344104
 30
0.0
 11
28.453208
 21
-6.29026
 31
0.0
  0
LINE
  5
38C
330
4EA
100
AcDbEntity
  8
HATCH
  6
Continuous
 62
     7
370
    30
100
AcDbLine
 10
28.364823
 20
-6.201865
 30
0.0
 11
28.276438
 21
-6.113479
 31
0.0
  0
LINE
  5
38D
330
4EA
100
AcDbEntity
  8
HATCH
  6
Continuous
 62
     7
370
    30
100
AcDbLine
 10
28.188052
 20
-6.025094
 30
0.0
 11
28.099656
 21
-5.936698
 31
0.0
  0
LINE
  5
38E
330
4EA
100
AcDbEntity
  8
HATCH
  6
Continuous
 62
     7
370
    30
100
AcDbLine
 10
27.867646
 20
-7.229385
 30
0.0
 11
27.77925
 21
-7.14099
 31
0.0
  0
LINE
  5
38F
330
4EA
100
AcDbEntity
  8
HATCH
  6
Continuous
 62
     7
370
    30
100
AcDbLine
 10
27.690865
 20
-7.052604
 30
0.0
 11
27.602479
 21
-6.964219
 31
0.0
  0
LINE
  5
390
330
4EA
100
AcDbEntity
  8
HATCH
  6
Continuous
 62
     7
370
    30
100
AcDbLine
 10
27.514083
 20
-6.875833
 30
0.0
 11
27.507771
 21
-6.86951
 31
0.0
  0
LINE
  5
391
330
4EA
100
AcDbEntity
  8
HATCH
  6
Continuous
 62
     7
370
    30
100
AcDbLine
 10
27.690865
 20
-7.229385
 30
0.0
 11
27.602479
 21
-7.14099
 31
0.0
  0
LINE
  5
392
330
4EA
100
AcDbEntity
  8
HATCH
  6
Continuous
 62
     7
370
    30
100
AcDbLine
 10
27.514083
 20
-7.052604
 30
0.0
 11
27.440385
 21
-6.978906
 31
0.0
  0
LINE
  5
393
330
4EA
100
AcDbEntity
  8
HATCH
  6
Continuous
 62
     7
370
    30
100
AcDbLine
 10
27.514083
 20
-7.229385
 30
0.0
 11
27.425698
 21
-7.14099
 31
0.0
  0
LINE
  5
394
330
4EA
100
AcDbEntity
  8
HATCH
  6
Continuous
 62
     7
370
    30
100
AcDbLine
 10
27.337312
 20
-7.052604
 30
0.0
 11
27.331031
 21
-7.046323
 31
0.0
  0
LINE
  5
395
330
4EA
100
AcDbEntity
  8
HATCH
  6
Continuous
 62
     7
370
    30
100
AcDbLine
 10
26.388417
 20
-6.103708
 30
0.0
 11
26.365042
 21
-6.080333
 31
0.0
  0
LINE
  5
396
330
4EA
100
AcDbEntity
  8
HATCH
  6
Continuous
 62
     7
370
    30
100
AcDbLine
 10
27.337312
 20
-7.229385
 30
0.0
 11
27.248927
 21
-7.14099
 31
0.0
  0
LINE
  5
397
330
4EA
100
AcDbEntity
  8
HATCH
  6
Continuous
 62
     7
370
    30
100
AcDbLine
 10
26.388417
 20
-6.28049
 30
0.0
 11
26.365042
 21
-6.257115
 31
0.0
  0
LINE
  5
398
330
4EA
100
AcDbEntity
  8
HATCH
  6
Continuous
 62
     7
370
    30
100
AcDbLine
 10
26.276646
 20
-6.168719
 30
0.0
 11
26.221656
 21
-6.113729
 31
0.0
  0
LINE
  5
399
330
4EA
100
AcDbEntity
  8
HATCH
  6
Continuous
 62
     7
370
    30
100
AcDbLine
 10
26.97001
 20
-6.862083
 30
0.0
 11
26.961406
 21
-6.853479
 31
0.0
  0
LINE
  5
39A
330
4EA
100
AcDbEntity
  8
HATCH
  6
Continuous
 62
     7
370
    30
100
AcDbLine
 10
27.160531
 20
-7.229385
 30
0.0
 11
27.072146
 21
-7.14099
 31
0.0
  0
LINE
  5
39B
330
4EA
100
AcDbEntity
  8
HATCH
  6
Continuous
 62
     7
370
    30
100
AcDbLine
 10
26.98376
 20
-7.052604
 30
0.0
 11
26.895365
 21
-6.964219
 31
0.0
  0
LINE
  5
39C
330
4EA
100
AcDbEntity
  8
HATCH
  6
Continuous
 62
     7
370
    30
100
AcDbLine
 10
26.806979
 20
-6.875833
 30
0.0
 11
26.784635
 21
-6.853479
 31
0.0
  0
LINE
  5
39D
330
4EA
100
AcDbEntity
  8
HATCH
  6
Continuous
 62
     7
370
    30
100
AcDbLine
 10
26.388417
 20
-6.45726
 30
0.0
 11
26.365042
 21
-6.433885
 31
0.0
  0
LINE
  5
39E
330
4EA
100
AcDbEntity
  8
HATCH
  6
Continuous
 62
     7
370
    30
100
AcDbLine
 10
26.276646
 20
-6.3455
 30
0.0
 11
26.18826
 21
-6.257115
 31
0.0
  0
LINE
  5
39F
330
4EA
100
AcDbEntity
  8
HATCH
  6
Continuous
 62
     7
370
    30
100
AcDbLine
 10
26.98376
 20
-7.229385
 30
0.0
 11
26.895365
 21
-7.14099
 31
0.0
  0
LINE
  5
3A0
330
4EA
100
AcDbEntity
  8
HATCH
  6
Continuous
 62
     7
370
    30
100
AcDbLine
 10
26.806979
 20
-7.052604
 30
0.0
 11
26.718594
 21
-6.964219
 31
0.0
  0
LINE
  5
3A1
330
4EA
100
AcDbEntity
  8
HATCH
  6
Continuous
 62
     7
370
    30
100
AcDbLine
 10
26.630208
 20
-6.875833
 30
0.0
 11
26.607854
 21
-6.853479
 31
0.0
  0
LINE
  5
3A2
330
4EA
100
AcDbEntity
  8
HATCH
  6
Continuous
 62
     7
370
    30
100
AcDbLine
 10
26.388417
 20
-6.634042
 30
0.0
 11
26.365042
 21
-6.610667
 31
0.0
  0
LINE
  5
3A3
330
4EA
100
AcDbEntity
  8
HATCH
  6
Continuous
 62
     7
370
    30
100
AcDbLine
 10
26.276646
 20
-6.522271
 30
0.0
 11
26.18826
 21
-6.433885
 31
0.0
  0
LINE
  5
3A4
330
4EA
100
AcDbEntity
  8
HATCH
  6
Continuous
 62
     7
370
    30
100
AcDbLine
 10
26.099875
 20
-6.3455
 30
0.0
 11
26.01149
 21
-6.257115
 31
0.0
  0
LINE
  5
3A5
330
4EA
100
AcDbEntity
  8
HATCH
  6
Continuous
 62
     7
370
    30
100
AcDbLine
 10
26.806979
 20
-7.229385
 30
0.0
 11
26.718594
 21
-7.14099
 31
0.0
  0
LINE
  5
3A6
330
4EA
100
AcDbEntity
  8
HATCH
  6
Continuous
 62
     7
370
    30
100
AcDbLine
 10
26.630208
 20
-7.052604
 30
0.0
 11
26.541812
 21
-6.964219
 31
0.0
  0
LINE
  5
3A7
330
4EA
100
AcDbEntity
  8
HATCH
  6
Continuous
 62
     7
370
    30
100
AcDbLine
 10
26.453427
 20
-6.875833
 30
0.0
 11
26.431073
 21
-6.853479
 31
0.0
  0
LINE
  5
3A8
330
4EA
100
AcDbEntity
  8
HATCH
  6
Continuous
 62
     7
370
    30
100
AcDbLine
 10
26.388417
 20
-6.810812
 30
0.0
 11
26.365042
 21
-6.787437
 31
0.0
  0
LINE
  5
3A9
330
4EA
100
AcDbEntity
  8
HATCH
  6
Continuous
 62
     7
370
    30
100
AcDbLine
 10
26.276646
 20
-6.699052
 30
0.0
 11
26.18826
 21
-6.610667
 31
0.0
  0
LINE
  5
3AA
330
4EA
100
AcDbEntity
  8
HATCH
  6
Continuous
 62
     7
370
    30
100
AcDbLine
 10
26.099875
 20
-6.522271
 30
0.0
 11
26.01149
 21
-6.433885
 31
0.0
  0
LINE
  5
3AB
330
4EA
100
AcDbEntity
  8
HATCH
  6
Continuous
 62
     7
370
    30
100
AcDbLine
 10
26.586969
 20
-7.186146
 30
0.0
 11
26.541812
 21
-7.14099
 31
0.0
  0
LINE
  5
3AC
330
4EA
100
AcDbEntity
  8
HATCH
  6
Continuous
 62
     7
370
    30
100
AcDbLine
 10
26.453427
 20
-7.052604
 30
0.0
 11
26.365042
 21
-6.964219
 31
0.0
  0
LINE
  5
3AD
330
4EA
100
AcDbEntity
  8
HATCH
  6
Continuous
 62
     7
370
    30
100
AcDbLine
 10
26.276646
 20
-6.875833
 30
0.0
 11
26.18826
 21
-6.787437
 31
0.0
  0
LINE
  5
3AE
330
4EA
100
AcDbEntity
  8
HATCH
  6
Continuous
 62
     7
370
    30
100
AcDbLine
 10
26.099875
 20
-6.699052
 30
0.0
 11
26.01149
 21
-6.610667
 31
0.0
  0
LINE
  5
3AF
330
4EA
100
AcDbEntity
  8
HATCH
  6
Continuous
 62
     7
370
    30
100
AcDbLine
 10
26.276646
 20
-7.052604
 30
0.0
 11
26.18826
 21
-6.964219
 31
0.0
  0
LINE
  5
3B0
330
4EA
100
AcDbEntity
  8
HATCH
  6
Continuous
 62
     7
370
    30
100
AcDbLine
 10
26.099875
 20
-6.875833
 30
0.0
 11
26.01149
 21
-6.787437
 31
0.0
  0
LINE
  5
3B1
330
4EA
100
AcDbEntity
  8
HATCH
  6
Continuous
 62
     7
370
    30
100
AcDbLine
 10
26.016208
 20
-6.968938
 30
0.0
 11
26.01149
 21
-6.964219
 31
0.0
  0
LINE
  5
3B2
330
4EA
100
AcDbEntity
  8
HATCH
  6
Continuous
 62
     7
370
    30
100
AcDbLine
 10
27.9865
 20
-7.171458
 30
0.0
 11
27.956031
 21
-7.14099
 31
0.0
  0
LINE
  5
3B3
330
4EA
100
AcDbEntity
  8
HATCH
  6
Continuous
 62
     7
370
    30
100
AcDbLine
 10
27.867646
 20
-7.052604
 30
0.0
 11
27.77925
 21
-6.964219
 31
0.0
  0
LINE
  5
3B4
330
4EA
100
AcDbEntity
  8
HATCH
  6
Continuous
 62
     7
370
    30
100
AcDbLine
 10
27.690865
 20
-6.875833
 30
0.0
 11
27.66851
 21
-6.853479
 31
0.0
  0
LINE
  5
3B5
330
4EA
100
AcDbEntity
  8
HATCH
  6
Continuous
 62
     7
370
    30
100
AcDbLine
 10
28.044417
 20
-7.052604
 30
0.0
 11
27.956031
 21
-6.964219
 31
0.0
  0
LINE
  5
3B6
330
4EA
100
AcDbEntity
  8
HATCH
  6
Continuous
 62
     7
370
    30
100
AcDbLine
 10
27.867646
 20
-6.875833
 30
0.0
 11
27.845292
 21
-6.853479
 31
0.0
  0
LINE
  5
3B7
330
4EA
100
AcDbEntity
  8
HATCH
  6
Continuous
 62
     7
370
    30
100
AcDbLine
 10
28.199073
 20
-7.030479
 30
0.0
 11
28.132802
 21
-6.964219
 31
0.0
  0
LINE
  5
3B8
330
4EA
100
AcDbEntity
  8
HATCH
  6
Continuous
 62
     7
370
    30
100
AcDbLine
 10
28.044417
 20
-6.875833
 30
0.0
 11
28.022073
 21
-6.853479
 31
0.0
  0
LINE
  5
3B9
330
4EA
100
AcDbEntity
  8
HATCH
  6
Continuous
 62
     7
370
    30
100
AcDbLine
 10
28.221198
 20
-6.875833
 30
0.0
 11
28.132802
 21
-6.787437
 31
0.0
  0
LINE
  5
3BA
330
4EA
100
AcDbEntity
  8
HATCH
  6
Continuous
 62
     7
370
    30
100
AcDbLine
 10
28.397969
 20
-6.875833
 30
0.0
 11
28.309583
 21
-6.787437
 31
0.0
  0
LINE
  5
3BB
330
4EA
100
AcDbEntity
  8
HATCH
  6
Continuous
 62
     7
370
    30
100
AcDbLine
 10
28.221198
 20
-6.699052
 30
0.0
 11
28.132802
 21
-6.610667
 31
0.0
  0
LINE
  5
3BC
330
4EA
100
AcDbEntity
  8
HATCH
  6
Continuous
 62
     7
370
    30
100
AcDbLine
 10
28.397969
 20
-6.699052
 30
0.0
 11
28.309583
 21
-6.610667
 31
0.0
  0
LINE
  5
3BD
330
4EA
100
AcDbEntity
  8
HATCH
  6
Continuous
 62
     7
370
    30
100
AcDbLine
 10
28.221198
 20
-6.522271
 30
0.0
 11
28.132802
 21
-6.433885
 31
0.0
  0
LINE
  5
3BE
330
4EA
100
AcDbEntity
  8
HATCH
  6
Continuous
 62
     7
370
    30
100
AcDbLine
 10
28.492406
 20
-6.616708
 30
0.0
 11
28.486354
 21
-6.610667
 31
0.0
  0
LINE
  5
3BF
330
4EA
100
AcDbEntity
  8
HATCH
  6
Continuous
 62
     7
370
    30
100
AcDbLine
 10
28.397969
 20
-6.522271
 30
0.0
 11
28.309583
 21
-6.433885
 31
0.0
  0
LINE
  5
3C0
330
4EA
100
AcDbEntity
  8
HATCH
  6
Continuous
 62
     7
370
    30
100
AcDbLine
 10
28.221198
 20
-6.3455
 30
0.0
 11
28.132802
 21
-6.257115
 31
0.0
  0
LINE
  5
3C1
330
4EA
100
AcDbEntity
  8
HATCH
  6
Continuous
 62
     7
370
    30
100
AcDbLine
 10
28.501417
 20
-6.448948
 30
0.0
 11
28.486354
 21
-6.433885
 31
0.0
  0
LINE
  5
3C2
330
4EA
100
AcDbEntity
  8
HATCH
  6
Continuous
 62
     7
370
    30
100
AcDbLine
 10
28.397969
 20
-6.3455
 30
0.0
 11
28.309583
 21
-6.257115
 31
0.0
  0
LINE
  5
3C3
330
4EA
100
AcDbEntity
  8
HATCH
  6
Continuous
 62
     7
370
    30
100
AcDbLine
 10
28.221198
 20
-6.168719
 30
0.0
 11
28.132802
 21
-6.080333
 31
0.0
  0
LINE
  5
3C4
330
4EA
100
AcDbEntity
  8
HATCH
  6
Continuous
 62
     7
370
    30
100
AcDbLine
 10
28.510437
 20
-6.281187
 30
0.0
 11
28.486354
 21
-6.257115
 31
0.0
  0
LINE
  5
3C5
330
4EA
100
AcDbEntity
  8
HATCH
  6
Continuous
 62
     7
370
    30
100
AcDbLine
 10
28.397969
 20
-6.168719
 30
0.0
 11
28.309583
 21
-6.080333
 31
0.0
  0
ARC
  5
3CF
330
4EA
100
AcDbEntity
  8
_0
  6
Continuous
 62
     7
370
    30
100
AcDbCircle
 10
27.238416
 20
-6.779541
 30
0.0
 40
0.2816382936390993
100
AcDbArc
 50
344.779403
 51
195.220594
  0
LINE
  5
3D0
330
4EA
100
AcDbEntity
  8
_0
  6
Continuous
 62
     7
370
    13
100
AcDbLine
 10
26.025219
 20
-5.955083
 30
0.0
 11
25.883729
 21
-5.955083
 31
0.0
  0
LINE
  5
3D1
330
4EA
100
AcDbEntity
  8
DIM
  6
Continuous
 62
     7
370
    13
100
AcDbLine
 10
25.625917
 20
-4.903479
 30
0.0
 11
25.126281
 21
-4.903479
 31
0.0
  0
LINE
  5
3D2
330
4EA
100
AcDbEntity
  8
DIM
  6
Continuous
 62
     7
370
    30
100
AcDbLine
 10
24.78299
 20
-4.403479
 30
0.0
 11
25.486281
 21
-4.403479
 31
0.0
  0
LINE
  5
3D3
330
4EA
100
AcDbEntity
  8
DIM
  6
Continuous
 62
     7
370
    13
100
AcDbLine
 10
25.306281
 20
-4.903479
 30
0.0
 11
25.306281
 21
-5.263479
 31
0.0
  0
LINE
  5
3D4
330
4EA
100
AcDbEntity
  8
DIM
  6
Continuous
 62
     7
370
    13
100
AcDbLine
 10
25.306281
 20
-4.403479
 30
0.0
 11
25.306281
 21
-4.043479
 31
0.0
  0
LINE
  5
3D5
330
4EA
100
AcDbEntity
  8
DIM
  6
Continuous
 62
     7
370
    13
100
AcDbLine
 10
25.126281
 20
-4.043479
 30
0.0
 11
25.306281
 21
-4.043479
 31
0.0
  0
LINE
  5
3D6
330
4EA
100
AcDbEntity
  8
LEGEND
  6
Continuous
 62
     7
370
    30
100
AcDbLine
 10
25.688417
 20
-4.903479
 30
0.0
 11
25.688417
 21
-4.903479
 31
0.0
  0
LINE
  5
3D7
330
4EA
100
AcDbEntity
  8
LEGEND
  6
Continuous
 62
     7
370
    30
100
AcDbLine
 10
25.306281
 20
-4.403479
 30
0.0
 11
25.306281
 21
-4.403479
 31
0.0
  0
LINE
  5
3D8
330
4EA
100
AcDbEntity
  8
DIM
  6
Continuous
 62
     7
370
    30
100
AcDbLine
 10
28.85
 20
-4.890979
 30
0.0
 11
29.336813
 21
-4.890979
 31
0.0
  0
LINE
  5
3D9
330
4EA
100
AcDbEntity
  8
DIM
  6
Continuous
 62
     7
370
    30
100
AcDbLine
 10
29.64375
 20
-4.403479
 30
0.0
 11
28.976812
 21
-4.403479
 31
0.0
  0
LINE
  5
3DA
330
4EA
100
AcDbEntity
  8
DIM
  6
Continuous
 62
     7
370
    13
100
AcDbLine
 10
29.156812
 20
-4.890979
 30
0.0
 11
29.156812
 21
-5.250979
 31
0.0
  0
LINE
  5
3DB
330
4EA
100
AcDbEntity
  8
DIM
  6
Continuous
 62
     7
370
    13
100
AcDbLine
 10
29.156812
 20
-4.403479
 30
0.0
 11
29.156812
 21
-4.043479
 31
0.0
  0
LINE
  5
3DC
330
4EA
100
AcDbEntity
  8
DIM
  6
Continuous
 62
     7
370
    13
100
AcDbLine
 10
29.156812
 20
-4.043479
 30
0.0
 11
29.336813
 21
-4.043479
 31
0.0
  0
LINE
  5
3DD
330
4EA
100
AcDbEntity
  8
LEGEND
  6
Continuous
 62
     7
370
    30
100
AcDbLine
 10
28.7875
 20
-4.890979
 30
0.0
 11
28.7875
 21
-4.890979
 31
0.0
  0
LINE
  5
3DE
330
4EA
100
AcDbEntity
  8
LEGEND
  6
Continuous
 62
     7
370
    30
100
AcDbLine
 10
29.70625
 20
-4.403479
 30
0.0
 11
29.70625
 21
-4.403479
 31
0.0
  0
LINE
  5
3DF
330
4EA
100
AcDbEntity
  8
LEGEND
  6
Continuous
 62
     7
370
    30
100
AcDbLine
 10
29.156812
 20
-4.403479
 30
0.0
 11
29.156812
 21
-4.403479
 31
0.0
  0
LINE
  5
3E0
330
4EA
100
AcDbEntity
  8
DIM
  6
Continuous
 62
     7
370
    13
100
AcDbLine
 10
25.688417
 20
-4.965979
 30
0.0
 11
25.688417
 21
-5.428073
 31
0.0
  0
LINE
  5
3E1
330
4EA
100
AcDbEntity
  8
DIM
  6
Continuous
 62
     7
370
    30
100
AcDbLine
 10
26.388417
 20
-4.965979
 30
0.0
 11
26.388417
 21
-5.428073
 31
0.0
  0
LINE
  5
3E2
330
4EA
100
AcDbEntity
  8
DIM
  6
Continuous
 62
     7
370
    13
100
AcDbLine
 10
25.688417
 20
-5.248073
 30
0.0
 11
26.388417
 21
-5.248073
 31
0.0
  0
LINE
  5
3E3
330
4EA
100
AcDbEntity
  8
LEGEND
  6
Continuous
 62
     7
370
    30
100
AcDbLine
 10
25.688417
 20
-4.903479
 30
0.0
 11
25.688417
 21
-4.903479
 31
0.0
  0
LINE
  5
3E4
330
4EA
100
AcDbEntity
  8
LEGEND
  6
Continuous
 62
     7
370
    30
100
AcDbLine
 10
26.388417
 20
-4.903479
 30
0.0
 11
26.388417
 21
-4.903479
 31
0.0
  0
LINE
  5
3E5
330
4EA
100
AcDbEntity
  8
LEGEND
  6
Continuous
 62
     7
370
    30
100
AcDbLine
 10
26.388417
 20
-5.248073
 30
0.0
 11
26.388417
 21
-5.248073
 31
0.0
  0
LINE
  5
3E6
330
4EA
100
AcDbEntity
  8
DIM
  6
Continuous
 62
     7
370
    30
100
AcDbLine
 10
28.088417
 20
-4.965979
 30
0.0
 11
28.088417
 21
-5.428073
 31
0.0
  0
LINE
  5
3E7
330
4EA
100
AcDbEntity
  8
DIM
  6
Continuous
 62
     7
370
    30
100
AcDbLine
 10
28.788417
 20
-4.965979
 30
0.0
 11
28.788417
 21
-5.428073
 31
0.0
  0
LINE
  5
3E8
330
4EA
100
AcDbEntity
  8
DIM
  6
Continuous
 62
     7
370
    13
100
AcDbLine
 10
28.088417
 20
-5.248073
 30
0.0
 11
28.788417
 21
-5.248073
 31
0.0
  0
LINE
  5
3E9
330
4EA
100
AcDbEntity
  8
LEGEND
  6
Continuous
 62
     7
370
    30
100
AcDbLine
 10
28.088417
 20
-4.903479
 30
0.0
 11
28.088417
 21
-4.903479
 31
0.0
  0
LINE
  5
3EA
330
4EA
100
AcDbEntity
  8
LEGEND
  6
Continuous
 62
     7
370
    30
100
AcDbLine
 10
28.788417
 20
-4.903479
 30
0.0
 11
28.788417
 21
-4.903479
 31
0.0
  0
LINE
  5
3EB
330
4EA
100
AcDbEntity
  8
LEGEND
  6
Continuous
 62
     7
370
    30
100
AcDbLine
 10
28.788417
 20
-5.248073
 30
0.0
 11
28.788417
 21
-5.248073
 31
0.0
  0
LINE
  5
3EC
330
4EA
100
AcDbEntity
  8
HATCH
  6
Continuous
 62
     7
370
    30
100
AcDbLine
 10
27.175
 20
-4.903479
 30
0.0
 11
27.325
 21
-4.903479
 31
0.0
  0
LINE
  5
3ED
330
4EA
100
AcDbEntity
  8
HATCH
  6
Continuous
 62
     7
370
    30
100
AcDbLine
 10
28.043969
 20
-6.853479
 30
0.0
 11
27.212375
 21
-6.021896
 31
0.0
  0
LINE
  5
3EE
330
4EA
100
AcDbEntity
  8
HATCH
  6
Continuous
 62
     7
370
    30
100
AcDbLine
 10
26.990135
 20
-5.799646
 30
0.0
 11
26.388417
 21
-5.197927
 31
0.0
  0
LINE
  5
3EF
330
4EA
100
AcDbEntity
  8
HATCH
  6
Continuous
 62
     7
370
    30
100
AcDbLine
 10
27.867188
 20
-6.853479
 30
0.0
 11
27.035604
 21
-6.021896
 31
0.0
  0
LINE
  5
3F0
330
4EA
100
AcDbEntity
  8
HATCH
  6
Continuous
 62
     7
370
    30
100
AcDbLine
 10
26.813354
 20
-5.799646
 30
0.0
 11
26.388417
 21
-5.374708
 31
0.0
  0
LINE
  5
3F1
330
4EA
100
AcDbEntity
  8
HATCH
  6
Continuous
 62
     7
370
    30
100
AcDbLine
 10
27.690417
 20
-6.853479
 30
0.0
 11
27.490125
 21
-6.653187
 31
0.0
  0
LINE
  5
3F2
330
4EA
100
AcDbEntity
  8
HATCH
  6
Continuous
 62
     7
370
    30
100
AcDbLine
 10
26.785396
 20
-5.948469
 30
0.0
 11
26.388417
 21
-5.551479
 31
0.0
  0
LINE
  5
3F3
330
4EA
100
AcDbEntity
  8
HATCH
  6
Continuous
 62
     7
370
    30
100
AcDbLine
 10
27.364771
 20
-6.527833
 30
0.0
 11
26.858823
 21
-6.021896
 31
0.0
  0
LINE
  5
3F4
330
4EA
100
AcDbEntity
  8
HATCH
  6
Continuous
 62
     7
370
    30
100
AcDbLine
 10
27.513635
 20
-6.853479
 30
0.0
 11
27.510906
 21
-6.85075
 31
0.0
  0
LINE
  5
3F5
330
4EA
100
AcDbEntity
  8
HATCH
  6
Continuous
 62
     7
370
    30
100
AcDbLine
 10
27.167208
 20
-6.507052
 30
0.0
 11
26.388417
 21
-5.72826
 31
0.0
  0
LINE
  5
3F6
330
4EA
100
AcDbEntity
  8
HATCH
  6
Continuous
 62
     7
370
    30
100
AcDbLine
 10
27.051896
 20
-6.568521
 30
0.0
 11
26.388417
 21
-5.905042
 31
0.0
  0
LINE
  5
3F7
330
4EA
100
AcDbEntity
  8
HATCH
  6
Continuous
 62
     7
370
    30
100
AcDbLine
 10
26.97826
 20
-6.671656
 30
0.0
 11
26.388417
 21
-6.081812
 31
0.0
  0
LINE
  5
3F8
330
4EA
100
AcDbEntity
  8
HATCH
  6
Continuous
 62
     7
370
    30
100
AcDbLine
 10
26.961677
 20
-6.831854
 30
0.0
 11
26.388417
 21
-6.258594
 31
0.0
  0
LINE
  5
3F9
330
4EA
100
AcDbEntity
  8
HATCH
  6
Continuous
 62
     7
370
    30
100
AcDbLine
 10
26.806531
 20
-6.853479
 30
0.0
 11
26.388417
 21
-6.435365
 31
0.0
  0
LINE
  5
3FA
330
4EA
100
AcDbEntity
  8
HATCH
  6
Continuous
 62
     7
370
    30
100
AcDbLine
 10
26.62975
 20
-6.853479
 30
0.0
 11
26.388417
 21
-6.612146
 31
0.0
  0
LINE
  5
3FB
330
4EA
100
AcDbEntity
  8
HATCH
  6
Continuous
 62
     7
370
    30
100
AcDbLine
 10
26.452979
 20
-6.853479
 30
0.0
 11
26.388417
 21
-6.788917
 31
0.0
  0
LINE
  5
3FC
330
4EA
100
AcDbEntity
  8
HATCH
  6
Continuous
 62
     7
370
    30
100
AcDbLine
 10
28.088417
 20
-6.721156
 30
0.0
 11
27.389156
 21
-6.021896
 31
0.0
  0
LINE
  5
3FD
330
4EA
100
AcDbEntity
  8
HATCH
  6
Continuous
 62
     7
370
    30
100
AcDbLine
 10
27.166906
 20
-5.799646
 30
0.0
 11
26.388417
 21
-5.021156
 31
0.0
  0
LINE
  5
3FE
330
4EA
100
AcDbEntity
  8
HATCH
  6
Continuous
 62
     7
370
    30
100
AcDbLine
 10
28.088417
 20
-6.544375
 30
0.0
 11
27.565927
 21
-6.021896
 31
0.0
  0
LINE
  5
3FF
330
4EA
100
AcDbEntity
  8
HATCH
  6
Continuous
 62
     7
370
    30
100
AcDbLine
 10
27.343687
 20
-5.799646
 30
0.0
 11
26.447521
 21
-4.903479
 31
0.0
  0
LINE
  5
400
330
4EA
100
AcDbEntity
  8
HATCH
  6
Continuous
 62
     7
370
    30
100
AcDbLine
 10
28.088417
 20
-6.367604
 30
0.0
 11
27.690667
 21
-5.969854
 31
0.0
  0
LINE
  5
401
330
4EA
100
AcDbEntity
  8
HATCH
  6
Continuous
 62
     7
370
    30
100
AcDbLine
 10
27.520469
 20
-5.799646
 30
0.0
 11
26.624292
 21
-4.903479
 31
0.0
  0
LINE
  5
402
330
4EA
100
AcDbEntity
  8
HATCH
  6
Continuous
 62
     7
370
    30
100
AcDbLine
 10
28.088417
 20
-6.190823
 30
0.0
 11
26.801073
 21
-4.903479
 31
0.0
  0
LINE
  5
403
330
4EA
100
AcDbEntity
  8
HATCH
  6
Continuous
 62
     7
370
    30
100
AcDbLine
 10
28.088417
 20
-6.014052
 30
0.0
 11
26.977854
 21
-4.903479
 31
0.0
  0
LINE
  5
404
330
4EA
100
AcDbEntity
  8
HATCH
  6
Continuous
 62
     7
370
    30
100
AcDbLine
 10
28.088417
 20
-5.837271
 30
0.0
 11
27.154625
 21
-4.903479
 31
0.0
  0
LINE
  5
405
330
4EA
100
AcDbEntity
  8
HATCH
  6
Continuous
 62
     7
370
    30
100
AcDbLine
 10
28.088417
 20
-5.66049
 30
0.0
 11
27.331406
 21
-4.903479
 31
0.0
  0
LINE
  5
406
330
4EA
100
AcDbEntity
  8
HATCH
  6
Continuous
 62
     7
370
    30
100
AcDbLine
 10
28.088417
 20
-5.483719
 30
0.0
 11
27.508177
 21
-4.903479
 31
0.0
  0
LINE
  5
407
330
4EA
100
AcDbEntity
  8
HATCH
  6
Continuous
 62
     7
370
    30
100
AcDbLine
 10
28.088417
 20
-5.306938
 30
0.0
 11
27.684958
 21
-4.903479
 31
0.0
  0
LINE
  5
408
330
4EA
100
AcDbEntity
  8
HATCH
  6
Continuous
 62
     7
370
    30
100
AcDbLine
 10
28.088417
 20
-5.130167
 30
0.0
 11
27.861729
 21
-4.903479
 31
0.0
  0
LINE
  5
409
330
4EA
100
AcDbEntity
  8
HATCH
  6
Continuous
 62
     7
370
    30
100
AcDbLine
 10
28.088417
 20
-4.953385
 30
0.0
 11
28.03851
 21
-4.903479
 31
0.0
  0
LINE
  5
40A
330
4EA
100
AcDbEntity
  8
BORDER
  6
Continuous
 62
     7
370
    30
100
AcDbLine
 10
31.25
 20
-1.918458
 30
0.0
 11
31.25
 21
-2.125
 31
0.0
  0
LINE
  5
40B
330
4EA
100
AcDbEntity
  8
BORDER
  6
Continuous
 62
     7
370
    30
100
AcDbLine
 10
23.25
 20
-1.918458
 30
0.0
 11
23.25
 21
-2.125
 31
0.0
  0
LINE
  5
40C
330
4EA
100
AcDbEntity
  8
BORDER
  6
Continuous
 62
     7
370
    30
100
AcDbLine
 10
31.456542
 20
-2.125
 30
0.0
 11
31.25
 21
-2.125
 31
0.0
  0
LINE
  5
40D
330
4EA
100
AcDbEntity
  8
BORDER
  6
Continuous
 62
     7
370
    30
100
AcDbLine
 10
31.456542
 20
-12.875
 30
0.0
 11
31.25
 21
-12.875
 31
0.0
  0
LINE
  5
40E
330
4EA
100
AcDbEntity
  8
BORDER
  6
Continuous
 62
     7
370
    30
100
AcDbLine
 10
23.25
 20
-2.125
 30
0.0
 11
23.043458
 21
-2.125
 31
0.0
  0
LINE
  5
40F
330
4EA
100
AcDbEntity
  8
BORDER
  6
Continuous
 62
     7
370
    30
100
AcDbLine
 10
31.25
 20
-12.875
 30
0.0
 11
31.25
 21
-13.081542
 31
0.0
  0
LINE
  5
410
330
4EA
100
AcDbEntity
  8
BORDER
  6
Continuous
 62
     7
370
    30
100
AcDbLine
 10
23.25
 20
-12.875
 30
0.0
 11
23.25
 21
-13.081542
 31
0.0
  0
LINE
  5
411
330
4EA
100
AcDbEntity
  8
BORDER
  6
Continuous
 62
     7
370
    30
100
AcDbLine
 10
23.25
 20
-12.875
 30
0.0
 11
23.043458
 21
-12.875
 31
0.0
  0
LINE
  5
413
330
4EA
100
AcDbEntity
  8
DIM
  6
Continuous
 62
     7
370
    30
100
AcDbLine
 10
26.173324
 20
-3.372396
 30
0.0
 11
28.36739
 21
-3.372396
 31
0.0
  0
LINE
  5
416
330
4EA
100
AcDbEntity
  8
DIM
  6
Continuous
 62
     7
370
    30
100
AcDbLine
 10
23.783958
 20
-7.763917
 30
0.0
 11
24.814781
 21
-7.763917
 31
0.0
  0
LINE
  5
417
330
4EA
100
AcDbEntity
  8
DIM
  6
Continuous
 62
     7
370
    30
100
AcDbLine
 10
23.794917
 20
-8.345
 30
0.0
 11
25.297521
 21
-8.345
 31
0.0
  0
LINE
  5
418
330
4EA
100
AcDbEntity
  8
DIM
  6
Continuous
 62
     7
370
    30
100
AcDbLine
 10
23.794917
 20
-10.099198
 30
0.0
 11
25.308469
 21
-10.099198
 31
0.0
  0
LINE
  5
419
330
4EA
100
AcDbEntity
  8
TITLE
  6
Continuous
 62
     7
370
    13
100
AcDbLine
 10
26.380781
 20
-5.659625
 30
0.0
 11
26.025219
 21
-5.955083
 31
0.0
  0
INSERT
  5
41A
330
4EA
100
AcDbEntity
  8
DIM
  6
Continuous
 62
     7
370
    13
100
AcDbBlockReference
  2
LARROW
 10
25.306281
 20
-4.403479
 30
0.0
 41
12.0
 42
12.0
 43
12.0
 50
270.0
  0
INSERT
  5
41C
330
4EA
100
AcDbEntity
  8
DIM
  6
Continuous
 62
     7
370
    13
100
AcDbBlockReference
  2
LARROW
 10
25.306281
 20
-4.903479
 30
0.0
 41
12.0
 42
12.0
 43
12.0
 50
90.0
  0
INSERT
  5
41E
330
4EA
100
AcDbEntity
  8
DIM
  6
Continuous
 62
     7
370
    13
100
AcDbBlockReference
  2
LARROW
 10
26.380781
 20
-5.659625
 30
0.0
 41
12.000002
 42
12.000002
 43
12.000002
 50
39.725245
  0
INSERT
  5
420
330
4EA
100
AcDbEntity
  8
DIM
  6
Continuous
 62
     7
370
    13
100
AcDbBlockReference
  2
LARROW
 10
25.688417
 20
-5.248073
 30
0.0
 41
12.0
 42
12.0
 43
12.0
 50
180.0
  0
INSERT
  5
422
330
4EA
100
AcDbEntity
  8
DIM
  6
Continuous
 62
     7
370
    13
100
AcDbBlockReference
  2
LARROW
 10
26.388417
 20
-5.248073
 30
0.0
 41
12.0
 42
12.0
 43
12.0
  0
INSERT
  5
424
330
4EA
100
AcDbEntity
  8
DIM
  6
Continuous
 62
     7
370
    13
100
AcDbBlockReference
  2
LARROW
 10
28.088417
 20
-5.248073
 30
0.0
 41
12.0
 42
12.0
 43
12.0
 50
180.0
  0
INSERT
  5
426
330
4EA
100
AcDbEntity
  8
DIM
  6
Continuous
 62
     7
370
    13
100
AcDbBlockReference
  2
LARROW
 10
28.788417
 20
-5.248073
 30
0.0
 41
12.0
 42
12.0
 43
12.0
  0
INSERT
  5
428
330
4EA
100
AcDbEntity
  8
DIM
  6
Continuous
 62
     7
370
    13
100
AcDbBlockReference
  2
LARROW
 10
29.156812
 20
-4.890979
 30
0.0
 41
12.0
 42
12.0
 43
12.0
 50
90.0
  0
INSERT
  5
42A
330
4EA
100
AcDbEntity
  8
DIM
  6
Continuous
 62
     7
370
    13
100
AcDbBlockReference
  2
LARROW
 10
29.156812
 20
-4.403479
 30
0.0
 41
12.0
 42
12.0
 43
12.0
 50
270.0
  0
LINE
  5
432
330
4EA
100
AcDbEntity
  8
DIM
  6
Continuous
 62
     7
370
    13
100
AcDbLine
 10
24.898876
 20
-4.631254
 30
0.0
 11
25.884479
 21
-4.666552
 31
0.0
  0
INSERT
  5
433
330
4EA
100
AcDbEntity
  8
DIM
  6
Continuous
 62
     7
370
    13
100
AcDbBlockReference
  2
LARROW_1
 10
25.884479
 20
-4.666552
 30
0.0
 41
12.0
 42
12.0
 43
12.0
 50
357.948923
  0
LWPOLYLINE
  5
443
330
4EA
100
AcDbEntity
  8
DIM
  6
Continuous
 62
     7
370
    13
100
AcDbPolyline
 90
        3
 70
   128
 43
0.0
 10
27.685813
 20
-3.780135
 10
27.590719
 20
-3.780135
 10
27.75476
 20
-4.903479
  0
LINE
  5
444
330
4EA
100
AcDbEntity
  8
DIM
  6
Continuous
 62
     7
370
    13
100
AcDbLine
 10
27.590719
 20
-3.780135
 30
0.0
 11
27.03325
 21
-4.528479
 31
0.0
  0
INSERT
  5
445
330
4EA
100
AcDbEntity
  8
DIM
  6
Continuous
 62
     7
370
    13
100
AcDbBlockReference
  2
LARROW_1
 10
27.03325
 20
-4.528479
 30
0.0
 41
12.000003
 42
12.000003
 43
12.000003
 50
233.316221
  0
INSERT
  5
450
330
4EA
100
AcDbEntity
  8
DIM
  6
Continuous
 62
     7
370
    13
100
AcDbBlockReference
  2
LARROW_1
 10
27.75476
 20
-4.903479
 30
0.0
 41
11.999999
 42
11.999999
 43
11.999999
 50
278.308169
  0
LWPOLYLINE
  5
45C
330
4EA
100
AcDbEntity
  8
DIM
  6
Continuous
 62
     7
370
    13
100
AcDbPolyline
 90
        3
 70
   128
 43
0.0
 10
27.349135
 20
-3.570896
 10
27.222948
 20
-3.570896
 10
26.745646
 20
-4.403479
  0
INSERT
  5
45D
330
4EA
100
AcDbEntity
  8
DIM
  6
Continuous
 62
     7
370
    13
100
AcDbBlockReference
  2
LARROW_1
 10
26.745646
 20
-4.403479
 30
0.0
 41
12.000001
 42
12.000001
 43
12.000001
 50
240.175273
  0
LWPOLYLINE
  5
46A
330
4EA
100
AcDbEntity
  8
DIM
  6
Continuous
 62
     7
370
    13
100
AcDbPolyline
 90
        3
 70
   128
 43
0.0
 10
25.855802
 20
-3.771271
 10
25.810958
 20
-3.771271
 10
25.688417
 20
-4.403479
  0
LWPOLYLINE
  5
46B
330
4EA
100
AcDbEntity
  8
DIM
  6
Continuous
 62
     7
370
    13
100
AcDbPolyline
 90
        3
 70
   128
 43
0.0
 10
25.145281
 20
-3.718125
 10
25.352229
 20
-3.718125
 10
25.525615
 20
-4.403479
  0
INSERT
  5
46C
330
4EA
100
AcDbEntity
  8
DIM
  6
Continuous
 62
     7
370
    13
100
AcDbBlockReference
  2
LARROW_1
 10
25.525615
 20
-4.403479
 30
0.0
 41
11.999997
 42
11.999997
 43
11.999997
 50
284.197177
  0
INSERT
  5
477
330
4EA
100
AcDbEntity
  8
DIM
  6
Continuous
 62
     7
370
    13
100
AcDbBlockReference
  2
LARROW_1
 10
25.688417
 20
-4.403479
 30
0.0
 41
12.000002
 42
12.000002
 43
12.000002
 50
259.030333
  0
TEXT
  5
63
330
4EA
100
AcDbEntity
  8
BORDER
  6
Continuous
 62
     7
370
    30
100
AcDbText
 10
28.785695
 20
-11.88272
 30
0.0
 40
0.140396
  1
AUG 1992
 41
0.925953
  7
Style-Arial
 72
     1
 11
29.204876
 21
-11.88272
 31
0.0
100
AcDbText
  0
TEXT
  5
64
330
4EA
100
AcDbEntity
  8
BORDER
  6
Continuous
 62
     7
370
    30
100
AcDbText
 10
28.937798
 20
-11.67976
 30
0.0
 40
0.140396
  1
DATE
 41
0.925953
  7
Style-Arial
 72
     1
 11
29.175207
 21
-11.67976
 31
0.0
100
AcDbText
  0
TEXT
  5
65
330
4EA
100
AcDbEntity
  8
BORDER
  6
Continuous
 62
     7
370
    30
100
AcDbText
 10
30.117167
 20
-11.884988
 30
0.0
 40
0.140396
  1
2-34c
 41
0.925953
  7
Style-Arial
 72
     1
 11
30.343428
 21
-11.884988
 31
0.0
100
AcDbText
  0
TEXT
  5
66
330
4EA
100
AcDbEntity
  8
BORDER
  6
Continuous
 62
     7
370
    30
100
AcDbText
 10
30.012887
 20
-11.70698
 30
0.0
 40
0.140396
  1
FIGURE
 41
0.925953
  7
Style-Arial
 72
     1
 11
30.351165
 21
-11.70698
 31
0.0
100
AcDbText
  0
TEXT
  5
67
330
4EA
100
AcDbEntity
  8
TITLE
  6
Continuous
 62
     7
370
    30
100
AcDbText
 10
24.713932
 20
-6.016625
 30
0.0
 40
0.140396
  1
UTILITY CUT
 41
0.925953
  7
Style-Arial
 72
     1
 11
25.262072
 21
-6.016625
 31
0.0
100
AcDbText
  0
TEXT
  5
68
330
4EA
100
AcDbEntity
  8
_0
  6
Continuous
 62
     7
370
    30
100
AcDbText
 10
26.816914
 20
-5.972744
 30
0.0
 40
0.140396
  1
BACKFILL
 41
0.925953
  7
Style-Arial
 72
     1
 11
27.242733
 21
-5.972744
 31
0.0
100
AcDbText
  0
TEXT
  5
69
330
4EA
100
AcDbEntity
  8
TITLE
  6
Continuous
 62
     7
370
    30
100
AcDbText
 10
27.032469
 20
-6.835844
 30
0.0
 40
0.140396
  1
PIPE
 41
0.925953
  7
Style-Arial
 72
     1
 11
27.234603
 21
-6.835844
 31
0.0
100
AcDbText
  0
TEXT
  5
78
330
4EA
100
AcDbEntity
  8
DIM
  6
Continuous
 62
     7
370
    30
100
AcDbText
 10
29.337331
 20
-4.102219
 30
0.0
 40
0.140396
  1
VARIES
 41
0.925953
  7
Style-Arial
 72
     1
 11
29.66575
 21
-4.102219
 31
0.0
100
AcDbText
  0
TEXT
  5
79
330
4EA
100
AcDbEntity
  8
DIM
  6
Continuous
 62
     7
370
    30
100
AcDbText
 10
24.405381
 20
-4.096719
 30
0.0
 40
0.140396
  1
VARIES
 41
0.925953
  7
Style-Arial
 72
     1
 11
24.733799
 21
-4.096719
 31
0.0
100
AcDbText
  0
TEXT
  5
7A
330
4EA
100
AcDbEntity
  8
TITLE
  6
Continuous
 62
     7
370
    30
100
AcDbText
 10
26.331585
 20
-4.202802
 30
0.0
 40
0.140396
  1
1
 41
0.925953
  7
Style-Arial
 72
     1
 11
26.365373
 21
-4.202802
 31
0.0
100
AcDbText
  0
TEXT
  5
7D
330
4EA
100
AcDbEntity
  8
TITLE
  6
Continuous
 62
     7
370
    30
100
AcDbText
 10
28.022514
 20
-4.189708
 30
0.0
 40
0.140396
  1
2
 41
0.925953
  7
Style-Arial
 72
     1
 11
28.068192
 21
-4.189708
 31
0.0
100
AcDbText
  0
TEXT
  5
7E
330
4EA
100
AcDbEntity
  8
NOTES
  6
Continuous
 62
     7
370
    30
100
AcDbText
 10
24.58501
 20
-10.324784
 30
0.0
 40
0.140396
  1
2
 41
0.925953
  7
Style-Arial
 72
     1
 11
24.630688
 21
-10.324784
 31
0.0
100
AcDbText
  0
TEXT
  5
81
330
4EA
100
AcDbEntity
  8
NOTES
  6
Continuous
 62
     7
370
    30
100
AcDbText
 10
24.574682
 20
-8.578923
 30
0.0
 40
0.140396
  1
1
 41
0.925953
  7
Style-Arial
 72
     1
 11
24.60847
 21
-8.578923
 31
0.0
100
AcDbText
  0
TEXT
  5
3C6
330
4EA
100
AcDbEntity
  8
Level 10
  6
Continuous
 62
     7
370
    30
100
AcDbText
 10
23.96162
 20
-11.821992
 30
0.0
 40
0.140396
  1
REPAIR OF FLEXIBLE PAVEMENTS (UTILITY CUT)
 41
0.925953
  7
Style-Arial
 72
     1
 11
26.118263
 21
-11.821992
 31
0.0
100
AcDbText
  0
TEXT
  5
3C7
330
4EA
100
AcDbEntity
  8
NOTES
  6
Continuous
 62
     7
370
    30
100
AcDbText
 10
24.080811
 20
-7.901865
 30
0.0
 40
0.140396
  1
                 FROM A CUT FOR UTILITY INSTALLATION OR REPAIR
 41
0.925953
  7
Style-Arial
 72
     1
 11
26.849652
 21
-7.901865
 31
0.0
100
AcDbText
  0
TEXT
  5
3C8
330
4EA
100
AcDbEntity
  8
NOTES
  6
Continuous
 62
     7
370
    30
100
AcDbText
 10
24.384533
 20
-8.675375
 30
0.0
 40
0.140396
  1
                     LAYER MEETING SPECIFIED DENSITY, TO THE BOTTOM
 41
0.925953
  7
Style-Arial
 72
     1
 11
27.364873
 21
-8.675375
 31
0.0
100
AcDbText
  0
TEXT
  5
3C9
330
4EA
100
AcDbEntity
  8
NOTES
  6
Continuous
 62
     7
370
    30
100
AcDbText
 10
24.388447
 20
-9.052437
 30
0.0
 40
0.140396
  1
                     OF REQUIRED THICKNESS TO AN ELEVATION APPROX
 41
0.925953
  7
Style-Arial
 72
     1
 11
27.334849
 21
-9.052437
 31
0.0
100
AcDbText
  0
TEXT
  5
3CA
330
4EA
100
AcDbEntity
  8
NOTES
  6
Continuous
 62
     7
370
    30
100
AcDbText
 10
24.392306
 20
-9.240896
 30
0.0
 40
0.140396
  1
                     2 INCHES BELOW PAVEMENT SURFACE, AND PLACE AN
 41
0.925953
  7
Style-Arial
 72
     1
 11
27.387409
 21
-9.240896
 31
0.0
100
AcDbText
  0
TEXT
  5
3CB
330
4EA
100
AcDbEntity
  8
NOTES
  6
Continuous
 62
     7
370
    30
100
AcDbText
 10
24.448482
 20
-10.218562
 30
0.0
 40
0.140396
  1
                    AND REPLACE THE BACKFILL IN THIN LAYERS AND
 41
0.925953
  7
Style-Arial
 72
     1
 11
27.203947
 21
-10.218562
 31
0.0
100
AcDbText
  0
TEXT
  5
3CC
330
4EA
100
AcDbEntity
  8
NOTES
  6
Continuous
 62
     7
370
    30
100
AcDbText
 10
24.444129
 20
-10.427007
 30
0.0
 40
0.140396
  1
                    THOROUGHLY COMPACT. REPLACE THE BASE MATERIAL
 41
0.925953
  7
Style-Arial
 72
     1
 11
27.493878
 21
-10.427007
 31
0.0
100
AcDbText
  0
TEXT
  5
3CD
330
4EA
100
AcDbEntity
  8
NOTES
  6
Continuous
 62
     7
370
    30
100
AcDbText
 10
24.440435
 20
-10.612677
 30
0.0
 40
0.140396
  1
                    & SURFACING ABOVE THE BACKFILL WITH FULL DEPTH
 41
0.925953
  7
Style-Arial
 72
     1
 11
27.395111
 21
-10.612677
 31
0.0
100
AcDbText
  0
TEXT
  5
3CE
330
4EA
100
AcDbEntity
  8
NOTES
  6
Continuous
 62
     7
370
    30
100
AcDbText
 10
24.448506
 20
-10.801417
 30
0.0
 40
0.140396
  1
                    ASPHALT. COMPACTED IN LAYERS NOT TO EXCEED 3 IN.
 41
0.925953
  7
Style-Arial
 72
     1
 11
27.473335
 21
-10.801417
 31
0.0
100
AcDbText
  0
TEXT
  5
412
330
4EA
100
AcDbEntity
  8
TITLE
  6
Continuous
 62
     7
370
    30
100
AcDbText
 10
26.191188
 20
-3.307198
 30
0.0
 40
0.140396
  1
REPAIR TO UTILITY CUT
 41
0.925953
  7
Style-Arial
 72
     1
 11
27.254076
 21
-3.307198
 31
0.0
100
AcDbText
  0
TEXT
  5
414
330
4EA
100
AcDbEntity
  8
NOTES
  6
Continuous
 62
     7
370
    30
100
AcDbText
 10
23.782673
 20
-7.703948
 30
0.0
 40
0.140396
  1
CONDITION:  A DEPRESSION ON A PAVEMENT SURFACE THAT DEVELOPS
 41
0.925953
  7
Style-Arial
 72
     1
 11
27.053282
 21
-7.703948
 31
0.0
100
AcDbText
  0
TEXT
  5
415
330
4EA
100
AcDbEntity
  8
NOTES
  6
Continuous
 62
     7
370
    30
100
AcDbText
 10
23.777314
 20
-10.035375
 30
0.0
 40
0.140396
  1
REPIAR METHOD:  REMOVE THE DEPRESSION TO THE PIPE OR CONDUIT
 41
0.925953
  7
Style-Arial
 72
     1
 11
27.020328
 21
-10.035375
 31
0.0
100
AcDbText
  0
TEXT
  5
42C
330
4EA
100
AcDbEntity
  8
DIM
  6
Continuous
 62
     7
370
    30
100
AcDbText
 10
24.167549
 20
-3.571052
 30
0.0
 40
0.140396
  1
EXISTING
 41
0.925953
  7
Style-Arial
 72
     1
 11
24.585788
 21
-3.571052
 31
0.0
100
AcDbText
  0
TEXT
  5
42D
330
4EA
100
AcDbEntity
  8
DIM
  6
Continuous
 62
     7
370
    30
100
AcDbText
 10
24.166874
 20
-3.769927
 30
0.0
 40
0.140396
  1
SURFACE
 41
0.925953
  7
Style-Arial
 72
     1
 11
24.596062
 21
-3.769927
 31
0.0
100
AcDbText
  0
TEXT
  5
42E
330
4EA
100
AcDbEntity
  8
DIM
  6
Continuous
 62
     7
370
    30
100
AcDbText
 10
24.095951
 20
-4.452995
 30
0.0
 40
0.140396
  1
NEW
 41
0.925953
  7
Style-Arial
 72
     1
 11
24.306804
 21
-4.452995
 31
0.0
100
AcDbText
  0
TEXT
  5
42F
330
4EA
100
AcDbEntity
  8
DIM
  6
Continuous
 62
     7
370
    30
100
AcDbText
 10
23.692147
 20
-4.676054
 30
0.0
 40
0.140396
  1
COMPACTED
 41
0.925953
  7
Style-Arial
 72
     1
 11
24.267635
 21
-4.676054
 31
0.0
100
AcDbText
  0
TEXT
  5
430
330
4EA
100
AcDbEntity
  8
DIM
  6
Continuous
 62
     7
370
    30
100
AcDbText
 10
24.059352
 20
-4.83751
 30
0.0
 40
0.140396
  1
BASE
 41
0.925953
  7
Style-Arial
 72
     1
 11
24.296859
 21
-4.83751
 31
0.0
100
AcDbText
  0
TEXT
  5
431
330
4EA
100
AcDbEntity
  8
DIM
  6
Continuous
 62
     7
370
    30
100
AcDbText
 10
23.903112
 20
-5.005637
 30
0.0
 40
0.140396
  1
COURSE
 41
0.925953
  7
Style-Arial
 72
     1
 11
24.286869
 21
-5.005637
 31
0.0
100
AcDbText
  0
TEXT
  5
43E
330
4EA
100
AcDbEntity
  8
DIM
  6
Continuous
 62
     7
370
    30
100
AcDbText
 10
25.92357
 20
-5.185792
 30
0.0
 40
0.140396
  1
12"
 41
0.925953
  7
Style-Arial
 72
     1
 11
26.052529
 21
-5.185792
 31
0.0
100
AcDbText
  0
TEXT
  5
43F
330
4EA
100
AcDbEntity
  8
DIM
  6
Continuous
 62
     7
370
    30
100
AcDbText
 10
25.880678
 20
-5.457771
 30
0.0
 40
0.140396
  1
MIN.
 41
0.925953
  7
Style-Arial
 72
     1
 11
26.064432
 21
-5.457771
 31
0.0
100
AcDbText
  0
TEXT
  5
440
330
4EA
100
AcDbEntity
  8
DIM
  6
Continuous
 62
     7
370
    30
100
AcDbText
 10
28.340877
 20
-5.177323
 30
0.0
 40
0.140396
  1
12"
 41
0.925953
  7
Style-Arial
 72
     1
 11
28.469836
 21
-5.177323
 31
0.0
100
AcDbText
  0
TEXT
  5
441
330
4EA
100
AcDbEntity
  8
DIM
  6
Continuous
 62
     7
370
    30
100
AcDbText
 10
28.271139
 20
-5.452375
 30
0.0
 40
0.140396
  1
MIN.
 41
0.925953
  7
Style-Arial
 72
     1
 11
28.454893
 21
-5.452375
 31
0.0
100
AcDbText
  0
TEXT
  5
442
330
4EA
100
AcDbEntity
  8
DIM
  6
Continuous
 62
     7
370
    30
100
AcDbText
 10
27.70699
 20
-3.83425
 30
0.0
 40
0.140396
  1
BITUMINOUS PRIME COAT
 41
0.925953
  7
Style-Arial
 72
     1
 11
28.865743
 21
-3.83425
 31
0.0
100
AcDbText
  0
TEXT
  5
45B
330
4EA
100
AcDbEntity
  8
DIM
  6
Continuous
 62
     7
370
    30
100
AcDbText
 10
27.367366
 20
-3.628604
 30
0.0
 40
0.140396
  1
NEW ASPHALT SURFACE COURSE
 41
0.925953
  7
Style-Arial
 72
     1
 11
28.886642
 21
-3.628604
 31
0.0
100
AcDbText
  0
TEXT
  5
468
330
4EA
100
AcDbEntity
  8
DIM
  6
Continuous
 62
     7
370
    30
100
AcDbText
 10
25.886651
 20
-3.792045
 30
0.0
 40
0.140396
  1
FULL DEPTH
 41
0.925953
  7
Style-Arial
 72
     1
 11
26.434444
 21
-3.792045
 31
0.0
100
AcDbText
  0
TEXT
  5
469
330
4EA
100
AcDbEntity
  8
DIM
  6
Continuous
 62
     7
370
    30
100
AcDbText
 10
25.890602
 20
-3.966751
 30
0.0
 40
0.140396
  1
SAW CUT
 41
0.925953
  7
Style-Arial
 72
     1
 11
26.307553
 21
-3.966751
 31
0.0
100
AcDbText
  0
TEXT
  5
482
330
4EA
100
AcDbEntity
  8
NOTES
  6
Continuous
 62
     7
370
    30
100
AcDbText
 10
23.777294
 20
-8.286802
 30
0.0
 40
0.140396
  1
REPAIR METHOD:  REMOVE PAVEMENT 12 INCHES MINIMUM FROM EDGES OF
 41
0.925953
  7
Style-Arial
 72
     1
 11
27.239882
 21
-8.286802
 31
0.0
100
AcDbText
  0
TEXT
  5
483
330
4EA
100
AcDbEntity
  8
NOTES
  6
Continuous
 62
     7
370
    30
100
AcDbText
 10
24.393413
 20
-8.481094
 30
0.0
 40
0.140396
  1
                     THE CUT.  BACKFILL THE CUT WITH WELL-COMPACTED
 41
0.925953
  7
Style-Arial
 72
     1
 11
27.375437
 21
-8.481094
 31
0.0
100
AcDbText
  0
TEXT
  5
484
330
4EA
100
AcDbEntity
  8
NOTES
  6
Continuous
 62
     7
370
    30
100
AcDbText
 10
24.388812
 20
-8.869656
 30
0.0
 40
0.140396
  1
                     OF PAVEMENT STRUCTURE.  PLACE A BASE COURSE
 41
0.925953
  7
Style-Arial
 72
     1
 11
27.290626
 21
-8.869656
 31
0.0
100
AcDbText
  0
TEXT
  5
485
330
4EA
100
AcDbEntity
  8
NOTES
  6
Continuous
 62
     7
370
    30
100
AcDbText
 10
24.397702
 20
-9.440875
 30
0.0
 40
0.140396
  1
                     ASPHALT SURFACE OVER THE COMPACTED BASE.
 41
0.925953
  7
Style-Arial
 72
     1
 11
27.180415
 21
-9.440875
 31
0.0
100
AcDbText
  0
TEXT
  5
486
330
4EA
100
AcDbEntity
  8
TEXT
  6
Continuous
 62
     7
370
    30
100
AcDbText
 10
23.777372
 20
-11.44017
 30
0.0
 40
0.140396
  1
REFERENCE: TM 5-624; AFR 85-8
 41
0.925953
  7
Style-Arial
 72
     1
 11
25.211533
 21
-11.44017
 31
0.0
100
AcDbText
  0
ENDSEC
  0
SECTION
  2
OBJECTS
  0
DICTIONARY
  5
4DE
330
0
100
AcDbDictionary
281
     1
  3
ACAD_COLOR
350
4FD
  3
ACAD_GROUP
350
4FA
  3
ACAD_LAYOUT
350
4EE
  3
ACAD_MATERIAL
350
4FC
  3
ACAD_MLINESTYLE
350
4E8
  3
ACAD_PLOTSETTINGS
350
4FB
  3
ACAD_PLOTSTYLENAME
350
4DD
  3
ACAD_TABLESTYLE
350
517
  3
AcadDim
350
50A
  3
MicroStation
350
502
  0
DICTIONARY
  5
4DA
330
4D9
100
AcDbDictionary
280
     1
281
     1
  3
ACAD_LAYERFILTERS
360
501
  3
ACAD_LAYERSTATES
360
4DB
  0
DICTIONARY
  5
513
330
4EA
100
AcDbDictionary
280
     1
281
     1
  3
ACAD_SORTENTS
360
514
  0
DICTIONARY
  5
4FD
102
{ACAD_REACTORS
330
4DE
102
}
330
4DE
100
AcDbDictionary
281
     1
  0
DICTIONARY
  5
4FA
102
{ACAD_REACTORS
330
4DE
102
}
330
4DE
100
AcDbDictionary
281
     1
  0
DICTIONARY
  5
4EE
102
{ACAD_REACTORS
330
4DE
102
}
330
4DE
100
AcDbDictionary
281
     1
  3
Layout1
350
4F2
  3
Model
350
4ED
  0
DICTIONARY
  5
4FC
102
{ACAD_REACTORS
330
4DE
102
}
330
4DE
100
AcDbDictionary
281
     1
  0
DICTIONARY
  5
4E8
102
{ACAD_REACTORS
330
4DE
102
}
330
4DE
100
AcDbDictionary
281
     1
  3
Standard
350
4E7
  0
DICTIONARY
  5
4FB
102
{ACAD_REACTORS
330
4DE
102
}
330
4DE
100
AcDbDictionary
281
     1
  0
ACDBDICTIONARYWDFLT
  5
4DD
102
{ACAD_REACTORS
330
4DE
102
}
330
4DE
100
AcDbDictionary
281
     1
  3
Normal
350
4DC
100
AcDbDictionaryWithDefault
340
4DC
  0
DICTIONARY
  5
517
102
{ACAD_REACTORS
330
4DE
102
}
330
4DE
100
AcDbDictionary
281
     1
  0
XRECORD
  5
50A
102
{ACAD_REACTORS
330
4DE
102
}
330
4DE
100
AcDbXrecord
280
     1
 90
   990106
  3
 
 60
     0
 61
     0
 62
     1
 63
     1
 64
     0
 65
     0
 66
     0
 67
     3
 68
     1
 69
     1
 70
     0
 71
     0
 72
     0
 40
0.0
170
     0
  0
DICTIONARY
  5
502
102
{ACAD_REACTORS
330
4DE
102
}
330
4DE
100
AcDbDictionary
281
     1
  3
ApplicationElement 1233
350
4D1
  3
ApplicationElement 1238
350
4D6
  3
ModelApplicationElement 0 1232
350
4D0
  0
DICTIONARY
  5
501
102
{ACAD_REACTORS
330
4DA
102
}
330
4DA
100
AcDbDictionary
281
     1
  0
DICTIONARY
  5
4DB
102
{ACAD_REACTORS
330
4DA
102
}
330
4DA
100
AcDbDictionary
281
     1
  0
SORTENTSTABLE
  5
514
102
{ACAD_REACTORS
330
513
102
}
330
513
100
AcDbSortentsTable
330
4EA
331
63
  5
416
331
64
  5
417
331
65
  5
418
331
66
  5
419
331
67
  5
41A
331
68
  5
41C
331
69
  5
41E
331
6A
  5
63
331
6B
  5
64
331
6C
  5
65
331
6D
  5
66
331
6E
  5
67
331
6F
  5
68
331
70
  5
69
331
71
  5
6A
331
72
  5
6B
331
73
  5
6C
331
74
  5
6D
331
75
  5
6E
331
76
  5
6F
331
77
  5
70
331
78
  5
420
331
79
  5
422
331
7A
  5
424
331
7B
  5
71
331
7C
  5
72
331
7D
  5
426
331
7E
  5
428
331
7F
  5
73
331
80
  5
74
331
81
  5
42A
331
82
  5
75
331
83
  5
76
331
84
  5
77
331
85
  5
78
331
86
  5
79
331
87
  5
7A
331
88
  5
7B
331
89
  5
7C
331
8A
  5
7D
331
8B
  5
7E
331
8C
  5
7F
331
8D
  5
80
331
8E
  5
81
331
8F
  5
82
331
90
  5
83
331
91
  5
84
331
92
  5
85
331
93
  5
86
331
94
  5
87
331
95
  5
88
331
96
  5
89
331
97
  5
8A
331
98
  5
8B
331
99
  5
8C
331
9A
  5
8D
331
9B
  5
8E
331
9C
  5
8F
331
9D
  5
90
331
9E
  5
91
331
9F
  5
92
331
A0
  5
93
331
A1
  5
94
331
A2
  5
95
331
A3
  5
96
331
A4
  5
97
331
A5
  5
98
331
A6
  5
99
331
A7
  5
9A
331
A8
  5
9B
331
A9
  5
9C
331
AA
  5
9D
331
AB
  5
9E
331
AC
  5
9F
331
AD
  5
A0
331
AE
  5
A1
331
AF
  5
A2
331
B0
  5
A3
331
B1
  5
A4
331
B2
  5
A5
331
B3
  5
A6
331
B4
  5
A7
331
B5
  5
A8
331
B6
  5
A9
331
B7
  5
AA
331
B8
  5
AB
331
B9
  5
AC
331
BA
  5
AD
331
BB
  5
AE
331
BC
  5
AF
331
BD
  5
B0
331
BE
  5
B1
331
BF
  5
B2
331
C0
  5
B3
331
C1
  5
B4
331
C2
  5
B5
331
C3
  5
B6
331
C4
  5
B7
331
C5
  5
B8
331
C6
  5
B9
331
C7
  5
BA
331
C8
  5
BB
331
C9
  5
BC
331
CA
  5
BD
331
CB
  5
BE
331
CC
  5
BF
331
CD
  5
C0
331
CE
  5
C1
331
CF
  5
C2
331
D0
  5
C3
331
D1
  5
C4
331
D2
  5
C5
331
D3
  5
C6
331
D4
  5
C7
331
D5
  5
C8
331
D6
  5
C9
331
D7
  5
CA
331
D8
  5
CB
331
D9
  5
CC
331
DA
  5
CD
331
DB
  5
CE
331
DC
  5
CF
331
DD
  5
D0
331
DE
  5
D1
331
DF
  5
D2
331
E0
  5
D3
331
E1
  5
D4
331
E2
  5
D5
331
E3
  5
D6
331
E4
  5
D7
331
E5
  5
D8
331
E6
  5
D9
331
E7
  5
DA
331
E8
  5
DB
331
E9
  5
DC
331
EA
  5
DD
331
EB
  5
DE
331
EC
  5
DF
331
ED
  5
E0
331
EE
  5
E1
331
EF
  5
E2
331
F0
  5
E3
331
F1
  5
E4
331
F2
  5
E5
331
F3
  5
E6
331
F4
  5
E7
331
F5
  5
E8
331
F6
  5
E9
331
F7
  5
EA
331
F8
  5
EB
331
F9
  5
EC
331
FA
  5
ED
331
FB
  5
EE
331
FC
  5
EF
331
FD
  5
F0
331
FE
  5
F1
331
FF
  5
F2
331
100
  5
F3
331
101
  5
F4
331
102
  5
F5
331
103
  5
F6
331
104
  5
F7
331
105
  5
F8
331
106
  5
F9
331
107
  5
FA
331
108
  5
FB
331
109
  5
FC
331
10A
  5
FD
331
10B
  5
FE
331
10C
  5
FF
331
10D
  5
100
331
10E
  5
101
331
10F
  5
102
331
110
  5
103
331
111
  5
104
331
112
  5
105
331
113
  5
106
331
114
  5
107
331
115
  5
108
331
116
  5
109
331
117
  5
10A
331
118
  5
10B
331
119
  5
10C
331
11A
  5
10D
331
11B
  5
10E
331
11C
  5
10F
331
11D
  5
110
331
11E
  5
111
331
11F
  5
112
331
120
  5
113
331
121
  5
114
331
122
  5
115
331
123
  5
116
331
124
  5
117
331
125
  5
118
331
126
  5
119
331
127
  5
11A
331
128
  5
11B
331
129
  5
11C
331
12A
  5
11D
331
12B
  5
11E
331
12C
  5
11F
331
12D
  5
120
331
12E
  5
121
331
12F
  5
122
331
130
  5
123
331
131
  5
124
331
132
  5
125
331
133
  5
126
331
134
  5
127
331
135
  5
128
331
136
  5
129
331
137
  5
12A
331
138
  5
12B
331
139
  5
12C
331
13A
  5
12D
331
13B
  5
12E
331
13C
  5
12F
331
13D
  5
130
331
13E
  5
131
331
13F
  5
132
331
140
  5
133
331
141
  5
134
331
142
  5
135
331
143
  5
136
331
144
  5
137
331
145
  5
138
331
146
  5
139
331
147
  5
13A
331
148
  5
13B
331
149
  5
13C
331
14A
  5
13D
331
14B
  5
13E
331
14C
  5
13F
331
14D
  5
140
331
14E
  5
141
331
14F
  5
142
331
150
  5
143
331
151
  5
144
331
152
  5
145
331
153
  5
146
331
154
  5
147
331
155
  5
148
331
156
  5
149
331
157
  5
14A
331
158
  5
14B
331
159
  5
14C
331
15A
  5
14D
331
15B
  5
14E
331
15C
  5
14F
331
15D
  5
150
331
15E
  5
151
331
15F
  5
152
331
160
  5
153
331
161
  5
154
331
162
  5
155
331
163
  5
156
331
164
  5
157
331
165
  5
158
331
166
  5
159
331
167
  5
15A
331
168
  5
15B
331
169
  5
15C
331
16A
  5
15D
331
16B
  5
15E
331
16C
  5
15F
331
16D
  5
160
331
16E
  5
161
331
16F
  5
162
331
170
  5
163
331
171
  5
164
331
172
  5
165
331
173
  5
166
331
174
  5
167
331
175
  5
168
331
176
  5
169
331
177
  5
16A
331
178
  5
16B
331
179
  5
16C
331
17A
  5
16D
331
17B
  5
16E
331
17C
  5
16F
331
17D
  5
170
331
17E
  5
171
331
17F
  5
172
331
180
  5
173
331
181
  5
174
331
182
  5
175
331
183
  5
176
331
184
  5
177
331
185
  5
178
331
186
  5
179
331
187
  5
17A
331
188
  5
17B
331
189
  5
17C
331
18A
  5
17D
331
18B
  5
17E
331
18C
  5
17F
331
18D
  5
180
331
18E
  5
181
331
18F
  5
182
331
190
  5
183
331
191
  5
184
331
192
  5
185
331
193
  5
186
331
194
  5
187
331
195
  5
188
331
196
  5
189
331
197
  5
18A
331
198
  5
18B
331
199
  5
18C
331
19A
  5
18D
331
19B
  5
18E
331
19C
  5
18F
331
19D
  5
190
331
19E
  5
191
331
19F
  5
192
331
1A0
  5
193
331
1A1
  5
194
331
1A2
  5
195
331
1A3
  5
196
331
1A4
  5
197
331
1A5
  5
198
331
1A6
  5
199
331
1A7
  5
19A
331
1A8
  5
19B
331
1A9
  5
19C
331
1AA
  5
19D
331
1AB
  5
19E
331
1AC
  5
19F
331
1AD
  5
1A0
331
1AE
  5
1A1
331
1AF
  5
1A2
331
1B0
  5
1A3
331
1B1
  5
1A4
331
1B2
  5
1A5
331
1B3
  5
1A6
331
1B4
  5
1A7
331
1B5
  5
1A8
331
1B6
  5
1A9
331
1B7
  5
1AA
331
1B8
  5
1AB
331
1B9
  5
1AC
331
1BA
  5
1AD
331
1BB
  5
1AE
331
1BC
  5
1AF
331
1BD
  5
1B0
331
1BE
  5
1B1
331
1BF
  5
1B2
331
1C0
  5
1B3
331
1C1
  5
1B4
331
1C2
  5
1B5
331
1C3
  5
1B6
331
1C4
  5
1B7
331
1C5
  5
1B8
331
1C6
  5
1B9
331
1C7
  5
1BA
331
1C8
  5
1BB
331
1C9
  5
1BC
331
1CA
  5
1BD
331
1CB
  5
1BE
331
1CC
  5
1BF
331
1CD
  5
1C0
331
1CE
  5
1C1
331
1CF
  5
1C2
331
1D0
  5
1C3
331
1D1
  5
1C4
331
1D2
  5
1C5
331
1D3
  5
1C6
331
1D4
  5
1C7
331
1D5
  5
1C8
331
1D6
  5
1C9
331
1D7
  5
1CA
331
1D8
  5
1CB
331
1D9
  5
1CC
331
1DA
  5
1CD
331
1DB
  5
1CE
331
1DC
  5
1CF
331
1DD
  5
1D0
331
1DE
  5
1D1
331
1DF
  5
1D2
331
1E0
  5
1D3
331
1E1
  5
1D4
331
1E2
  5
1D5
331
1E3
  5
1D6
331
1E4
  5
1D7
331
1E5
  5
1D8
331
1E6
  5
1D9
331
1E7
  5
1DA
331
1E8
  5
1DB
331
1E9
  5
1DC
331
1EA
  5
1DD
331
1EB
  5
1DE
331
1EC
  5
1DF
331
1ED
  5
1E0
331
1EE
  5
1E1
331
1EF
  5
1E2
331
1F0
  5
1E3
331
1F1
  5
1E4
331
1F2
  5
1E5
331
1F3
  5
1E6
331
1F4
  5
1E7
331
1F5
  5
1E8
331
1F6
  5
1E9
331
1F7
  5
1EA
331
1F8
  5
1EB
331
1F9
  5
1EC
331
1FA
  5
1ED
331
1FB
  5
1EE
331
1FC
  5
1EF
331
1FD
  5
1F0
331
1FE
  5
1F1
331
1FF
  5
1F2
331
200
  5
1F3
331
201
  5
1F4
331
202
  5
1F5
331
203
  5
1F6
331
204
  5
1F7
331
205
  5
1F8
331
206
  5
1F9
331
207
  5
1FA
331
208
  5
1FB
331
209
  5
1FC
331
20A
  5
1FD
331
20B
  5
1FE
331
20C
  5
1FF
331
20D
  5
200
331
20E
  5
201
331
20F
  5
202
331
210
  5
203
331
211
  5
204
331
212
  5
205
331
213
  5
206
331
214
  5
207
331
215
  5
208
331
216
  5
209
331
217
  5
20A
331
218
  5
20B
331
219
  5
20C
331
21A
  5
20D
331
21B
  5
20E
331
21C
  5
20F
331
21D
  5
210
331
21E
  5
211
331
21F
  5
212
331
220
  5
213
331
221
  5
214
331
222
  5
215
331
223
  5
216
331
224
  5
217
331
225
  5
218
331
226
  5
219
331
227
  5
21A
331
228
  5
21B
331
229
  5
21C
331
22A
  5
21D
331
22B
  5
21E
331
22C
  5
21F
331
22D
  5
220
331
22E
  5
221
331
22F
  5
222
331
230
  5
223
331
231
  5
224
331
232
  5
225
331
233
  5
226
331
234
  5
227
331
235
  5
228
331
236
  5
229
331
237
  5
22A
331
238
  5
22B
331
239
  5
22C
331
23A
  5
22D
331
23B
  5
22E
331
23C
  5
22F
331
23D
  5
230
331
23E
  5
231
331
23F
  5
232
331
240
  5
233
331
241
  5
234
331
242
  5
235
331
243
  5
236
331
244
  5
237
331
245
  5
238
331
246
  5
239
331
247
  5
23A
331
248
  5
23B
331
249
  5
23C
331
24A
  5
23D
331
24B
  5
23E
331
24C
  5
23F
331
24D
  5
240
331
24E
  5
241
331
24F
  5
242
331
250
  5
243
331
251
  5
244
331
252
  5
245
331
253
  5
246
331
254
  5
247
331
255
  5
248
331
256
  5
249
331
257
  5
24A
331
258
  5
24B
331
259
  5
24C
331
25A
  5
24D
331
25B
  5
24E
331
25C
  5
24F
331
25D
  5
250
331
25E
  5
251
331
25F
  5
252
331
260
  5
253
331
261
  5
254
331
262
  5
255
331
263
  5
256
331
264
  5
257
331
265
  5
258
331
266
  5
259
331
267
  5
25A
331
268
  5
25B
331
269
  5
25C
331
26A
  5
25D
331
26B
  5
25E
331
26C
  5
25F
331
26D
  5
260
331
26E
  5
261
331
26F
  5
262
331
270
  5
263
331
271
  5
264
331
272
  5
265
331
273
  5
266
331
274
  5
267
331
275
  5
268
331
276
  5
269
331
277
  5
26A
331
278
  5
26B
331
279
  5
26C
331
27A
  5
26D
331
27B
  5
26E
331
27C
  5
26F
331
27D
  5
270
331
27E
  5
271
331
27F
  5
272
331
280
  5
273
331
281
  5
274
331
282
  5
275
331
283
  5
276
331
284
  5
277
331
285
  5
278
331
286
  5
279
331
287
  5
27A
331
288
  5
27B
331
289
  5
27C
331
28A
  5
27D
331
28B
  5
27E
331
28C
  5
27F
331
28D
  5
280
331
28E
  5
281
331
28F
  5
282
331
290
  5
283
331
291
  5
284
331
292
  5
285
331
293
  5
286
331
294
  5
287
331
295
  5
288
331
296
  5
289
331
297
  5
28A
331
298
  5
28B
331
299
  5
28C
331
29A
  5
28D
331
29B
  5
28E
331
29C
  5
28F
331
29D
  5
290
331
29E
  5
291
331
29F
  5
292
331
2A0
  5
293
331
2A1
  5
294
331
2A2
  5
295
331
2A3
  5
296
331
2A4
  5
297
331
2A5
  5
298
331
2A6
  5
299
331
2A7
  5
29A
331
2A8
  5
29B
331
2A9
  5
29C
331
2AA
  5
29D
331
2AB
  5
29E
331
2AC
  5
29F
331
2AD
  5
2A0
331
2AE
  5
2A1
331
2AF
  5
2A2
331
2B0
  5
2A3
331
2B1
  5
2A4
331
2B2
  5
2A5
331
2B3
  5
2A6
331
2B4
  5
2A7
331
2B5
  5
2A8
331
2B6
  5
2A9
331
2B7
  5
2AA
331
2B8
  5
2AB
331
2B9
  5
2AC
331
2BA
  5
2AD
331
2BB
  5
2AE
331
2BC
  5
2AF
331
2BD
  5
2B0
331
2BE
  5
2B1
331
2BF
  5
2B2
331
2C0
  5
2B3
331
2C1
  5
2B4
331
2C2
  5
2B5
331
2C3
  5
2B6
331
2C4
  5
2B7
331
2C5
  5
2B8
331
2C6
  5
2B9
331
2C7
  5
2BA
331
2C8
  5
2BB
331
2C9
  5
2BC
331
2CA
  5
2BD
331
2CB
  5
2BE
331
2CC
  5
2BF
331
2CD
  5
2C0
331
2CE
  5
2C1
331
2CF
  5
2C2
331
2D0
  5
2C3
331
2D1
  5
2C4
331
2D2
  5
2C5
331
2D3
  5
2C6
331
2D4
  5
2C7
331
2D5
  5
2C8
331
2D6
  5
2C9
331
2D7
  5
2CA
331
2D8
  5
2CB
331
2D9
  5
2CC
331
2DA
  5
2CD
331
2DB
  5
2CE
331
2DC
  5
2CF
331
2DD
  5
2D0
331
2DE
  5
2D1
331
2DF
  5
2D2
331
2E0
  5
2D3
331
2E1
  5
2D4
331
2E2
  5
2D5
331
2E3
  5
2D6
331
2E4
  5
2D7
331
2E5
  5
2D8
331
2E6
  5
2D9
331
2E7
  5
2DA
331
2E8
  5
2DB
331
2E9
  5
2DC
331
2EA
  5
2DD
331
2EB
  5
2DE
331
2EC
  5
2DF
331
2ED
  5
2E0
331
2EE
  5
2E1
331
2EF
  5
2E2
331
2F0
  5
2E3
331
2F1
  5
2E4
331
2F2
  5
2E5
331
2F3
  5
2E6
331
2F4
  5
2E7
331
2F5
  5
2E8
331
2F6
  5
2E9
331
2F7
  5
2EA
331
2F8
  5
2EB
331
2F9
  5
2EC
331
2FA
  5
2ED
331
2FB
  5
2EE
331
2FC
  5
2EF
331
2FD
  5
2F0
331
2FE
  5
2F1
331
2FF
  5
2F2
331
300
  5
2F3
331
301
  5
2F4
331
302
  5
2F5
331
303
  5
2F6
331
304
  5
2F7
331
305
  5
2F8
331
306
  5
2F9
331
307
  5
2FA
331
308
  5
2FB
331
309
  5
2FC
331
30A
  5
2FD
331
30B
  5
2FE
331
30C
  5
2FF
331
30D
  5
300
331
30E
  5
301
331
30F
  5
302
331
310
  5
303
331
311
  5
304
331
312
  5
305
331
313
  5
306
331
314
  5
307
331
315
  5
308
331
316
  5
309
331
317
  5
30A
331
318
  5
30B
331
319
  5
30C
331
31A
  5
30D
331
31B
  5
30E
331
31C
  5
30F
331
31D
  5
310
331
31E
  5
311
331
31F
  5
312
331
320
  5
313
331
321
  5
314
331
322
  5
315
331
323
  5
316
331
324
  5
317
331
325
  5
318
331
326
  5
319
331
327
  5
31A
331
328
  5
31B
331
329
  5
31C
331
32A
  5
31D
331
32B
  5
31E
331
32C
  5
31F
331
32D
  5
320
331
32E
  5
321
331
32F
  5
322
331
330
  5
323
331
331
  5
324
331
332
  5
325
331
333
  5
326
331
334
  5
327
331
335
  5
328
331
336
  5
329
331
337
  5
32A
331
338
  5
32B
331
339
  5
32C
331
33A
  5
32D
331
33B
  5
32E
331
33C
  5
32F
331
33D
  5
330
331
33E
  5
331
331
33F
  5
332
331
340
  5
333
331
341
  5
334
331
342
  5
335
331
343
  5
336
331
344
  5
337
331
345
  5
338
331
346
  5
339
331
347
  5
33A
331
348
  5
33B
331
349
  5
33C
331
34A
  5
33D
331
34B
  5
33E
331
34C
  5
33F
331
34D
  5
340
331
34E
  5
341
331
34F
  5
342
331
350
  5
343
331
351
  5
344
331
352
  5
345
331
353
  5
346
331
354
  5
347
331
355
  5
348
331
356
  5
349
331
357
  5
34A
331
358
  5
34B
331
359
  5
34C
331
35A
  5
34D
331
35B
  5
34E
331
35C
  5
34F
331
35D
  5
350
331
35E
  5
351
331
35F
  5
352
331
360
  5
353
331
361
  5
354
331
362
  5
355
331
363
  5
356
331
364
  5
357
331
365
  5
358
331
366
  5
359
331
367
  5
35A
331
368
  5
35B
331
369
  5
35C
331
36A
  5
35D
331
36B
  5
35E
331
36C
  5
35F
331
36D
  5
360
331
36E
  5
361
331
36F
  5
362
331
370
  5
363
331
371
  5
364
331
372
  5
365
331
373
  5
366
331
374
  5
367
331
375
  5
368
331
376
  5
369
331
377
  5
36A
331
378
  5
36B
331
379
  5
36C
331
37A
  5
36D
331
37B
  5
36E
331
37C
  5
36F
331
37D
  5
370
331
37E
  5
371
331
37F
  5
372
331
380
  5
373
331
381
  5
374
331
382
  5
375
331
383
  5
376
331
384
  5
377
331
385
  5
378
331
386
  5
379
331
387
  5
37A
331
388
  5
37B
331
389
  5
37C
331
38A
  5
37D
331
38B
  5
37E
331
38C
  5
37F
331
38D
  5
380
331
38E
  5
381
331
38F
  5
382
331
390
  5
383
331
391
  5
384
331
392
  5
385
331
393
  5
386
331
394
  5
387
331
395
  5
388
331
396
  5
389
331
397
  5
38A
331
398
  5
38B
331
399
  5
38C
331
39A
  5
38D
331
39B
  5
38E
331
39C
  5
38F
331
39D
  5
390
331
39E
  5
391
331
39F
  5
392
331
3A0
  5
393
331
3A1
  5
394
331
3A2
  5
395
331
3A3
  5
396
331
3A4
  5
397
331
3A5
  5
398
331
3A6
  5
399
331
3A7
  5
39A
331
3A8
  5
39B
331
3A9
  5
39C
331
3AA
  5
39D
331
3AB
  5
39E
331
3AC
  5
39F
331
3AD
  5
3A0
331
3AE
  5
3A1
331
3AF
  5
3A2
331
3B0
  5
3A3
331
3B1
  5
3A4
331
3B2
  5
3A5
331
3B3
  5
3A6
331
3B4
  5
3A7
331
3B5
  5
3A8
331
3B6
  5
3A9
331
3B7
  5
3AA
331
3B8
  5
3AB
331
3B9
  5
3AC
331
3BA
  5
3AD
331
3BB
  5
3AE
331
3BC
  5
3AF
331
3BD
  5
3B0
331
3BE
  5
3B1
331
3BF
  5
3B2
331
3C0
  5
3B3
331
3C1
  5
3B4
331
3C2
  5
3B5
331
3C3
  5
3B6
331
3C4
  5
3B7
331
3C5
  5
3B8
331
3C6
  5
42C
331
3C7
  5
42D
331
3C8
  5
42E
331
3C9
  5
42F
331
3CA
  5
430
331
3CB
  5
431
331
3CC
  5
432
331
3CD
  5
433
331
3CE
  5
43E
331
3CF
  5
3B9
331
3D0
  5
3BA
331
3D1
  5
3BB
331
3D2
  5
3BC
331
3D3
  5
3BD
331
3D4
  5
3BE
331
3D5
  5
3BF
331
3D6
  5
3C0
331
3D7
  5
3C1
331
3D8
  5
3C2
331
3D9
  5
3C3
331
3DA
  5
3C4
331
3DB
  5
3C5
331
3DC
  5
3C6
331
3DD
  5
3C7
331
3DE
  5
3C8
331
3DF
  5
3C9
331
3E0
  5
3CA
331
3E1
  5
3CB
331
3E2
  5
3CC
331
3E3
  5
3CD
331
3E4
  5
3CE
331
3E5
  5
3CF
331
3E6
  5
3D0
331
3E7
  5
3D1
331
3E8
  5
3D2
331
3E9
  5
3D3
331
3EA
  5
3D4
331
3EB
  5
3D5
331
3EC
  5
3D6
331
3ED
  5
3D7
331
3EE
  5
3D8
331
3EF
  5
3D9
331
3F0
  5
3DA
331
3F1
  5
3DB
331
3F2
  5
3DC
331
3F3
  5
3DD
331
3F4
  5
3DE
331
3F5
  5
3DF
331
3F6
  5
3E0
331
3F7
  5
3E1
331
3F8
  5
3E2
331
3F9
  5
3E3
331
3FA
  5
3E4
331
3FB
  5
3E5
331
3FC
  5
3E6
331
3FD
  5
3E7
331
3FE
  5
3E8
331
3FF
  5
3E9
331
400
  5
3EA
331
401
  5
3EB
331
402
  5
3EC
331
403
  5
3ED
331
404
  5
3EE
331
405
  5
3EF
331
406
  5
3F0
331
407
  5
3F1
331
408
  5
3F2
331
409
  5
3F3
331
40A
  5
3F4
331
40B
  5
3F5
331
40C
  5
3F6
331
40D
  5
3F7
331
40E
  5
3F8
331
40F
  5
3F9
331
410
  5
3FA
331
411
  5
3FB
331
412
  5
43F
331
413
  5
3FC
331
414
  5
440
331
415
  5
441
331
416
  5
3FD
331
417
  5
3FE
331
418
  5
3FF
331
419
  5
400
331
41A
  5
401
331
41C
  5
402
331
41E
  5
403
331
420
  5
404
331
422
  5
405
331
424
  5
406
331
426
  5
407
331
428
  5
408
331
42A
  5
409
331
42C
  5
442
331
42D
  5
443
331
42E
  5
444
331
42F
  5
445
331
430
  5
450
331
431
  5
45B
331
432
  5
40A
331
433
  5
40B
331
43E
  5
45C
331
43F
  5
45D
331
440
  5
468
331
441
  5
469
331
442
  5
46A
331
443
  5
40C
331
444
  5
40D
331
445
  5
40E
331
450
  5
40F
331
45B
  5
46B
331
45C
  5
410
331
45D
  5
411
331
468
  5
46C
331
469
  5
477
331
46A
  5
412
331
46B
  5
413
331
46C
  5
414
331
477
  5
415
  0
LAYOUT
  5
4F2
102
{ACAD_REACTORS
330
4EE
330
4EE
102
}
102
{ACAD_XDICTIONARY
360
4F3
102
}
330
4EE
100
AcDbPlotSettings
  1

  2
none_device
  4
Letter_(8.50_x_11.00_Inches)
  6

 40
6.35
 41
6.35
 42
6.350006
 43
6.350006
 44
215.899994
 45
279.399994
 46
0.0
 47
0.0
 48
0.0
 49
0.0
140
0.0
141
0.0
142
1.0
143
1.0
 70
   688
 72
     0
 73
     1
 74
     5
  7

 75
    16
 76
     0
 77
     2
 78
   300
147
1.0
148
0.0
149
0.0
100
AcDbLayout
  1
Layout1
 70
     1
 71
     1
 10
-0.25
 20
-0.25
 11
10.75
 21
8.25
 12
0.0
 22
0.0
 32
0.0
 14
1.049744
 24
0.799667
 34
-0.001526
 15
9.450623
 25
7.200577
 35
0.0
146
0.0
 13
0.0
 23
0.0
 33
0.0
 16
1.0
 26
0.0
 36
0.0
 17
0.0
 27
1.0
 37
0.0
 76
     0
330
4EF
1001
ACAD_PSEXT
1000
None
1000
None
1000
Not applicable
1000
The layout will not be plotted unless a new plotter configuration name is selected.
1070
     0
  0
LAYOUT
  5
4ED
102
{ACAD_REACTORS
330
4EE
330
4EE
102
}
330
4EE
100
AcDbPlotSettings
  1

  2
none_device
  4
ANSI_A_(8.50_x_11.00_Inches)
  6

 40
6.35
 41
19.049999
 42
6.350006
 43
19.049988
 44
215.899994
 45
279.399994
 46
0.0
 47
0.0
 48
0.0
 49
0.0
140
0.0
141
0.0
142
1.0
143
2.584895
 70
 11952
 72
     0
 73
     1
 74
     0
  7

 75
     0
 76
     0
 77
     2
 78
   300
147
0.386863
148
0.0
149
0.0
100
AcDbLayout
  1
Model
 70
     1
 71
     0
 10
0.0
 20
0.0
 11
12.0
 21
9.0
 12
0.0
 22
0.0
 32
0.0
 14
0.0
 24
0.0
 34
0.0
 15
0.0
 25
0.0
 35
0.0
146
0.0
 13
0.0
 23
0.0
 33
0.0
 16
1.0
 26
0.0
 36
0.0
 17
0.0
 27
1.0
 37
0.0
 76
     0
330
4EA
331
49
  0
MLINESTYLE
  5
4E7
102
{ACAD_REACTORS
330
4E8
102
}
330
4E8
100
AcDbMlineStyle
  2
STANDARD
 70
     0
  3

 62
   256
 51
90.0
 52
90.0
 71
     2
 49
0.5
 62
   256
  6
BYLAYER
 49
-0.5
 62
   256
  6
BYLAYER
  0
ACDBPLACEHOLDER
  5
4DC
102
{ACAD_REACTORS
330
4DD
102
}
330
4DD
  0
XRECORD
  5
4D1
102
{ACAD_REACTORS
330
502
102
}
330
502
100
AcDbXrecord
280
     1
310
3E4F020000004D6F64656C6572000000000000000000000000000000000000000000000000000000000000000000000000000000000000000000000000000000000000000000000000000000000000000000000000000000000000000000000000000000000000000000000000000000000000000000000000000000000000
310
00000000000000000000000000000000000000000000000000000000000000000000000000000000000000000000000000000000000000000000000000000000000000000000000000000000000000000000000000000000000000000000000000000000000000000000000000000000000000000000000000000000000000
310
00
310
00000000000000000000000000000000000000000000000000000000000000000000000000000000000000000000000000000000000000000000000000000000000000000000000000000000000000000000000000000000000000000000000000000000000000000000000000000000000000000000000000000000000000
310
00000000000000000000000000000000000000000000000000000000000000000000000000000000000000000000000000000000000000000000000000000000000000000000000000000000000000000000000000000000000000000000000000000000000000000000000000000000000000000000000000000000000000
310
00
310
00000000000000000000000000000000000000000000000000000000000000000000000000000000000000000000000000000000000000000000000000000000000000000000000000000000000000000000000000000000000000000000000000000000000000000000000000000000000000000000000000000000000000
310
00000000000000000000000000000000000000000000000000000000000000000000000000000000000000000000000000000000000000000000000000000000000000000000000000000000000000000000000000000000000000000000000000000000000000000000000000000000000000000000000000000000000000
310
00
310
00000000000000000000000000000000000000000000000000000000000000000000000000000000000000000000000000000000000000000000000000000000000000000000000000000000000000000000000000000000000000000000000000000000000000000000000000000000000000000000000000000000000000
310
00000000000000000000000000000000000000000000000000000000000000000000000000000000000000000000000000000000000000000000000000000000000000000000000000000000000000000000000000000000000000000000000000000000000000000000000000000000000000000000000000000000000000
310
00
310
00000000000000000000000000000000000000000000000000000000000000000000000000000000000000000000000000000000000000000000000000000000000000000000000000000000000000000000000000000000000000000000000000000000000000000000000000000000000000000000000000000000000000
310
00000000000000000000000000000000000000000000000000000000000000000000000000000000000000000000000000000000000000000000000000000000000000000000000000000000000000000000000000000000000000000000000000000000000000000000000000000000000000000000000000000000000000
310
00
310
00000000000000000000000000000000000000000000000000000000000000000000000000000000000000000000000000000000000000000000000000000000000000000000000000000000000000000000000000000000000000000000000000000000000000000000000000000000000000000000000000000000000000
310
00000000000000000000000000000000000000000000000000000000000000000000000000000000000000000000000000000000000000000000000000000000000000000000000000000000000000000000000000000000000000000000000000000000000000000000000000000000000000000000000000000000000000
310
00
310
00000000000000000000000000000000000000000000000000000000000000000000000000000000000000000000000000000000000000000000000000000000000000000000000000000000000000000000000000000000000000000000000000000000000000000000000000000000000000000000000000000000000000
310
00000000000000000000000000000000000000000000000000000000000000000000000000000000000000000000000000000000000000000000000000000000000000000000000000000000000000000000000000000000000000000000000000000000000000000000000000000000000000000000000000000000000000
310
00
310
00000000000000000000000000000000000000000000000000000000000000000000000000000000000000000000000000000000000000000000000000000000000000000000000000000000000000000000000000000000000000000000000000000000000000000000000000000000000000000000000000000000000000
310
00000000000000000000000000000000000000000000000000000000000000000000000000000000000000000000000000000000000000000000000000000000000000000000000000000000000000000000000000000000000000000000000000000000000000000000000000000000000000000000000000000000000000
310
00
310
00000000000000000000000000000000000000000000000000000000000000000000000000000000000000000000000000000000000000000000000000000000000000000000000000000000000000000000000000000000000000000000000000000000000000000000000000000000000000000000000000000000000000
310
00000000000000000000000000000000000000000000000000000000000000000000000000000000000000000000000000000000000000000000000000000000000000000000000000000000000000000000000000000000000000000000000000000000000000000000000000000000000000000000000000000000000000
310
00
310
00000000000000000000000000000000000000000000000000000000000000000000000000000000000000000000000000000000000000000000000000000000000000000000000000000000000000000000000000000000000000000000000000000000000000000000000000000000000000000000000000000000000000
310
00000000000000000000000000000000000000000000000000000000000000000000000000000000000000000000000000000000000000000000000000000000000000000000000000000000000000000000000000000000000000000000000000000000000000000000000000000000000000000000000000000000000000
310
00
310
00000000000000000000000000000000000000000000000000000000000000000000000000000000000000000000000000000000000000000000000000000000000000000000000000000000000000000000000000000000000000000000000000000000000000000000000000000000000000000000000000000000000000
310
00000000000000000000000000000000000000000000000000000000000000000000000000000000000000000000000000000000000000000000000000000000000000000000000000000000000000000000000000000000000000000000000000000000000000000000000000000000000000000000000000000000000000
310
00
310
00000000000000000000000000000000000000000000000000000000000000000000000000000000000000000000000000000000000000000000000000000000000000000000000000000000000000000000000000000000000000000000000000000000000000000000000000000000000000000000000000000000000000
310
00000000000000000000000000000000000000000000000000000000000000000000000000000000000000000000000000000000000000000000000000000000000000000000000000000000000000000000000000000000000000000000000000000000000000000000000000000000000000000000000000000000000000
310
00
310
00000000000000000000000000000000000000000000000000000000000000000000000000000000000000000000000000000000000000000000000000000000000000000000000000000000000000000000000000000000000000000000000000000000000000000000000000000000000000000000000000000000000000
310
00000000000000000000000000000000000000000000000000000000000000000000000000000000000000000000000000000000000000000000000000000000000000000000000000000000000000000000000000000000000000000000000000000000000000000000000000000000000000000000000000000000000000
310
00
310
00000000000000000000000000000000000000000000000000000000000000000000000000000000000000000000000000000000000000000000000000000000000000000000000000000000000000000000000000000000000000000000000000000000000000000000000000000000000000
  0
XRECORD
  5
4D6
102
{ACAD_REACTORS
330
502
102
}
330
502
100
AcDbXrecord
280
     1
310
3E4F020000004D6F64656C6572000000000000000000000000000000000000000000000000000000000000000000000000000000000000000000000000000000000000000000000000000000000000000000000000000000000000000000000000000000000000000000000000000000000000000000000000000000000000
310
00000000000000000000000000000000000000000000000000000000000000000000000000000000000000000000000000000000000000000000000000000000000000000000000000000000000000000000000000000000000000000000000000000000000000000000000000000000000000000000000000000000000000
310
00
310
00000000000000000000000000000000000000000000000000000000000000000000000000000000000000000000000000000000000000000000000000000000000000000000000000000000000000000000000000000000000000000000000000000000000000000000000000000000000000000000000000000000000000
310
00000000000000000000000000000000000000000000000000000000000000000000000000000000000000000000000000000000000000000000000000000000000000000000000000000000000000000000000000000000000000000000000000000000000000000000000000000000000000000000000000000000000000
310
00
310
00000000000000000000000000000000000000000000000000000000000000000000000000000000000000000000000000000000000000000000000000000000000000000000000000000000000000000000000000000000000000000000000000000000000000000000000000000000000000000000000000000000000000
310
00000000000000000000000000000000000000000000000000000000000000000000000000000000000000000000000000000000000000000000000000000000000000000000000000000000000000000000000000000000000000000000000000000000000000000000000000000000000000000000000000000000000000
310
00
310
00000000000000000000000000000000000000000000000000000000000000000000000000000000000000000000000000000000000000000000000000000000000000000000000000000000000000000000000000000000000000000000000000000000000000000000000000000000000000000000000000000000000000
310
00000000000000000000000000000000000000000000000000000000000000000000000000000000000000000000000000000000000000000000000000000000000000000000000000000000000000000000000000000000000000000000000000000000000000000000000000000000000000000000000000000000000000
310
00
310
00000000000000000000000000000000000000000000000000000000000000000000000000000000000000000000000000000000000000000000000000000000000000000000000000000000000000000000000000000000000000000000000000000000000000000000000000000000000000000000000000000000000000
310
00000000000000000000000000000000000000000000000000000000000000000000000000000000000000000000000000000000000000000000000000000000000000000000000000000000000000000000000000000000000000000000000000000000000000000000000000000000000000000000000000000000000000
310
00
310
00000000000000000000000000000000000000000000000000000000000000000000000000000000000000000000000000000000000000000000000000000000000000000000000000000000000000000000000000000000000000000000000000000000000000000000000000000000000000000000000000000000000000
310
00000000000000000000000000000000000000000000000000000000000000000000000000000000000000000000000000000000000000000000000000000000000000000000000000000000000000000000000000000000000000000000000000000000000000000000000000000000000000000000000000000000000000
310
00
310
00000000000000000000000000000000000000000000000000000000000000000000000000000000000000000000000000000000000000000000000000000000000000000000000000000000000000000000000000000000000000000000000000000000000000000000000000000000000000000000000000000000000000
310
00000000000000000000000000000000000000000000000000000000000000000000000000000000000000000000000000000000000000000000000000000000000000000000000000000000000000000000000000000000000000000000000000000000000000000000000000000000000000000000000000000000000000
310
00
310
00000000000000000000000000000000000000000000000000000000000000000000000000000000000000000000000000000000000000000000000000000000000000000000000000000000000000000000000000000000000000000000000000000000000000000000000000000000000000000000000000000000000000
310
00000000000000000000000000000000000000000000000000000000000000000000000000000000000000000000000000000000000000000000000000000000000000000000000000000000000000000000000000000000000000000000000000000000000000000000000000000000000000000000000000000000000000
310
00
310
00000000000000000000000000000000000000000000000000000000000000000000000000000000000000000000000000000000000000000000000000000000000000000000000000000000000000000000000000000000000000000000000000000000000000000000000000000000000000000000000000000000000000
310
00000000000000000000000000000000000000000000000000000000000000000000000000000000000000000000000000000000000000000000000000000000000000000000000000000000000000000000000000000000000000000000000000000000000000000000000000000000000000000000000000000000000000
310
00
310
00000000000000000000000000000000000000000000000000000000000000000000000000000000000000000000000000000000000000000000000000000000000000000000000000000000000000000000000000000000000000000000000000000000000000000000000000000000000000000000000000000000000000
310
00000000000000000000000000000000000000000000000000000000000000000000000000000000000000000000000000000000000000000000000000000000000000000000000000000000000000000000000000000000000000000000000000000000000000000000000000000000000000000000000000000000000000
310
00
310
00000000000000000000000000000000000000000000000000000000000000000000000000000000000000000000000000000000000000000000000000000000000000000000000000000000000000000000000000000000000000000000000000000000000000000000000000000000000000000000000000000000000000
310
00000000000000000000000000000000000000000000000000000000000000000000000000000000000000000000000000000000000000000000000000000000000000000000000000000000000000000000000000000000000000000000000000000000000000000000000000000000000000000000000000000000000000
310
00
310
00000000000000000000000000000000000000000000000000000000000000000000000000000000000000000000000000000000000000000000000000000000000000000000000000000000000000000000000000000000000000000000000000000000000000000000000000000000000000000000000000000000000000
310
00000000000000000000000000000000000000000000000000000000000000000000000000000000000000000000000000000000000000000000000000000000000000000000000000000000000000000000000000000000000000000000000000000000000000000000000000000000000000000000000000000000000000
310
00
310
00000000000000000000000000000000000000000000000000000000000000000000000000000000000000000000000000000000000000000000000000000000000000000000000000000000000000000000000000000000000000000000000000000000000000000000000000000000000000000000000000000000000000
310
00000000000000000000000000000000000000000000000000000000000000000000000000000000000000000000000000000000000000000000000000000000000000000000000000000000000000000000000000000000000000000000000000000000000000000000000000000000000000000000000000000000000000
310
00
310
00000000000000000000000000000000000000000000000000000000000000000000000000000000000000000000000000000000000000000000000000000000000000000000000000000000000000000000000000000000000000000000000000000000000000000000000000000000000000
  0
XRECORD
  5
4D0
102
{ACAD_REACTORS
330
502
102
}
330
502
100
AcDbXrecord
280
     1
310
DF56060034040701D0009A9999999999B93F000000000000000000000000000000000400000009000000000000000200000064000000640000000100000001000000190000007B14AE47E17A843F00000000004060409A9999999999B93F00000000004C2D41000000000070F7400000000000942141000000000000000000
310
0000000000000000000000000000000AD482040000000000000000000000000000F03F000000000000000000000000000030402D431CEBE2362A3F00000000000008400000000000000000009807C000000000000000007C1A61B9A711364020000000050000000A000000200000002000000020000000000000000000F03F
310
00
310
0000000000F03F000000000000F03F333333333333D33F333333333333D33F333333333333D33F000000000000F43F000000000000F43F000000000000F03F0200000064000000000000000000000000000840000000000000F83F00000000000000000000000000000000008056409A9999999999B93F0000000000000000
310
00000000000000000000000000000000000000000000000000000000000000000000000000000000000000000000000000000000000000000000000000000000000000000000000000000000000000000000000000000000000000000000000000000000000000000000000000000000000000000000000000000000000000
310
00
310
0000000000000000000000000000000000000000000000000000000000000000000000000000000000000000000000000000000000000000000000000000000000000000000000000000000000000000000000000000000000000000000000000000000000000000000000000000000000000000000000009A9999999999A9
310
3F9100000000000000000000000000000035A781D547960F40000000000000F03F000000000000F03F666666666666164000000000104068F200000000000000000000000000000000000000000000000000000000000000000000000000000000000000000000000000000000000000000000000000000000000000000000
310
00
310
00000000000000000000000000000000000000000000000000000000000000000000000000000000000000000000000000000000000000000000000000000000000000000000000000000000000000000000000000000000000000000000000000000000000000000000000000000000000000000000000000000000000000
310
000000000000000000000000000000000000000000000000000000000000000000000000000000000000000000000000000000000000000000000000FF000000000000000000000000000000000000000000000000000000000000000000000000000000000000000000000000000000000000000000000000000000000000
310
00
310
0000000000000000000000000000000000000000000000000000000000000000000000000000000000000000000000000000000000000000000000000000000000000000
  0
DICTIONARY
  5
4F3
330
4F2
100
AcDbDictionary
280
     1
281
     1
  3
ADSK_XREC_LAYOUTTHUMBNAIL
360
4F4
  0
XRECORD
  5
4F4
102
{ACAD_REACTORS
330
4F3
102
}
330
4F3
100
AcDbXrecord
280
     1
310
28000000B40000008B0000000100080000000000BC61000000000000000000000001000000000000FFFFFF0000000000FFFFFF000000000000000000000000000000000000000000000000000000000000000000330000006600000099000000CC000000FF00000000330000333300006633000099330000CC330000FF3300
310
0000660000336600006666000099660000CC660000FF66000000990000339900006699000099990000CC990000FF99000000CC000033CC000066CC000099CC0000CCCC0000FFCC000000FF000033FF000066FF000099FF0000CCFF0000FFFF000000003300330033006600330099003300CC003300FF003300003333003333
310
33006633330099333300CC333300FF33330000663300336633006666330099663300CC663300FF66330000993300339933006699330099993300CC993300FF99330000CC330033CC330066CC330099CC3300CCCC3300FFCC330000FF330033FF330066FF330099FF3300CCFF3300FFFF330000006600330066006600660099
310
006600CC006600FF00660000336600333366006633660099336600CC336600FF33660000666600336666006666660099666600CC666600FF66660000996600339966006699660099996600CC996600FF99660000CC660033CC660066CC660099CC6600CCCC6600FFCC660000FF660033FF660066FF660099FF6600CCFF6600
310
FFFF660000009900330099006600990099009900CC009900FF00990000339900333399006633990099339900CC339900FF33990000669900336699006666990099669900CC669900FF66990000999900339999006699990099999900CC999900FF99990000CC990033CC990066CC990099CC9900CCCC9900FFCC990000FF99
310
0033FF990066FF990099FF9900CCFF9900FFFF99000000CC003300CC006600CC009900CC00CC00CC00FF00CC000033CC003333CC006633CC009933CC00CC33CC00FF33CC000066CC003366CC006666CC009966CC00CC66CC00FF66CC000099CC003399CC006699CC009999CC00CC99CC00FF99CC0000CCCC0033CCCC0066CC
310
CC0099CCCC00CCCCCC00FFCCCC0000FFCC0033FFCC0066FFCC0099FFCC00CCFFCC00FFFFCC000000FF003300FF006600FF009900FF00CC00FF00FF00FF000033FF003333FF006633FF009933FF00CC33FF00FF33FF000066FF003366FF006666FF009966FF00CC66FF00FF66FF000099FF003399FF006699FF009999FF00CC
310
99FF00FF99FF0000CCFF0033CCFF0066CCFF0099CCFF00CCCCFF00FFCCFF0000FFFF0033FFFF0066FFFF0099FFFF00CCFFFF00FFFFFF00000000000D0D0D001A1A1A00282828003535350043434300505050005D5D5D006B6B6B00787878008686860093939300A1A1A100AEAEAE00BBBBBB00C9C9C900D6D6D600E4E4E400
310
F1F1F100FFFFFF0000000000000000000000000000000000000000000000000000000000000000000000000000000000E2E2E2E2E2E2E2E2E2E2E2E2E2E2E2E2E2E2E2E2E2E2E2E2E2E2E2E2E2E2E2E2E2E2E2E2E2E2E2E2E2E2E2E2E2E2E2E2E2E2E2E2E2E2E2E2E2E2E2E2E2E2E2E2E2E2E2E2E2E2E2E2E2E2E2E2E2E2E2
310
E2E2E2E2E2E2E2E2E2E2E2E2E2E2E2E2E2E2E2E2E2E2E2E2E2E2E2E2E2E2E2E2E2E2E2E2E2E2E2E2E2E2E2E2E2E2E2E2E2E2E2E2E2E2E2E2E2E2E2E2E2E2E2E2E2E2E2E2E2E2E2E2E2E2E2E2E2E2E2E2E2E2E2E2E2E2E2E2E2E2E2E2E2E2E2E2E2E2E2E2EFF5F5F5F5F5F5F5F5F5F5F5F5F5F5F5F5F5F5F5F5F5F5F5F5F5F5
310
F5F5F5F5F5F5F5F5F5F5F5F5F5F5F5F5F5F5F5F5F5F5F5F5F5F5F5F5F5F5F5F5F5F5F5F5F5F5F5F5F5F5F5F5F5F5F5F5F5F5F5F5F5F5F5F5F5F5F5F5F5F5F5F5F5F5F5F5F5F5F5F5F5F5F5F5F5F5F5F5F5F5F5F5F5F5F5F5F5F5F5F5F5F5F5F5F5F5F5F5F5F5F5F5F5F5F5F5F5F5F5F5F5F5F5F5F5F5F5F5F5F5F5F5F5F5F5
310
F5F5F5F5F5F5F5F5F5F5F5F5F5F5F5F5F5F5F5F5F5F5F5F5E2E2EFF5F5F5F5F5F5F5F5F5F5F5F5F5F5F5F5F5F5F5F5F5F5F5F5F5F5F5F5F5F5F5F5F5F5F5F5F5F5F5F5F5F5F5F5F5F5F5F5F5F5F5F5F5F5F5F5F5F5F5F5F5F5F5F5F5F5F5F5F5F5F5F5F5F5F5F5F5F5F5F5F5F5F5F5F5F5F5F5F5F5F5F5F5F5F5F5F5F5F5F5
310
F5F5F5F5F5F5F5F5F5F5F5F5F5F5F5F5F5F5F5F5F5F5F5F5F5F5F5F5F5F5F5F5F5F5F5F5F5F5F5F5F5F5F5F5F5F5F5F5F5F5F5F5F5F5F5F5F5F5F5F5F5F5F5F5F5F5F5F5F5F5F5F5F5F5F5F5F5E2E2EFF5F5F5F5F5F5F5F5F5F5F5F5F5F5F5F5F5F5F5F5F5F5F5F5F5F5F5F5F5F5F5F5F5F5F5F5F5F5F5F5F5F5F5F5F5F5F5
310
F5F5F5F5F5F5F5F5F5F5F5F5F5F5F5F5F5F5F5F5F5F5F5F5F5F5F5F5F5F5F5F5F5F5F5F5F5F5F5F5F5F5F5F5F5F5F5F5F5F5F5F5F5F5F5F5F5F5F5F5F5F5F5F5F5F5F5F5F5F5F5F5F5F5F5F5F5F5F5F5F5F5F5F5F5F5F5F5F5F5F5F5F5F5F5F5F5F5F5F5F5F5F5F5F5F5F5F5F5F5F5F5F5F5F5F5F5F5F5F5F5F5F5F5F5F5F5
310
F5F5F5E2E2EFF5F5F5E2E2E2E2E2E2E2E2F5F5F5F5F5F5F5F5F5E2E2E2E2E2E2E2E2E2E2E2E2E2E2E2E2F5F5F5F5F5F5F5F5E2E2E2E2E2E2E2E2E2E2E2E2E2E2E2E2F5F5F5F5F5F5F5F5F5E2E2E2E2E2E2E2E2E2E2E2E2E2E2E2F5F5F5F5F5F5F5F5F5E2E2E2E2E2E2E2E2E2E2E2E2E2E2E2F5F5F5F5F5F5F5F5F5E2E2E2E2
310
E2E2E2E2E2E2E2E2E2E2E2E2F5F5F5F5F5F5F5F5E2E2E2E2E2E2E2E2E2E2E2E2E2E2E2E2F5F5F5F5F5F5F5F5F5E2E2E2E2E2E2E2E2F5F5F5E2E2EFF5F5F5E2F5F5F5F5F5F5F5F5F5F5F5F5F5F5F5F5F5F5F5F5F5F5F5F5F5F5F5F5F5F5F5F5F5F5F5F5F5F5F5F5F5F5F5F5F5F5F5F5F5F5F5F5F5F5F5F5F5F5F5F5F5F5F5F5
310
F5F5F5F5F5F5F5F5F5F5F5F5F5F5F5F5F5F5F5F5F5F5F5F5F5F5F5F5F5F5F5F5F5F5F5F5F5F5F5F5F5F5F5F5F5F5F5F5F5F5F5F5F5F5F5F5F5F5F5F5F5F5F5F5F5F5F5F5F5F5F5F5F5F5F5F5F5F5F5F5F5F5F5F5F5F5F5F5F5F5F5F5F5F5F5F5F5F5F5F5F5F5F5F5F5E2F5F5F5E2E2EFF5F5F5E2F5F5F5F5F5F5F5F5F5F5F5
310
F5F5F5F5F5F5F5F5F5F5F5F5F5F5F5F5F5F5F5F5F5F5F5F5F5F5F5F5F5F5F5F5F5F5F5F5F5F5F5F5F5F5F5F5F5F5F5F5F5F5F5F5F5F5F5F5F5F5F5F5F5F5F5F5F5F5F5F5F5F5F5F5F5F5F5F5F5F5F5F5F5F5F5F5F5F5F5F5F5F5F5F5F5F5F5F5F5F5F5F5F5F5F5F5F5F5F5F5F5F5F5F5F5F5F5F5F5F5F5F5F5F5F5F5F5F5F5
310
F5F5F5F5F5F5F5F5F5F5F5F5F5F5F5F5F5F5F5F5F5F5F5F5F5F5F5F5F5F5F5E2F5F5F5E2E2EFF5F5F5E2F5F5F5F5F5F5F5F5F5F5F5F5F5F5F5F5F5F5F5F5F5F5F5F5F5F5F5F5F5F5F5F5F5F5F5F5F5F5F5F5F5F5F5F5F5F5F5F5F5F5F5F5F5F5F5F5F5F5F5F5F5F5F5F5F5F5F5F5F5F5F5F5F5F5F5F5F5F5F5F5F5F5F5F5F5
310
F5F5F5F5F5F5F5F5F5F5F5F5F5F5F5F5F5F5F5F5F5F5F5F5F5F5F5F5F5F5F5F5F5F5F5F5F5F5F5F5F5F5F5F5F5F5F5F5F5F5F5F5F5F5F5F5F5F5F5F5F5F5F5F5F5F5F5F5F5F5F5F5F5F5F5F5F5F5F5F5F5F5F5F5E2F5F5F5E2E2EFF5F5F5E2F5F5F5F5F5F5F5F5F5F5F5F5F5F5F5F5F5F5F5F5F5F5F5F5F5F5F5F5F5F5F5F5
310
F5F5F5F5F5F5F5F5F5F5F5F5F5F5F5F5F5F5F5F5F5F5F5F5F5F5F5F5F5F5F5F5F5F5F5F5F5F5F5F5F5F5F5F5F5F5F5F5F5F5F5F5F5F5F5F5F5F5F5F5F5F5F5F5F5F5F5F5F5F5F5F5F5F5F5F5F5F5F5F5F5F5F5F5F5F5F5F5F5F5F5F5F5F5F5F5F5F5F5F5F5F5F5F5F5F5F5F5F5F5F5F5F5F5F5F5F5F5F5F5F5F5F5F5F5F5F5
310
F5F5F5F5F5F5F5F5F5F5E2F5F5F5E2E2EFF5F5F5E2F5F5F5F5F5F5F5F5F5F5F5F5F5F5F5F5F5F5F5F5F5F5F5F5F5F5F5F5F5F5F5F5F5F5F5F5F5F5F5F5F5F5F5F5F5F5F5F5F5F5F5F5F5F5F5F5F5F5F5F5F5F5F5F5F5F5F5F5F5F5F5F5F5F5F5F5F5F5F5F5F5F5F5F5F5F5F5F5F5F5F5F5F5F5F5F5F5F5F5F5F5F5F5F5F5F5
310
F5F5F5F5F5F5F5F5F5F5F5F5F5F5F5F5F5F5F5F5F5F5F5F5F5F5F5F5F5F5F5F5F5F5F5F5F5F5F5F5F5F5F5F5F5F5F5F5F5F5F5F5F5F5F5F5F5F5F5F5F5F5F5E2F5F5F5E2E2EFF5F5F5E2F5F5F5F5F5F5F5F5F5F5F5F5F5F5F5F5F5F5F5F5F5F5F5F5F5F5F5F5F5F5F5F5F5F5F5F5F5F5F5F5F5F5F5F5F5F5F5F5F5F5F5F5F5
310
F5F5F5F5F5F5F5F5F5F5F5F5F5F5F5F5F5F5F5F5F5F5F5F5F5F5F5F5F5F5F5F5F5F5F5F5F5F5F5F5F5F5F5F5F5F5F5F5F5F5F5F5F5F5F5F5F5F5F5F5F5F5F5F5F5F5F5F5F5F5F5F5F5F5F5F5F5F5F5F5F5F5F5F5F5F5F5F5F5F5F5F5F5F5F5F5F5F5F5F5F5F5F5F5F5F5F5F5F5F5F5F5F5F5F5F5E2F5F5F5E2E2EFF5F5F5E2
310
F5F5F5F5F5F5F5F5F5F5F5F5F5F5F5F5F5F5F5F5F5F5F5F5F5F5F5F5F5F5F5F5F5F5F5F5F5F5F5F5F5F5F5F5F5F5F5F5F5F5F5F5F5F5F5F5F5F5F5F5F5F5F5F5F5F5F5F5F5F5F5F5F5F5F5F5F5F5F5F5F5F5F5F5F5F5F5F5F5F5F5F5F5F5F5F5F5F5F5F5F5F5F5F5F5F5F5F5F5F5F5F5F5F5F5F5F5F5F5F5F5F5F5F5F5F5F5
310
F5F5F5F5F5F5F5F5F5F5F5F5F5F5F5F5F5F5F5F5F5F5F5F5F5F5F5F5F5F5F5F5F5F5F5F5F5F5F5F5F5F5E2F5F5F5E2E2EFF5F5F5E2F5F5F5F5F5F5F5F5F5F5F5F5F5F5F5F5F5F5F5F5F5F5F5F5F5F5F5F5F5F5F5F5F5F5F5F5F5F5F5F5F5F5F5F5F5F5F5F5F5F5F5F5F5F5F5F5F5F5F5F5F5F5F5F5F5F5F5F5F5F5F5F5F5F5
310
F5F5F5F5F5F5F5F5F5F5F5F5F5F5F5F5F5F5F5F5F5F5F5F5F5F5F5F5F5F5F5F5F5F5F5F5F5F5F5F5F5F5F5F5F5F5F5F5F5F5F5F5F5F5F5F5F5F5F5F5F5F5F5F5F5F5F5F5F5F5F5F5F5F5F5F5F5F5F5F5F5F5F5F5F5F5F5F5F5F5F5F5F5F5F5E2F5F5F5E2E2EFF5F5F5F5F5F5F5F5F5F5F5F5F5F5F5F5F5F5F5F5F5F5F5F5F5
310
F5F5F5F5F5F5F5F5F5F5F5F5F5F5F5F5F5F5F5F5F5F5F5F5F5F5F5F5F5F5F5F5F5F5F5F5F5F5F5F5F5F5F5F5F5F5F5F5F5F5F5F5F5F5F5F5F5F5F5F5F5F5F5F5F5F5F5F5F5F5F5F5F5F5F5F5F5F5F5F5F5F5F5F5F5F5F5F5F5F5F5F5F5F5F5F5F5F5F5F5F5F5F5F5F5F5F5F5F5F5F5F5F5F5F5F5F5F5F5F5F5F5F5F5F5F5F5
310
F5F5F5F5F5F5F5F5F5F5F5F5F5F5F5F5F5F5F5F5F5F5F5F5F5E2E2EFF5F5F5F5F5F5F5F5F5F5F5F5F5F5F5F5F5F5F5F5F5F5F5F5F5F5F5F5F5F5F5F5F5F5F5F5F5F5F5F5F5F5F5F5F5F5F5F5F5F5F5F5F5F5F5F5F5F5F5F5F5F5F5F5F5F5F5F5F5F5F5F5F5F5F5F5F5F5F5F5F5F5F5F5F5F5F5F5F5F5F5F5F5F5F5F5F5F5F5
310
F5F5F5F5F5F5F5F5F5F5F5F5F5F5F5F5F5F5F5F5F5F5F5F5F5F5F5F5F5F5F5F5F5F5F5F5F5F5F5F5F5F5F5F5F5F5F5F5F5F5F5F5F5F5F5F5F5F5F5F5F5F5F5F5F5F5F5F5F5F5F5F5F5F5F5F5F5F5E2E2EFF5F5F5F5F5F5F5F5F5F5F5F5F5F5F5F5F5F5F5F5F5F5F5F5F5F5F5F5F5F5F5F5F5F5F5F5F5F5F5F5F5F5F5F5F5F5
310
F5F5F5F5F5F5F5F5F5F5F5F5F5F5F5F5F5F5F5F5F5F5F5F5F5F5F5F5F5F5F5F5F5F5F5F5F5F5F5F5F5F5F5F5F5F5F5F5F5F5F5F5F5F5F5F5F5F5F5F5F5F5F5F5F5F5F5F5F5F5F5F5F5F5F5F5F5F5F5F5F5F5F5F5F5F5F5F5F5F5F5F5F5F5F5F5F5F5F5F5F5F5F5F5F5F5F5F5F5F5F5F5F5F5F5F5F5F5F5F5F5F5F5F5F5F5F5
310
F5F5F5F5E2E2EFF5F5F5F5F5F5F5F5F5F5F5F5F5F5F5F5F5F5F5F5F5F5F5F5F5F5F5F5F5F5F5F5F5F5F5F5F5F5F5F5F5F5F5F5F5F5F5F5F5F5F5F5F5F5F5F5F5F5F5F5F5F5F5F5F5F5F5F5F5F5F5F5F5F5F5F5F5F5F5F5F5F5F5F5F5F5F5F5F5F5F5F5F5F5F5F5F5F5F5F5F5F5F5F5F5F5F5F5F5F5F5F5F5F5F5F5F5F5F5F5
310
F5F5F5F5F5F5F5F5F5F5F5F5F5F5F5F5F5F5F5F5F5F5F5F5F5F5F5F5F5F5F5F5F5F5F5F5F5F5F5F5F5F5F5F5F5F5F5F5F5F5F5F5F5F5F5F5F5E2E2EFF5F5F5F5F5F5F5F5F5F5F5F5F5F5F5F5F5F5F5F5E2E2E2E2E2E2E2E2E2E2E2E2E2E2E2E2E2E2E2E2E2E2E2E2E2E2E2E2E2E2E2E2E2E2E2E2E2E2E2E2E2E2E2E2E2E2E2
310
E2E2E2E2E2E2E2E2E2E2E2E2E2E2E2E2E2E2E2E2E2E2E2E2E2E2E2E2E2E2E2E2E2E2E2E2E2E2E2E2E2E2E2E2E2E2E2E2E2E2E2E2E2E2E2E2E2E2E2E2E2E2E2E2E2E2E2E2E2E2E2E2E2E2E2E2E2E2E2E2E2E2E2E2E2E2E2E2E2E2F5F5F5F5F5F5F5F5F5F5F5F5F5F5F5F5F5F5F5F5E2E2EFF5F5F5F5F5F5F5F5F5F5F5F5F5F5
310
F5F5F5F5F5F5E2F5F5F5F5F5F5F5F5F5F5F5F5F5F5F5F5F5F5F5F5F5F5F5F5F5F5F5F5F5F5F5F5F5F5F5F5F5F5F5F5F5F5F5F5F5F5F5F5F5F5F5F5F5F5F5F5F5F5F5F5F5F5F5F5F5F5F5F5F5F5F5F5F5F5F5F5F5F5F5F5F5F5F5F5F5F5F5F5F5F5F5F5F5F5F5F5F5F5F5F5F5F5F5F5F5F5F5F5F5F5F5F5F5F5F5F5F5F5F5F5
310
F5F5F5F5F5F5F5F5F5F5F5F5F5F5F5E2F5F5F5F5F5F5F5F5F5F5F5F5F5F5F5F5F5F5F5F5E2E2EFF5F5F5F5F5F5F5F5F5F5F5F5F5F5F5F5F5F5F5F5E2F5F5F5F5F5F5F5F5F5F5F5F5F5F5F5F5F5F5F5F5F5F5F5F5F5F5F5F5F5F5F5F5F5F5F5F5F5F5F5F5F5F5F5F5F5F5F5F5F5F5F5F5F5F5F5F5F5F5F5F5F5F5F5F5F5F5F5
310
F5F5F5F5F5F5F5F5F5F5F5F5F5F5F5F5F5F5F5F5F5F5F5F5F5F5F5F5F5F5F5F5F5F5F5F5F5F5F5F5F5F5F5F5F5F5F5F5F5F5F5F5F5F5F5F5F5F5F5F5F5F5F5F5F5F5F5F5E2F5F5F5F5F5F5F5F5F5F5F5F5F5F5F5F5F5F5F5F5E2E2EFF5F5F5F5F5F5F5F5F5F5F5F5F5F5F5F5F5F5F5F5E2F5F5F5F5F5F5F5F5F5F5F5F5F5F5
310
F5F5F5F5F5F5F5F5F5F5F5F5F5F5F5F5F5F5F5F5F5F5F5F5F5F5F5F5F5F5F5F5F5F5F5F5F5F5F5F5F5F5F5F5F5F5F5F5F5F5F5F5F5F5F5F5F5F5F5F5F5F5F5F5F5F5F5F5F5F5F5F5F5F5F5F5F5F5F5F5F5F5F5F5F5F5F5F5F5F5F5F5F5F5F5F5F5F5F5F5F5F5F5F5F5F5F5F5F5F5F5F5F5F5F5F5F5F5F5F5F5E2F5F5F5F5F5
310
F5F5F5F5F5F5F5F5F5F5F5F5F5F5F5E2E2EFF5F5F5F5F5F5F5F5F5F5F5F5F5F5F5F5F5F5F5F5E2F5F5F5F5F5F5F5F5F5F5F5F5F5F5F5F5F5F5F5F5F5F5F5F5F5F5F5F5F5F5F5F5F5F5F5F5F5F5F5F5F5F5F5F5F5F5F5F5F5F5F5F5F5F5F5F5F5F5F5F5F5F5F5F5F5F5F5F5F5F5F5F5F5F5F5F5F5F5F5F5F5F5F5F5F5F5F5F5
310
F5F5F5F5F5F5F5F5F5F5F5F5F5F5F5F5F5F5F5F5F5F5F5F5F5F5F5F5F5F5F5F5F5F5F5F5F5F5F5F5F5F5F5F5F5F5F5E2F5F5F5F5F5F5F5F5F5F5F5F5F5F5F5F5F5F5F5F5E2E2EFF5F5F5E2F5F5F5F5F5F5F5F5F5F5F5F5F5F5F5F5E2F5F5F5F5F5F5F5F5F5F5F5F5F5F5F5F5F5F5F5F5F5F5F5F5F5F5F5F5F5F5F5F5F5F5F5
310
F5F5F5F5F5F5F5F5F5F5F5F5F5F5F5F5F5F5F5F5F5F5F5F5F5F5F5F5F5F5F5F5F5F5F5F5F5F5F5F5F5F5F5F5F5F5F5F5F5F5F5F5F5F5F5F5F5F5F5F5F5F5F5F5F5F5F5F5F5F5F5F5F5F5F5F5F5F5F5F5F5F5F5F5F5F5F5F5F5F5F5F5F5F5F5F5F5F5F5F5E2F5F5F5F5F5F5F5F5F5F5F5F5F5F5F5F5E2F5F5F5E2E2EFF5F5F5
310
E2F5F5F5F5F5F5F5F5F5F5F5F5F5F5F5F5E2F5F5F5F5F5F5F5F5F5F5F5F5F5F5F5F5F5F5F5F5F5F5F5F5F5F5F5F5F5F5F5F5F5F5F5F5F5F5F5F5F5F5F5F5F5F5F5F5F5F5F5F5F5F5F5F5F5F5F5F5F5F5F5F5F5F5F5F5F5F5F5F5F5F5F5F5F5F5F5F5F5F5F5F5F5F5F5F5F5F5F5F5F5F5F5F5F5F5F5F5F5F5F5F5F5F5F5F5F5
310
F5F5F5F5F5F5F5F5F5F5F5F5F5F5F5F5F5F5F5F5F5F5F5F5F5F5E2F5F5F5F5F5F5F5F5F5F5F5F5F5F5F5F5E2F5F5F5E2E2EFF5F5F5E2F5F5F5F5F5F5F5F5F5F5F5F5F5F5F5F5E2F5F5F5F5F5F5F5F5F5F5F5F5F5F5F5F5F5F5F5F5F5F5F5F5F5F5F5F5F5F5F5F5F5F5F5F5F5F5F5F5F5F5F5F5F5F5F5F5F5F5F5F5F5F5F5F5
310
F5F5F5F5F5F5F5F5F5F5F5F5F5F5F5F5F5F5F5F5F5F5F5F5F5F5F5F5F5F5F5F5F5F5F5F5F5F5F5F5F5F5F5F5F5F5F5F5F5F5F5F5F5F5F5F5F5F5F5F5F5F5F5F5F5F5F5F5F5F5F5F5F5F5F5F5F5F5F5E2F5F5F5F5F5F5F5F5F5F5F5F5F5F5F5F5E2F5F5F5E2E2EFF5F5F5E2F5F5F5F5F5F5F5F5F5F5F5F5F5F5F5F5E2F5F5F5
310
F5F5F5F5F5F5F5F5F5F5F5F5F5F5F5F5F5F5F5F5F5F5F5F5F5F5F5F5F5F5F5F5F5F5F5F5F5F5F5F5F5F5F5F5F5F5F5F5F5F5F5F5F5F5F5F5F5F5F5F5F5F5F5F5F5F5F5F5F5F5F5F5F5F5F5F5F5F5F5F5F5F5F5F5F5F5F5F5F5F5F5F5F5F5F5F5F5F5F5F5F5F5F5F5F5F5F5F5F5F5F5F5F5F5F5F5F5F5F5F5F5F5F5F5F5F5F5
310
F5F5F5F5F5E2F5F5F5F5F5F5F5F5F5F5F5F5F5F5F5F5E2F5F5F5E2E2EFF5F5F5E2F5F5F5F5F5F5F5F5F5F5F5F5F5F5F5F5E2F5F5F5F5F5F5F5F5F5F5F5F5F5F5F5F5F5F5F5F5F5F5F5F5F5F5F5F5F5F5F5F5F5F5F5F5F5F5F5F5F5F5F5F5F5F5F5F5F5F5F5F5F5F5F5F5F5F5F5F5F5F5F5F5F5F5F5F5F5F5F5F5F5F5F5F5F5
310
F5F5F5F5F5F5F5F5F5F5F5F5F5F5F5F5F5F5F5F5F5F5F5F5F5F5F5F5F5F5F5F5F5F5F5F5F5F5F5F5F5F5F5F5F5F5F5F5F5F5F5F5F5F5F5F5F5F5E2F5F5F5F5F5F5F5F5F5F5F5F5F5F5F5F5E2F5F5F5E2E2EFF5F5F5E2F5F5F5F5F5F5F5F5F5F5F5F5F5F5F5F5E2F5F5F5F5F5F5F5F5F5F5F5F5F5F5F5F5F5F5F5F5F5F5F5F5
310
F5F5F5F5F5F5F5F5F5F5F5F5F5F5F5F5F5F5F5F5F5F5F5F5F5F5F5F5F5F5F5F5F5F5F5F5F5F5F5F5F5F5F5F5F5F5F5F5F5F5F5F5F5F5F5F5F5F5F5F5F5F5F5F5F5F5F5F5F5F5F5F5F5F5F5F5F5F5F5F5F5F5F5F5F5F5F5F5F5F5F5F5F5F5F5F5F5F5F5F5F5F5F5F5F5F5F5F5F5F5F5E2F5F5F5F5F5F5F5F5F5F5F5F5F5F5F5
310
F5E2F5F5F5E2E2EFF5F5F5E2F5F5F5F5F5F5F5F5F5F5F5F5F5F5F5F5E2F5F5F5F5F5F5F5F5F5F5F5F5F5F5F5F5F5F5F5F5F5F5F5F5F5F5F5F5F5F5F5F5F5F5F5F5F5F5F5F5F5F5F5F5F5F5F5F5F5F5F5F5F5F5F5F5F5F5F5F5F5F5F5F5F5F5F5F5F5F5F5F5F5F5F5F5F5F5F5F5F5F5F5F5F5F5F5F5F5F5F5F5F5F5F5F5F5F5
310
F5F5F5F5F5F5F5F5F5F5F5F5F5F5F5F5F5F5F5F5F5F5F5F5F5F5F5F5F5F5F5F5F5F5F5F5F5E2F5F5F5F5F5F5F5F5F5F5F5F5F5F5F5F5E2F5F5F5E2E2EFF5F5F5E2F5F5F5F5F5F5F5F5F5F5F5F5F5F5F5F5E2F5F5F5F5F5F5F5F5F5F5F5F5F5F5F5F5F5F5F5F5F5F5F5F5F5F5F5F5F5F5F5F5F5F5F5F5F5F5F5F5F5F5F5F5F5
310
F5F5F5F5F5F5F5F5F5F5F5F5F5F5F5F5F5F5F5F5F5F5F5F5F5F5F5F5F5F5F5F5F5F5F5F5F5F5F5F5F5F5F5F5F5F5F5F5F5F5F5F5F5F5F5F5F5F5F5F5F5F5F5F5F5F5F5F5F5F5F5F5F5F5F5F5F5F5F5F5F5F5F5F5F5F5F5F5F5F5E2F5F5F5F5F5F5F5F5F5F5F5F5F5F5F5F5E2F5F5F5E2E2EFF5F5F5E2F5F5F5F5F5F5F5F5F5
310
F5F5F5F5F5F5F5E2F5F5F5F5F5F5F5F5F5F5F5F5F5F5F5F5F5F5F5F5F5F5F5F5F5F5F5F5F5F5F5F5F5F5F5F5F5F5F5F5F5F5F5F5F5F5F5F5F5F5F5F5F5F5F5F5F5F5F5F5F5F5F5F5F5F5F5F5F5F5F5F5F5F5F5F5F5F5F5F5F5F5F5F5F5F5F5F5F5F5F5F5F5F5F5F5F5F5F5F5F5F5F5F5F5F5F5F5F5F5F5F5F5F5F5F5F5F5F5
310
F5F5F5F5F5F5F5F5F5F5F5F5F5F5F5F5E2F5F5F5F5F5F5F5F5F5F5F5F5F5F5F5F5E2F5F5F5E2E2EFF5F5F5E2F5F5F5F5F5F5F5F5F5F5F5F5F5F5F5F5E2F5F5F5F5F5F5F5F5F5F5F5F5F5F5F5F5F5F5F5F5F5F5F5F5F5F5F5F5F5F5F5F5F5F5F5F5F5F5F5F5F5F5F5F5F5F5F5F5F5F5F5F5F5F5F5F5F5F5F5F5F5F5F5F5F5F5
310
F5F5F5F5F5F5F5F5F5F5F5F5F5F5F5F5F5F5F5F5F5F5F5F5F5F5F5F5F5F5F5F5F5F5F5F5F5F5F5F5F5F5F5F5F5F5F5F5F5F5F5F5F5F5F5F5F5F5F5F5F5F5F5F5F5F5F5F5F5E2F5F5F5F5F5F5F5F5F5F5F5F5F5F5F5F5E2F5F5F5E2E2EFF5F5F5E2F5F5F5F5F5F5F5F5F5F5F5F5F5F5F5F5E2F5F5F5F5F5F5F5F5F5F5F5F5F5
310
F5F5F5F5F5F5F5F5F5F5F5F5F5F5F5F5F5F5F5F5F5F5F5F5F5F5F5F5F5F5F5F5F5F5F5F5F5F5F5F5F5F5F5F5F5F5F5F5F5F5F5F5F5F5F5F5F5F5F5F5F5F5F5F5F5F5F5F5F5F5F5F5F5F5F5F5F5F5F5F5F5F5F5F5F5F5F5F5F5F5F5F5F5F5F5F5F5F5F5F5F5F5F5F5F5F5F5F5F5F5F5F5F5F5F5F5F5F5F5F5F5F5E2F5F5F5F5
310
F5F5F5F5F5F5F5F5F5F5F5F5E2F5F5F5E2E2EFF5F5F5E2F5F5F5F5F5F5F5F5F5F5F5F5F5F5F5F5E2F5F5F5F5F5F5F5F5F5F5F5F5F5F5F5F5F5F5F5F5F5F5F5F5F5F5F5F5F5F5F5F5F5F5F5F5F5F5F5F5F5F5F5F5F5F5F5F5F5F5F5F5F5F5F5F5F5F5F5F5F5F5F5F5F5F5F5F5F5F5F5F5F5F5F5F5F5F5F5F5F5F5F5F5F5F5F5
310
F5F5F5F5F5F5F5F5F5F5F5F5F5F5F5F5F5F5F5F5F5F5F5F5F5F5F5F5F5F5F5F5F5F5F5F5F5F5F5F5F5F5F5F5F5F5F5F5E2F5F5F5F5F5F5F5F5F5F5F5F5F5F5F5F5E2F5F5F5E2E2EFF5F5F5E2F5F5F5F5F5F5F5F5F5F5F5F5F5F5F5F5E2F5F5F5F5F5F5F5F5F5F5F5F5F5F5F5F5F5F5F5F5F5F5F5F5F5F5F5F5F5F5F5F5F5F5
310
F5F5F5F5F5F5F5F5F5F5F5F5F5F5F5F5F5F5F5F5F5F5F5F5F5F5F5F5F5F5F5F5F5F5F5F5F5F5F5F5F5F5F5F5F5F5F5F5F5F5F5F5F5F5F5F5F5F5F5F5F5F5F5F5F5F5F5F5F5F5F5F5F5F5F5F5F5F5F5F5F5F5F5F5F5F5F5F5F5F5F5F5F5F5F5F5F5F5F5F5F5E2F5F5F5F5F5F5F5F5F5F5F5F5F5F5F5F5E2F5F5F5E2E2EFF5F5
310
F5E2F5F5F5F5F5F5F5F5F5F5F5F5F5F5F5F5E2F5F5F5F5F5F5F5F5F5F5F5F5F5F5F5F5F5F5F5F5F5F5F5F5F5F5F5F5F5F5F5F5F5F5F5F5F5F5F5F5F5F5F5F5F5F5F5F5F5F5F5F5F5F5F5F5F5F5F5F5F5F5F5F5F5F5F5F5F5F5F5F5F5F5F5F5F5F5F5F5F5F5F5F5F5F5F5F5F5F5F5F5F5F5F5F5F5F5F5F5F5F5F5F5F5F5F5F5
310
F5F5F5F5F5F5F5F5F5F5F5F5F5F5F5F5F5F5F5F5F5F5F5F5F5F5F5E2F5F5F5F5F5F5F5F5F5F5F5F5F5F5F5F5E2F5F5F5E2E2EFF5F5F5E2F5F5F5F5F5F5F5F5F5F5F5F5F5F5F5F5E2F5F5F5F5F5F5F5F5F5F5F5F5F5F5F5F5F5F5F5F5F5F5F5F5F5F5F5F5F5F5F5F5F5F5F5F5F5F5F5F5F5F5F5F5F5F5F5F5F5F5F5F5F5F5F5
310
F5F5F5F5F5F5F5F5F5F5F5F5F5F5F5F5F5F5F5F5F5F5F5F5F5F5F5F5F5F5F5F5F5F5F5F5F5F5F5F5F5F5F5F5F5F5F5F5F5F5F5F5F5F5F5F5F5F5F5F5F5F5F5F5F5F5F5F5F5F5F5F5F5F5F5F5F5F5F5F5E2F5F5F5F5F5F5F5F5F5F5F5F5F5F5F5F5E2F5F5F5E2E2EFF5F5F5E2F5F5F5F5F5F5F5F5F5F5F5F5F5F5F5F5E2F5F5
310
F5F5F5F5F5F5F5F5F5F5F5F5F5F5F5F5F5F5F5F5F5F5F5F5F5F5F5F5F5F5F5F5F5F5F5F5F5F5F5F5F5F5F5F5F5F5F5F5F5F5F5F5F5F5F5F5F5F5F5F5F5F5F5F5F5F5F5F5F5F5F5F5F5F5F5F5F5F5F5F5F5F5F5F5F5F5F5F5F5F5F5F5F5F5F5F5F5F5F5F5F5F5F5F5F5F5F5F5F5F5F5F5F5F5F5F5F5F5F5F5F5F5F5F5F5F5F5
310
F5F5F5F5F5F5E2F5F5F5F5F5F5F5F5F5F5F5F5F5F5F5F5E2F5F5F5E2E2EFF5F5F5E2F5F5F5F5F5F5F5F5F5F5F5F5F5F5F5F5E2F5F5F5F5F5F5F5F5F5F5F5F5F5F5F5F5F5F5F5F5F5F5F5F5F5F5F5F5F5F5F5F5F5F5F5F5F5F5F5F5F5F5F5F5F5F5F5F5F5F5F5F5F5F5F5F5F5F5F5F5F5F5F5F5F5F5F5F5F5F5F5F5F5F5F5F5
310
F5F5F5F5F5F5F5F5F5F5F5F5F5F5F5F5F5F5F5F5F5F5F5F5F5F5F5F5F5F5F5F5F5F5F5F5F5F5F5F5F5F5F5F5F5F5F5F5F5F5F5F5F5F5F5F5F5F5F5E2F5F5F5F5F5F5F5F5F5F5F5F5F5F5F5F5E2F5F5F5E2E2EFF5F5F5F5F5F5F5F5F5F5F5F5F5F5F5F5F5F5F5F5E2F5F5F5F5F5F5F5F5F5F5F5F5F5F5F5F5F5F5F5F5F5F5F5
310
F5F5F5F5F5F5F5F5F5F5F5F5F5F5F5F5F5F5F5F5F5F5F5F5F5F5F5F5F5F5F5F5F5F5F5F5F5F5F5F5F5F5F5F5F5F5F5F5F5F5F5F5F5F5F5F5F5F5F5F5F5F5F5F5F5F5F5F5F5F5F5F5F5F5F5F5F5F5F5F5F5F5F5F5F5F5F5F5F5F5F5F5F5F5F5F5F5F5F5F5F5F5F5F5F5F5F5F5F5F5F5F5E2F5F5F5F5F5F5F5F5F5F5F5F5F5F5
310
F5F5F5F5F5F5E2E2EFF5F5F5F5F5F5F5F5F5F5F5F5F5F5F5F5F5F5F5F5E2F5F5F5F5F5F5F5F5F5F5F5F5F5F5F5F5F5F5F5F5F5F5F5F5F5F5F5F5F5F5F5F5F5F5F5F5F5F5F5F5F5F5F5F5F5F5F5F5F5F5F5F5F5F5F5F5F5F5F5F5F5F5F5F5F5F5F5F5F5F5F5F5F5F5F5F5F5F5F5F5F5F5F5F5F5F5F5F5F5F5F5F5F5F5F5F5F5
310
F5F5F5F5F5F5F5F5F5F5F5F5F5F5F5F5F5F5F5F5F5F5F5F5F5F5F5F5F5F5F5F5F5F5F5F5F5F5E2F5F5F5F5F5F5F5F5F5F5F5F5F5F5F5F5F5F5F5F5E2E2EFF5F5F5F5F5F5F5F5F5F5F5F5F5F5F5F5F5F5F5F5E2F5F5F5F5F5F5F5F5F5F5F5F5F5F5F5F5F5F5F5F5F5F5F5F5F5F5F5F5F5F5F5F5F5F5F5F5F5F5F5F5F5F5F5F5
310
F5F5F5F5F5F5F5F5F5F5F5F5F5F5F5F5F5F5F5F5F5F5F5F5F5F5F5F5F5F5F5F5F5F5F5F5F5F5F5F5F5F5F5F5F5F5F5F5F5F5F5F5F5F5F5F5F5F5F5F5F5F5F5F5F5F5F5F5F5F5F5F5F5F5F5F5F5F5F5F5F5F5F5F5F5F5F5F5F5F5F5E2F5F5F5F5F5F5F5F5F5F5F5F5F5F5F5F5F5F5F5F5E2E2EFF5F5F5F5F5F5F5F5F5F5F5F5
310
F5F5F5F5F5F5F5F5E2F5F5F5F5F5F5F5F5F5F5F5F5F5F5F5F5F5F5F5F5F5F5F5F5F5F5F5F5F5F5F5F5F5F5F5F5F5F5F5F5F5F5F5F5F5F5F5F5F5F5F5F5F5F5F5F5F5F5F5F5F5F5F5F5F5F5F5F5F5F5F5F5F5F5F5F5F5F5F5F5F5F5F5F5F5F5F5F5F5F5F5F5F5F5F5F5F5F5F5F5F5F5F5F5F5F5F5F5F5F5F5F5F5F5F5F5F5F5
310
F5F5F5F5F5F5F5F5F5F5F5F5F5F5F5F5F5E2F5F5F5F5F5F5F5F5F5F5F5F5F5F5F5F5F5F5F5F5E2E2EFF5F5F5F5F5F5F5F5F5F5F5F5F5F5F5F5F5F5F5F5E2F5F5F5F5F5F5F5F5F5F5F5F5F5F5F5F5F5F5F5F5F5F5F5F5F5F5F5F5F5F5F5F5F5F5F5F5F5F5F5F5F5F5F5F5F5F5F5F5F5F5F5F5F5F5F5F5F5F5F5F5F5F5F5F5F5
310
F5F5F5F5F5F5F5F5F5F5F5F5F5F5F5F5F5F5F5F5F5F5F5F5F5F5F5F5F5F5F5F5F5F5F5F5F5F5F5F5F5F5F5F5F5F5F5F5F5F5F5F5F5F5F5F5F5F5F5F5F5F5F5F5F5F5F5F5F5F5E2F5F5F5F5F5F5F5F5F5F5F5F5F5F5F5F5F5F5F5F5E2E2EFF5F5F5F5F5F5F5F5F5F5F5F5F5F5F5F5F5F5F5F5E2F5F5F5F5F5F5F5F5F5F5F5F5
310
F5F5F5F5F5F5F5F5F5F5F5F5F5F5F5F5F5F5F5F5F5F5F5F5F5F5F5F5F5F5F5F5F5F5F5F5F5F5F5F5F5F5F5F5F5F5F5F5F5F5F5F5F5F5F5F5F5F5F5F5F5F5F5F5F5F5F5F5F5F5F5F5F5F5F5F5F5F5F5F5F5F5F5F5F5F5F5F5F5F5F5F5F5F5F5F5F5F5F5F5F5F5F5F5F5F5F5F5F5F5F5F5F5F5F5F5F5F5F5F5F5F5F5E2F5F5F5
310
F5F5F5F5F5F5F5F5F5F5F5F5F5F5F5F5F5E2E2EFF5F5F5F5F5F5F5F5F5F5F5F5F5F5F5F5F5F5F5F5E2F5F5F5F5F5F5F5F5F5F5F5F5F5F5F5F5F5F5F5F5F5F5F5F5F5F5F5F5F5F5F5F5F5F5F5F5F5F5F5F5F5F5F5F5F5F5F5F5F5F5F5F5F5F5F5F5F5F5F5F5F5F5F5F5F5F5F5F5F5F5F5F5F5F5F5F5F5F5F5F5F5F5F5F5F5F5
310
F5F5F5F5F5F5F5F5F5F5F5F5F5F5F5F5F5F5F5F5F5F5F5F5F5F5F5F5F5F5F5F5F5F5F5F5F5F5F5F5F5F5F5F5F5F5F5F5F5E2F5F5F5F5F5F5F5F5F5F5F5F5F5F5F5F5F5F5F5F5E2E2EFF5F5F5F5F5F5F5F5F5F5F5F5F5F5F5F5F5F5F5F5E2F5F5F5F5F5F5F5F5F5F5F5F5F5F5F5F5F5F5F5F5F5F5F5F5F5F5F5F5F5F5F5F5F5
310
F5F5F5F5F5F5F5F5F5F5F5F5F5F5F5F5F5F5F5F5F5F5F5F5F5F5F5F5F5F5F5F5F5F5F5F5F5F5F5F5F5F5F5F5F5F5F5F5F5F5F5F5F5F5F5F5F5F5F5F5F5F5F5F5F5F5F5F5F5F5F5F5F5F5F5F5F5F5F5F5F5F5F5F5F5F5F5F5F5F5F5F5F5F5F5F5F5F5F5F5F5F5E2F5F5F5F5F5F5F5F5F5F5F5F5F5F5F5F5F5F5F5F5E2E2EFF5
310
F5F5F5F5F5F5F5F5F5F5F5F5F5F5F5F5F5F5F5E2F5F5F5F5F5F5F5F5F5F5F5F5F5F5F5F5F5F5F5F5F5F5F5F5F5F5F5F5F5F5F5F5F5F5F5F5F5F5F5F5F5F5F5F5F5F5F5F5F5F5F5F5F5F5F5F5F5F5F5F5F5F5F5F5F5F5F5F5F5F5F5F5F5F5F5F5F5F5F5F5F5F5F5F5F5F5F5F5F5F5F5F5F5F5F5F5F5F5F5F5F5F5F5F5F5F5F5
310
F5F5F5F5F5F5F5F5F5F5F5F5F5F5F5F5F5F5F5F5F5F5F5F5F5F5F5F5E2F5F5F5F5F5F5F5F5F5F5F5F5F5F5F5F5F5F5F5F5E2E2EFF5F5F5E2F5F5F5F5F5F5F5F5F5F5F5F5F5F5F5F5E2F5F5F5F5F5F5F5F5F5F5F5F5F5F5F5F5F5F5F5F5F5F5F5F5F5F5F5F5F5F5F5F5F5F5F5F5F5F5F5F5F5F5F5F5F5F5F5F5F5F5F5F5F5F5
310
F5F5F5F5F5F5F5F5F5F5F5F5F5F5F5F5F5F5F5F5F5F5F5F5F5F5F5F5F5F5F5F5F5F5F5F5F5F5F5F5F5F5F5F5F5F5F5F5F5F5F5F5F5F5F5F5F5F5F5F5F5F5F5F5F5F5F5F5F5F5F5F5F5F5F5F5F5F5F5F5F5E2F5F5F5F5F5F5F5F5F5F5F5F5F5F5F5F5E2F5F5F5E2E2EFF5F5F5E2F5F5F5F5F5F5F5F5F5F5F5F5F5F5F5F5E2F5
310
F5F5F5F5F5F5F5F5F5F5F5F5F5F5F5F5F5F5F5F5F5F5F5F5F5F5F5F5F5F5F5F5F5F5F5F5F5F5F5F5F5F5F5F5F5F5F5F5F5F5F5F5F5F5F5F5F5F5F5F5F5F5F5F5F5F5F5F5F5F5F5F5F5F5F5F5F5F5F5F5F5F5F5F5F5F5F5F5F5F5F5F5F5F5F5F5F5F5F5F5F5F5F5F5F5F5F5F5F5F5F5F5F5F5F5F5F5F5F5F5F5F5F5F5F5F5F5
310
F5F5F5F5F5F5F5E2F5F5F5F5F5F5F5F5F5F5F5F5F5F5F5F5E2F5F5F5E2E2EFF5F5F5E2F5F5F5F5F5F5F5F5F5F5F5F5F5F5F5F5E2F5F5F5F5F5F5F5F5F5F5F5F5F5F5F5F5F5F5F5F5F5F5F5F5F5F5F5F5F5F5F5F5F5F5F5F5F5F5F5F5F5F5F5F5F5F5F5F5F5F5F5F5F5F5F5F5F5F5F5F5F5F5F5F5F5F5F5F5F5F5F5F5F5F5F5
310
F5F5F5F5F5F5F5F5F5F5F5F5F5F5F5F5F5F5F5F5F5F5F5F5F5F5F5F5F5F5F5F5F5F5F5F5F5F5F5F5F5F5F5F5F5F5F5F5F5F5F5F5F5F5F5F5F5F5F5F5E2F5F5F5F5F5F5F5F5F5F5F5F5F5F5F5F5E2F5F5F5E2E2EFF5F5F5E2F5F5F5F5F5F5F5F5F5F5F5F5F5F5F5F5E2F5F5F5F5F5F5F5F5F5F5F5F5F5F5F5F5F5F5F5F5F5F5
310
F5F5F5F5F5F5F5F5F5F5F5F5F5F5F5F5F5F5F5F5F5F5F5F5F5F5F5F5F5F5F5F5F5F5F5F5F5F5F5F5F5F5F5F5F5F5F5F5F5F5F5F5F5F5F5F5F5F5F5F5F5F5F5F5F5F5F5F5F5F5F5F5F5F5F5F5F5F5F5F5F5F5F5F5F5F5F5F5F5F5F5F5F5F5F5F5F5F5F5F5F5F5F5F5F5F5F5F5F5F5F5F5F5E2F5F5F5F5F5F5F5F5F5F5F5F5F5
310
F5F5F5E2F5F5F5E2E2EFF5F5F5E2F5F5F5F5F5F5F5F5F5F5F5F5F5F5F5F5E2F5F5F5F5F5F5F5F5F5F5F5F5F5F5F5F5F5F5F5F5F5F5F5F5F5F5F5F5F5F5F5F5F5F5F5F5F5F5F5F5F5F5F5F5F5F5F5F5F5F5F5F5F5F5F5F5F5F5F5F5F5F5F5F5F5F5F5F5F5F5F5F5F5F5F5F5F5F5F5F5F5F5F5F5F5F5F5F5F5F5F5F5F5F5F5F5
310
F5F5F5F5F5F5F5F5F5F5F5F5F5F5F5F5F5F5F5F5F5F5F5F5F5F5F5F5F5F5F5F5F5F5F5F5F5F5F5E2F5F5F5F5F5F5F5F5F5F5F5F5F5F5F5F5E2F5F5F5E2E2EFF5F5F5E2F5F5F5F5F5F5F5F5F5F5F5F5F5F5F5F5E2F5F5F5F5F5F5F5F5F5F5F5F5F5F5F5F5F5F5F5F5F5F5F5F5F5F5F5F5F5F5F5F5F5F5F5F5F5F5F5F5F5F5F5
310
F5F5F5F5F5F5F5F5F5F5F5F5F5F5F5F5F5F5F5F5F5F5F5F5F5F5F5F5F5F5F5F5F5F5F5F5F5F5F5F5F5F5F5F5F5F5F5F5F5F5F5F5F5F5F5F5F5F5F5F5F5F5F5F5F5F5F5F5F5F5F5F5F5F5F5F5F5F5F5F5F5F5F5F5F5F5F5F5F5F5F5F5E2F5F5F5F5F5F5F5F5F5F5F5F5F5F5F5F5E2F5F5F5E2E2EFF5F5F5E2F5F5F5F5F5F5F5
310
F5F5F5F5F5F5F5F5F5E2F5F5F5F5F5F5F5F5F5F5F5F5F5F5F5F5F5F5F5F5F5F5F5F5F5F5F5F5F5F5F5F5F5F5F5F5F5F5F5F5F5F5F5F5F5F5F5F5F5F5F5F5F5F5F5F5F5F5F5F5F5F5F5F5F5F5F5F5F5F5F5F5F5F5F5F5F5F5F5F5F5F5F5F5F5F5F5F5F5F5F5F5F5F5F5F5F5F5F5F5F5F5F5F5F5F5F5F5F5F5F5F5F5F5F5F5F5
310
F5F5F5F5F5F5F5F5F5F5F5F5F5F5F5F5F5F5E2F5F5F5F5F5F5F5F5F5F5F5F5F5F5F5F5E2F5F5F5E2E2EFF5F5F5E2F5F5F5F5F5F5F5F5F5F5F5F5F5F5F5F5E2F5F5F5F5F5F5F5F5F5F5F5F5F5F5F5F5F5F5F5F5F5F5F5F5F5F5F5F5F5F5F5F5F5F5F5F5F5F5F5F5F5F5F5F5F5F5F5F5F5F5F5F5F5F5F5F5F5F5F5F5F5F5F5F5
310
F5F5F5F5F5F5F5F5F5F5F5F5F5F5F5F5F5F5F5F5F5F5F5F5F5F5F5F5F5F5F5F5F5F5F5F5F5F5F5F5F5F5F5F5F5F5F5F5F5F5F5F5F5F5F5F5F5F5F5F5F5F5F5F5F5F5F5F5F5F5F5E2F5F5F5F5F5F5F5F5F5F5F5F5F5F5F5F5E2F5F5F5E2E2EFF5F5F5E2F5F5F5F5F5F5F5F5F5F5F5F5F5F5F5F5E2F5F5F5F5F5F5F5F5F5F5F5
310
F5F5F5F5F5F5F5F5F5F5F5F5F5F5F5F5F5F5F5F5F5F5F5F5F5F5F5F5F5F5F5F5F5F5F5F5F5F5F5F5F5F5F5F5F5F5F5F5F5F5F5F5F5F5F5F5F5F5F5F5F5F5F5F5F5F5F5F5F5F5F5F5F5F5F5F5F5F5F5F5F5F5F5F5F5F5F5F5F5F5F5F5F5F5F5F5F5F5F5F5F5F5F5F5F5F5F5F5F5F5F5F5F5F5F5F5F5F5F5F5F5F5F5F5E2F5F5
310
F5F5F5F5F5F5F5F5F5F5F5F5F5F5E2F5F5F5E2E2EFF5F5F5E2F5F5F5F5F5F5F5F5F5F5F5F5F5F5F5F5E2F5F5F5F5F5F5F5F5F5F5F5F5F5F5F5F5F5F5F5F5F5F5F5F5F5F5F5F5F5F5F5F5F5F5F5F5F5F5F5F5F5F5F5F5F5F5F5F5F5F5F5F5F5F5F5F5F5F5F5F5F5F5F5F5F5F5F5F5F5F5F5F5F5F5F5F5F5F5F5F5F5F5F5F5F5
310
F5F5F5F5F5F5F5F5F5F5F5F5F5F5F5F5F5F5F5F5F5F5F5F5F5F5F5F5F5F5F5F5F5F5F5F5F5F5F5F5F5F5F5F5F5F5F5F5F5F5E2F5F5F5F5F5F5F5F5F5F5F5F5F5F5F5F5E2F5F5F5E2E2EFF5F5F5E2F5F5F5F5F5F5F5F5F5F5F5F5F5F5F5F5E2F5F5F5F5F5F5F5F5F5F5F5F5F5F5F5F5F5F5F5F5F5F5F5F5F5F5F5F5F5F5F5F5
310
F5F5F5F5F5F5F5F5F5F5F5F5F5F5F5F5F5F5F5F5F5F5F5F5F5F5F5F5F5F5F5F5F5F5F5F5F5F5F5F5F5F5F5F5F5F5F5F5F5F5F5F5F5F5F5F5F5F5F5F5F5F5F5F5F5F5F5F5F5F5F5F5F5F5F5F5F5F5F5F5F5F5F5F5F5F5F5F5F5F5F5F5F5F5F5F5F5F5F5F5F5F5F5E2F5F5F5F5F5F5F5F5F5F5F5F5F5F5F5F5E2F5F5F5E2E2EF
310
F5F5F5E2F5F5F5F5F5F5F5F5F5F5F5F5F5F5F5F5E2F5F5F5F5F5F5F5F5F5F5F5F5F5F5F5F5F5F5F5F5F5F5F5F5F5F5F5F5F5F5F5F5F5F5F5F5F5F5F5F5F5F5F5F5F5F5F5F5F5F5F5F5F5F5F5F5F5F5F5F5F5F5F5F5F5F5F5F5F5F5F5F5F5F5F5F5F5F5F5F5F5F5F5F5F5F5F5F5F5F5F5F5F5F5F5F5F5F5F5F5F5F5F5F5F5F5
310
F5F5F5F5F5F5F5F5F5F5F5F5F5F5F5F5F5F5F5F5F5F5F5F5F5F5F5F5F5E2F5F5F5F5F5F5F5F5F5F5F5F5F5F5F5F5E2F5F5F5E2E2EFF5F5F5E2F5F5F5F5F5F5F5F5F5F5F5F5F5F5F5F5E2F5F5F5F5F5F5F5F5F5F5F5F5F5F5F5F5F5F5F5F5F5F5F5F5F5F5F5F5F5F5F5F5F5F5F5F5F5F5F5F5F5F5F5F5F5F5F5F5F5F5F5F5F5
310
F5F5F5F5F5F5F5F5F5F5F5F5F5F5F5F5F5F5F5F5F5F5F5F5F5F5F5F5F5F5F5F5F5F5F5F5F5F5F5F5F5F5F5F5F5F5F5F5F5F5F5F5F5F5F5F5F5F5F5F5F5F5F5F5F5F5F5F5F5F5F5F5F5F5F5F5F5F5F5F5F5F5E2F5F5F5F5F5F5F5F5F5F5F5F5F5F5F5F5E2F5F5F5E2E2EFF5F5F5E2F5F5F5F5F5F5F5F5F5F5F5F5F5F5F5F5E2
310
F5F5F5F5F5F5F5F5F5F5F5F5F5F5F5F5F5F5F5F5F5F5F5F5F5F5F5F5F5F5F5F5F5F5F5F5F5F5F5F5F5F5F5F5F5F5F5F5F5F5F5F5F5F5F5F5F5F5F5F5F5F5F5F5F5F5F5F5F5F5F5F5F5F5F5F5F5F5F5F5F5F5F5F5F5F5F5F5F5F5F5F5F5F5F5F5F5F5F5F5F5F5F5F5F5F5F5F5F5F5F5F5F5F5F5F5F5F5F5F5F5F5F5F5F5F5F5
310
F5F5F5F5F5F5F5F5E2F5F5F5F5F5F5F5F5F5F5F5F5F5F5F5F5E2F5F5F5E2E2EFF5F5F5E2F5F5F5F5F5F5F5F5F5F5F5F5F5F5F5F5E2F5F5F5F5F5F5F5F5F5F5F5F5F5F5F5F5F5F5F5F5F5F5F5F5F5F5F5F5F5F5F5F5F5F5F5F5F5F5F5F5F5F5F5F5F5F5F5F5F5F5F5F5F5F5F5F5F5F5F5F5F5F5F5F5F5F5F5F5F5F5F5F5F5F5
310
F5F5F5F5F5F5F5F5F5F5F5F5F5F5F5F5F5F5F5F5F5F5F5F5F5F5F5F5F5F5F5F5F5F5F5F5F5F5F5F5F5F5F5F5F5F5F5F5F5F5F5F5F5F5F5F5F5F5F5F5F5E2F5F5F5F5F5F5F5F5F5F5F5F5F5F5F5F5E2F5F5F5E2E2EFF5F5F5E2F5F5F5F5F5F5F5F5F5F5F5F5F5F5F5F5E2F5F5F5F5F5F5F5F5F5F5F5F5F5F5F5F5F5F5F5F5F5
310
F5F5F5F5F5F5F5F5F5F5F5F5F5F5F5F5F5F5F5F5F5F5F5F5F5F5F5F5F5F5F5F5F5F5F5F5F5F5F5F5F5F5F5F5F5F5F5F5F5F5F5F5F5F5F5F5F5F5F5F5F5F5F5F5F5F5F5F5F5F5F5F5F5F5F5F5F5F5F5F5F5F5F5F5F5F5F5F5F5F5F5F5F5F5F5F5F5F5F5F5F5F5F5F5F5F5F5F5F5F5F5F5F5F5E2F5F5F5F5F5F5F5F5F5F5F5F5
310
F5F5F5F5E2F5F5F5E2E2EFF5F5F5E2F5F5F5F5F5F5F5F5F5F5F5F5F5F5F5F5E2F5F5F5F5F5F5F5F5F5F5F5F5F5F5F5F5F5F5F5F5F5F5F5F5F5F5F5F5F5F5F5F5F5F5F5F5F5F5F5F5F5F5F5F5F5F5F5F5F5F5F5F5F5F5F5F5F5F5F5F5F5F5F5F5F5F5F5F5F5F5F5F5F5F5F5F5F5F5F5F5F5F5F5F5F5F5F5F5F5F5F5F5F5F5F5
310
F5F5F5F5F5F5F5F5F5F5F5F5F5F5F5F5F5F5F5F5F5F5F5F5F5F5F5F5F5F5F5F5F5F5F5F5F5F5F5F5E2F5F5F5F5F5F5F5F5F5F5F5F5F5F5F5F5E2F5F5F5E2E2EFF5F5F5F5F5F5F5F5F5F5F5F5F5F5F5F5F5F5F5F5E2F5F5F5F5F5F5F5F5F5F5F5F5F5F5F5F5F5F5F5F5F5F5F5F5F5F5F5F5F5F5F5F5F5F5F5F5F5F5F5F5F5F5
310
F5F5F5F5F5F5F5F5F5F5F5F5F5F5F5F5F5F5F5F5F5F5F5F5F5F5F5F5F5F5F5F5F5F5F5F5F5F5F5F5F5F5F5F5F5F5F5F5F5F5F5F5F5F5F5F5F5F5F5F5F5F5F5F5F5F5F5F5F5F5F5F5F5F5F5F5F5F5F5F5F5F5F5F5F5F5F5F5F5F5F5F5F5E2F5F5F5F5F5F5F5F5F5F5F5F5F5F5F5F5F5F5F5F5E2E2EFF5F5F5F5F5F5F5F5F5F5
310
F5F5F5F5F5F5F5F5F5F5E2F5F5F5F5F5F5F5F5F5F5F5F5F5F5F5F5F5F5F5F5F5F5F5F5F5F5F5F5F5F5F5F5F5F5F5F5F5F5F5F5F5F5F5F5F5F5F5F5F5F5F5F5F5F5F5F5F5F5F5F5F5F5F5F5F5F5F5F5F5F5F5F5F5F5F5F5F5F5F5F5F5F5F5F5F5F5F5F5F5F5F5F5F5F5F5F5F5F5F5F5F5F5F5F5F5F5F5F5F5F5F5F5F5F5F5F5
310
F5F5F5F5F5F5F5F5F5F5F5F5F5F5F5F5F5F5F5E2F5F5F5F5F5F5F5F5F5F5F5F5F5F5F5F5F5F5F5F5E2E2EFF5F5F5F5F5F5F5F5F5F5F5F5F5F5F5F5F5F5F5F5E2F5F5F5F5F5F5F5F5F5F5F5F5F5F5F5F5F5F5F5F5F5F5F5F5F5F5F5F5F5F5F5F5F5F5F5F5F5F5F5F5F5F5F5F5F5F5F5F5F5F5F5F5F5F5F5F5F5F5F5F5F5F5F5
310
F5F5F5F5F5F5F5F5F5F5F5F5F5F5F5F5F5F5F5F5F5F5F5F5F5F5F5F5F5F5F5F5F5F5F5F5F5F5F5F5F5F5F5F5F5F5F5F5F5F5F5F5F5F5F5F5F5F5F5F5F5F5F5F5F5F5F5F5F5F5F5F5E2F5F5F5F5F5F5F5F5F5F5F5F5F5F5F5F5F5F5F5F5E2E2EFF5F5F5F5F5F5F5F5F5F5F5F5F5F5F5F5F5F5F5F5E2F5F5F5F5F5F5F5F5F5F5
310
F5F5F5F5F5F5F5F5F5F5F5F5F5F5F5F5F5F5F5F5F5F5F5F5F5F5F5F5F5F5F5F5F5F5F5F5F5F5F5F5F5F5F5F5F5F5F5F5F5F5F5F5F5F5F5F5F5F5F5F5F5F5F5F5F5F5F5F5F5F5F5F5F5F5F5F5F5F5F5F5F5F5F5F5F5F5F5F5F5F5F5F5F5F5F5F5F5F5F5F5F5F5F5F5F5F5F5F5F5F5F5F5F5F5F5F5F5F5F5F5F5F5F5F5F5E2F5
310
F5F5F5F5F5F5F5F5F5F5F5F5F5F5F5F5F5F5F5E2E2EFF5F5F5F5F5F5F5F5F5F5F5F5F5F5F5F5F5F5F5F5E2F5F5F5F5F5F5F5F5F5F5F5F5F5F5F5F5F5F5F5F5F5F5F5F5F5F5F5F5F5F5F5F5F5F5F5F5F5F5F5F5F5F5F5F5F5F5F5F5F5F5F5F5F5F5F5F5F5F5F5F5F5F5F5F5F5F5F5F5F5F5F5F5F5F5F5F5F5F5F5F5F5F5F5F5
310
F5F5F5F5F5F5F5F5F5F5F5F5F5F5F5F5F5F5F5F5F5F5F5F5F5F5F5F5F5F5F5F5F5F5F5F5F5F5F5F5F5F5F5F5F5F5F5F5F5F5F5E2F5F5F5F5F5F5F5F5F5F5F5F5F5F5F5F5F5F5F5F5E2E2EFF5F5F5F5F5F5F5F5F5F5F5F5F5F5F5F5F5F5F5F5E2F5F5F5F5F5F5F5F5F5F5F5F5F5F5F5F5F5F5F5F5F5F5F5F5F5F5F5F5F5F5F5
310
F5F5F5F5F5F5F5F5F5F5F5F5F5F5F5F5F5F5F5F5F5F5F5F5F5F5F5F5F5F5F5F5F5F5F5F5F5F5F5F5F5F5F5F5F5F5F5F5F5F5F5F5F5F5F5F5F5F5F5F5F5F5F5F5F5F5F5F5F5F5F5F5F5F5F5F5F5F5F5F5F5F5F5F5F5F5F5F5F5F5F5F5F5F5F5F5F5F5F5F5F5F5F5F5E2F5F5F5F5F5F5F5F5F5F5F5F5F5F5F5F5F5F5F5F5E2E2
310
EFF5F5F5F5F5F5F5F5F5F5F5F5F5F5F5F5F5F5F5F5E2F5F5F5F5F5F5F5F5F5F5F5F5F5F5F5F5F5F5F5F5F5F5F5F5F5F5F5F5F5F5F5F5F5F5F5F5F5F5F5F5F5F5F5F5F5F5F5F5F5F5F5F5F5F5F5F5F5F5F5F5F5F5F5F5F5F5F5F5F5F5F5F5F5F5F5F5F5F5F5F5F5F5F5F5F5F5F5F5F5F5F5F5F5F5F5F5F5F5F5F5F5F5F5F5F5
310
F5F5F5F5F5F5F5F5F5F5F5F5F5F5F5F5F5F5F5F5F5F5F5F5F5F5F5F5F5F5E2F5F5F5F5F5F5F5F5F5F5F5F5F5F5F5F5F5F5F5F5E2E2EFF5F5F5F5F5F5F5F5F5F5F5F5F5F5F5F5F5F5F5F5E2F5F5F5F5F5F5F5F5F5F5F5F5F5F5F5F5F5F5F5F5F5F5F5F5F5F5F5F5F5F5F5F5F5F5F5F5F5F5F5F5F5F5F5F5F5F5F5F5F5F5F5F5
310
F5F5F5F5F5F5F5F5F5F5F5F5F5F5F5F5F5F5F5F5F5F5F5F5F5F5F5F5F5F5F5F5F5F5F5F5F5F5F5F5F5F5F5F5F5F5F5F5F5F5F5F5F5F5F5F5F5F5F5F5F5F5F5F5F5F5F5F5F5F5F5F5F5F5F5F5F5F5F5F5F5F5F5E2F5F5F5F5F5F5F5F5F5F5F5F5F5F5F5F5F5F5F5F5E2E2EFF5F5F5F5F5F5F5F5F5F5F5F5F5F5F5F5F5F5F5F5
310
E2F5F5F5F5F5F5F5F5F5F5F5F5F5F5F5F5F5F5F5F5F5F5F5F5F5F5F5F5F5F5F5F5F5F5F5F5F5F5F5F5F5F5F5F5F5F5F5F5F5F5F5F5F5F5F5F5F5F5F5F5F5F5F5F5F5F5F5F5F5F5F5F5F5F5F5F5F5F5F5F5F5F5F5F5F5F5F5F5F5F5F5F5F5F5F5F5F5F5F5F5F5F5F5F5F5F5F5F5F5F5F5F5F5F5F5F5F5F5F5F5F5F5F5F5F5F5
310
F5F5F5F5F5F5F5F5F5E2F5F5F5F5F5F5F5F5F5F5F5F5F5F5F5F5F5F5F5F5E2E2EFF5F5F5E2F5F5F5F5F5F5F5F5F5F5F5F5F5F5F5F5E2F5F5F5F5F5F5F5F5F5F5F5F5F5F5F5F5F5F5F5F5F5F5F5F5F5F5F5F5F5F5F5F5F5F5F5F5F5F5F5F5F5F5F5F5F5F5F5F5F5F5F5F5F5F5F5F5F5F5F5F5F5F5F5F5F5F5F5F5F5F5F5F5F5
310
F5F5F5F5F5F5F5F5F5F5F5F5F5F5F5F5F5F5F5F5F5F5F5F5F5F5F5F5F5F5F5F5F5F5F5F5F5F5F5F5F5F5F5F5F5F5F5F5F5F5F5F5F5F5F5F5F5F5F5F5F5F5E2F5F5F5F5F5F5F5F5F5F5F5F5F5F5F5F5E2F5F5F5E2E2EFF5F5F5E2F5F5F5F5F5F5F5F5F5F5F5F5F5F5F5F5E2F5F5F5F5F5F5F5F5F5F5F5F5F5F5F5F5F5F5F5F5
310
F5F5F5F5F5F5F5F5F5F5F5F5F5F5F5F5F5F5F5F5F5F5F5F5F5F5F5F5F5F5F5F5F5F5F5F5F5F5F5F5F5F5F5F5F5F5F5F5F5F5F5F5F5F5F5F5F5F5F5F5F5F5F5F5F5F5F5F5F5F5F5F5F5F5F5F5F5F5F5F5F5F5F5F5F5F5F5F5F5F5F5F5F5F5F5F5F5F5F5F5F5F5F5F5F5F5F5F5F5F5F5F5F5F5F5E2F5F5F5F5F5F5F5F5F5F5F5
310
F5F5F5F5F5E2F5F5F5E2E2EFF5F5F5E2F5F5F5F5F5F5F5F5F5F5F5F5F5F5F5F5E2F5F5F5F5F5F5F5F5F5F5F5F5F5F5F5F5F5F5F5F5F5F5F5F5F5F5F5F5F5F5F5F5F5F5F5F5F5F5F5F5F5F5F5F5F5F5F5F5F5F5F5F5F5F5F5F5F5F5F5F5F5F5F5F5F5F5F5F5F5F5F5F5F5F5F5F5F5F5F5F5F5F5F5F5F5F5F5F5F5F5F5F5F5F5
310
F5F5F5F5F5F5F5F5F5F5F5F5F5F5F5F5F5F5F5F5F5F5F5F5F5F5F5F5F5F5F5F5F5F5F5F5F5F5F5F5F5E2F5F5F5F5F5F5F5F5F5F5F5F5F5F5F5F5E2F5F5F5E2E2EFF5F5F5E2F5F5F5F5F5F5F5F5F5F5F5F5F5F5F5F5E2F5F5F5F5F5F5F5F5F5F5F5F5F5F5F5F5F5F5F5F5F5F5F5F5F5F5F5F5F5F5F5F5F5F5F5F5F5F5F5F5F5
310
F5F5F5F5F5F5F5F5F5F5F5F5F5F5F5F5F5F5F5F5F5F5F5F5F5F5F5F5F5F5F5F5F5F5F5F5F5F5F5F5F5F5F5F5F5F5F5F5F5F5F5F5F5F5F5F5F5F5F5F5F5F5F5F5F5F5F5F5F5F5F5F5F5F5F5F5F5F5F5F5F5F5F5F5F5F5F5F5F5F5F5F5F5F5E2F5F5F5F5F5F5F5F5F5F5F5F5F5F5F5F5E2F5F5F5E2E2EFF5F5F5E2F5F5F5F5F5
310
F5F5F5F5F5F5F5F5F5F5F5E2F5F5F5F5F5F5F5F5F5F5F5F5F5F5F5F5F5F5F5F5F5F5F5F5F5F5F5F5F5F5F5F5F5F5F5F5F5F5F5F5F5F5F5F5F5F5F5F5F5F5F5F5F5F5F5F5F5F5F5F5F5F5F5F5F5F5F5F5F5F5F5F5F5F5F5F5F5F5F5F5F5F5F5F5F5F5F5F5F5F5F5F5F5F5F5F5F5F5F5F5F5F5F5F5F5F5F5F5F5F5F5F5F5F5F5
310
F5F5F5F5F5F5F5F5F5F5F5F5F5F5F5F5F5F5F5F5E2F5F5F5F5F5F5F5F5F5F5F5F5F5F5F5F5E2F5F5F5E2E2EFF5F5F5E2F5F5F5F5F5F5F5F5F5F5F5F5F5F5F5F5E2F5F5F5F5F5F5F5F5F5F5F5F5F5F5F5F5F5F5F5F5F5F5F5F5F5F5F5F5F5F5F5F5F5F5F5F5F5F5F5F5F5F5F5F5F5F5F5F5F5F5F5F5F5F5F5F5F5F5F5F5F5F5
310
F5F5F5F5F5F5F5F5F5F5F5F5F5F5F5F5F5F5F5F5F5F5F5F5F5F5F5F5F5F5F5F5F5F5F5F5F5F5F5F5F5F5F5F5F5F5F5F5F5F5F5F5F5F5F5F5F5F5F5F5F5F5F5F5F5F5F5F5F5F5F5F5F5E2F5F5F5F5F5F5F5F5F5F5F5F5F5F5F5F5E2F5F5F5E2E2EFF5F5F5E2F5F5F5F5F5F5F5F5F5F5F5F5F5F5F5F5E2F5F5F5F5F5F5F5F5F5
310
F5F5F5F5F5F5F5F5F5F5F5F5F5F5F5F5F5F5F5F5F5F5F5F5F5F5F5F5F5F5F5F5F5F5F5F5F5F5F5F5F5F5F5F5F5F5F5F5F5F5F5F5F5F5F5F5F5F5F5F5F5F5F5F5F5F5F5F5F5F5F5F5F5F5F5F5F5F5F5F5F5F5F5F5F5F5F5F5F5F5F5F5F5F5F5F5F5F5F5F5F5F5F5F5F5F5F5F5F5F5F5F5F5F5F5F5F5F5F5F5F5F5F5F5F5F5E2
310
F5F5F5F5F5F5F5F5F5F5F5F5F5F5F5F5E2F5F5F5E2E2EFF5F5F5E2F5F5F5F5F5F5F5F5F5F5F5F5F5F5F5F5E2F5F5F5F5F5F5F5F5F5F5F5F5F5F5F5F5F5F5F5F5F5F5F5F5F5F5F5F5F5F5F5F5F5F5F5F5F5F5F5F5F5F5F5F5F5F5F5F5F5F5F5F5F5F5F5F5F5F5F5F5F5F5F5F5F5F5F5F5F5F5F5F5F5F5F5F5F5F5F5F5F5F5F5
310
F5F5F5F5F5F5F5F5F5F5F5F5F5F5F5F5F5F5F5F5F5F5F5F5F5F5F5F5F5F5F5F5F5F5F5F5F5F5F5F5F5F5F5F5F5F5F5F5F5F5F5F5E2F5F5F5F5F5F5F5F5F5F5F5F5F5F5F5F5E2F5F5F5E2E2EFF5F5F5E2F5F5F5F5F5F5F5F5F5F5F5F5F5F5F5F5E2F5F5F5F5F5F5F5F5F5F5F5F5F5F5F5F5F5F5F5F5F5F5F5F5F5F5F5F5F5F5
310
F5F5F5F5F5F5F5F5F5F5F5F5F5F5F5F5F5F5F5F5F5F5F5F5F5F5F5F5F5F5F5F5F5F5F5F5F5F5F5F5F5F5F5F5F5F5F5F5F5F5F5F5F5F5F5F5F5F5F5F5F5F5F5F5F5F5F5F5F5F5F5F5F5F5F5F5F5F5F5F5F5F5F5F5F5F5F5F5F5F5F5F5F5F5F5F5F5F5F5F5F5F5F5F5F5E2F5F5F5F5F5F5F5F5F5F5F5F5F5F5F5F5E2F5F5F5E2
310
E2EFF5F5F5E2F5F5F5F5F5F5F5F5F5F5F5F5F5F5F5F5E2F5F5F5F5F5F5F5F5F5F5F5F5F5F5F5F5F5F5F5F5F5F5F5F5F5F5F5F5F5F5F5F5F5F5F5F5F5F5F5F5F5F5F5F5F5F5F5F5F5F5F5F5F5F5F5F5F5F5F5F5F5F5F5F5F5F5F5F5F5F5F5F5F5F5F5F5F5F5F5F5F5F5F5F5F5F5F5F5F5F5F5F5F5F5F5F5F5F5F5F5F5F5F5F5
310
F5F5F5F5F5F5F5F5F5F5F5F5F5F5F5F5F5F5F5F5F5F5F5F5F5F5F5F5F5F5F5E2F5F5F5F5F5F5F5F5F5F5F5F5F5F5F5F5E2F5F5F5E2E2EFF5F5F5E2F5F5F5F5F5F5F5F5F5F5F5F5F5F5F5F5E2F5F5F5F5F5F5F5F5F5F5F5F5F5F5F5F5F5F5F5F5F5F5F5F5F5F5F5F5F5F5F5F5F5F5F5F5F5F5F5F5F5F5F5F5F5F5F5F5F5F5F5
310
F5F5F5F5F5F5F5F5F5F5F5F5F5F5F5F5F5F5F5F5F5F5F5F5F5F5F5F5F5F5F5F5F5F5F5F5F5F5F5F5F5F5F5F5F5F5F5F5F5F5F5F5F5F5F5F5F5F5F5F5F5F5F5F5F5F5F5F5F5F5F5F5F5F5F5F5F5F5F5F5F5F5F5F5E2F5F5F5F5F5F5F5F5F5F5F5F5F5F5F5F5E2F5F5F5E2E2EFF5F5F5E2F5F5F5F5F5F5F5F5F5F5F5F5F5F5F5
310
F5E2F5F5F5F5F5F5F5F5F5F5F5F5F5F5F5F5F5F5F5F5F5F5F5F5F5F5F5F5F5F5F5F5F5F5F5F5F5F5F5F5F5F5F5F5F5F5F5F5F5F5F5F5F5F5F5F5F5F5F5F5F5F5F5F5F5F5F5F5F5F5F5F5F5F5F5F5F5F5F5F5F5F5F5F5F5F5F5F5F5F5F5F5F5F5F5F5F5F5F5F5F5F5F5F5F5F5F5F5F5F5F5F5F5F5F5F5F5F5F5F5F5F5F5F5F5
310
F5F5F5F5F5F5F5F5F5F5E2F5F5F5F5F5F5F5F5F5F5F5F5F5F5F5F5E2F5F5F5E2E2EFF5F5F5E2F5F5F5F5F5F5F5F5F5F5F5F5F5F5F5F5E2F5F5F5F5F5F5F5F5F5F5F5F5F5F5F5F5F5F5F5F5F5F5F5F5F5F5F5F5F5F5F5F5F5F5F5F5F5F5F5F5F5F5F5F5F5F5F5F5F5F5F5F5F5F5F5F5F5F5F5F5F5F5F5F5F5F5F5F5F5F5F5F5
310
F5F5F5F5F5F5F5F5F5F5F5F5F5F5F5F5F5F5F5F5F5F5F5F5F5F5F5F5F5F5F5F5F5F5F5F5F5F5F5F5F5F5F5F5F5F5F5F5F5F5F5F5F5F5F5F5F5F5F5F5F5F5F5E2F5F5F5F5F5F5F5F5F5F5F5F5F5F5F5F5E2F5F5F5E2E2EFF5F5F5E2F5F5F5F5F5F5F5F5F5F5F5F5F5F5F5F5E2F5F5F5F5F5F5F5F5F5F5F5F5F5F5F5F5F5F5F5
310
F5F5F5F5F5F5F5F5F5F5F5F5F5F5F5F5F5F5F5F5F5F5F5F5F5F5F5F5F5F5F5F5F5F5F5F5F5F5F5F5F5F5F5F5F5F5F5F5F5F5F5F5F5F5F5F5F5F5F5F5F5F5F5F5F5F5F5F5F5F5F5F5F5F5F5F5F5F5F5F5F5F5F5F5F5F5F5F5F5F5F5F5F5F5F5F5F5F5F5F5F5F5F5F5F5F5F5F5F5F5F5F5F5F5F5F5E2F5F5F5F5F5F5F5F5F5F5
310
F5F5F5F5F5F5E2F5F5F5E2E2EFF5F5F5E2F5F5F5F5F5F5F5F5F5F5F5F5F5F5F5F5E2F5F5F5F5F5F5F5F5F5F5F5F5F5F5F5F5F5F5F5F5F5F5F5F5F5F5F5F5F5F5F5F5F5F5F5F5F5F5F5F5F5F5F5F5F5F5F5F5F5F5F5F5F5F5F5F5F5F5F5F5F5F5F5F5F5F5F5F5F5F5F5F5F5F5F5F5F5F5F5F5F5F5F5F5F5F5F5F5F5F5F5F5F5
310
F5F5F5F5F5F5F5F5F5F5F5F5F5F5F5F5F5F5F5F5F5F5F5F5F5F5F5F5F5F5F5F5F5F5F5F5F5F5F5F5F5F5E2F5F5F5F5F5F5F5F5F5F5F5F5F5F5F5F5E2F5F5F5E2E2EFF5F5F5E2F5F5F5F5F5F5F5F5F5F5F5F5F5F5F5F5E2F5F5F5F5F5F5F5F5F5F5F5F5F5F5F5F5F5F5F5F5F5F5F5F5F5F5F5F5F5F5F5F5F5F5F5F5F5F5F5F5
310
F5F5F5F5F5F5F5F5F5F5F5F5F5F5F5F5F5F5F5F5F5F5F5F5F5F5F5F5F5F5F5F5F5F5F5F5F5F5F5F5F5F5F5F5F5F5F5F5F5F5F5F5F5F5F5F5F5F5F5F5F5F5F5F5F5F5F5F5F5F5F5F5F5F5F5F5F5F5F5F5F5F5F5F5F5F5F5F5F5F5F5F5F5F5F5E2F5F5F5F5F5F5F5F5F5F5F5F5F5F5F5F5E2F5F5F5E2E2EFF5F5F5E2F5F5F5F5
310
F5F5F5F5F5F5F5F5F5F5F5F5E2F5F5F5F5F5F5F5F5F5F5F5F5F5F5F5F5F5F5F5F5F5F5F5F5F5F5F5F5F5F5F5F5F5F5F5F5F5F5F5F5F5F5F5F5F5F5F5F5F5F5F5F5F5F5F5F5F5F5F5F5F5F5F5F5F5F5F5F5F5F5F5F5F5F5F5F5F5F5F5F5F5F5F5F5F5F5F5F5F5F5F5F5F5F5F5F5F5F5F5F5F5F5F5F5F5F5F5F5F5F5F5F5F5F5
310
F5F5F5F5F5F5F5F5F5F5F5F5F5F5F5F5F5F5F5F5F5E2F5F5F5F5F5F5F5F5F5F5F5F5F5F5F5F5E2F5F5F5E2E2EFF5F5F5F5F5F5F5F5F5F5F5F5F5F5F5F5F5F5F5F5E2F5F5F5F5F5F5F5F5F5F5F5F5F5F5F5F5F5F5F5F5F5F5F5F5F5F5F5F5F5F5F5F5F5F5F5F5F5F5F5F5F5F5F5F5F5F5F5F5F5F5F5F5F5F5F5F5F5F5F5F5F5
310
F5F5F5F5F5F5F5F5F5F5F5F5F5F5F5F5F5F5F5F5F5F5F5F5F5F5F5F5F5F5F5F5F5F5F5F5F5F5F5F5F5F5F5F5F5F5F5F5F5F5F5F5F5F5F5F5F5F5F5F5F5F5F5F5F5F5F5F5F5F5F5F5F5F5E2F5F5F5F5F5F5F5F5F5F5F5F5F5F5F5F5F5F5F5F5E2E2EFF5F5F5F5F5F5F5F5F5F5F5F5F5F5F5F5F5F5F5F5E2F5F5F5F5F5F5F5F5
310
F5F5F5F5F5F5F5F5F5F5F5F5F5F5F5F5F5F5F5F5F5F5F5F5F5F5F5F5F5F5F5F5F5F5F5F5F5F5F5F5F5F5F5F5F5F5F5F5F5F5F5F5F5F5F5F5F5F5F5F5F5F5F5F5F5F5F5F5F5F5F5F5F5F5F5F5F5F5F5F5F5F5F5F5F5F5F5F5F5F5F5F5F5F5F5F5F5F5F5F5F5F5F5F5F5F5F5F5F5F5F5F5F5F5F5F5F5F5F5F5F5F5F5F5F5F5F5
310
E2F5F5F5F5F5F5F5F5F5F5F5F5F5F5F5F5F5F5F5F5E2E2EFF5F5F5F5F5F5F5F5F5F5F5F5F5F5F5F5F5F5F5F5E2F5F5F5F5F5F5F5F5F5F5F5F5F5F5F5F5F5F5F5F5F5F5F5F5F5F5F5F5F5F5F5F5F5F5F5F5F5F5F5F5F5F5F5F5F5F5F5F5F5F5F5F5F5F5F5F5F5F5F5F5F5F5F5F5F5F5F5F5F5F5F5F5F5F5F5F5F5F5F5F5F5F5
310
F5F5F5F5F5F5F5F5F5F5F5F5F5F5F5F5F5F5F5F5F5F5F5F5F5F5F5F5F5F5F5F5F5F5F5F5F5F5F5F5F5F5F5F5F5F5F5F5F5F5F5F5F5E2F5F5F5F5F5F5F5F5F5F5F5F5F5F5F5F5F5F5F5F5E2E2EFF5F5F5F5F5F5F5F5F5F5F5F5F5F5F5F5F5F5F5F5E2F5F5F5F5F5F5F5F5F5F5F5F5F5F5F5F5F5F5F5F5F5F5F5F5F5F5F5F5F5
310
F5F5F5F5F5F5F5F5F5F5F5F5F5F5F5F5F5F5F5F5F5F5F5F5F5F5F5F5F5F5F5F5F5F5F5F5F5F5F5F5F5F5F5F5F5F5F5F5F5F5F5F5F5F5F5F5F5F5F5F5F5F5F5F5F5F5F5F5F5F5F5F5F5F5F5F5F5F5F5F5F5F5F5F5F5F5F5F5F5F5F5F5F5F5F5F5F5F5F5F5F5F5F5F5F5F5E2F5F5F5F5F5F5F5F5F5F5F5F5F5F5F5F5F5F5F5F5
310
E2E2EFF5F5F5F5F5F5F5F5F5F5F5F5F5F5F5F5F5F5F5F5E2F5F5F5F5F5F5F5F5F5F5F5F5F5F5F5F5F5F5F5F5F5F5F5F5F5F5F5F5F5F5F5F5F5F5F5F5F5F5F5F5F5F5F5F5F5F5F5F5F5F5F5F5F5F5F5F5F5F5F5F5F5F5F5F5F5F5F5F5F5F5F5F5F5F5F5F5F5F5F5F5F5F5F5F5F5F5F5F5F5F5F5F5F5F5F5F5F5F5F5F5F5F5F5
310
F5F5F5F5F5F5F5F5F5F5F5F5F5F5F5F5F5F5F5F5F5F5F5F5F5F5F5F5F5F5F5F5E2F5F5F5F5F5F5F5F5F5F5F5F5F5F5F5F5F5F5F5F5E2E2EFF5F5F5F5F5F5F5F5F5F5F5F5F5F5F5F5F5F5F5F5E2F5F5F5F5F5F5F5F5F5F5F5F5F5F5F5F5F5F5F5F5F5F5F5F5F5F5F5F5F5F5F5F5F5F5F5F5F5F5F5F5F5F5F5F5F5F5F5F5F5F5
310
F5F5F5F5F5F5F5F5F5F5F5F5F5F5F5F5F5F5F5F5F5F5F5F5F5F5F5F5F5F5F5F5F5F5F5F5F5F5F5F5F5F5F5F5F5F5F5F5F5F5F5F5F5F5F5F5F5F5F5F5F5F5F5F5F5F5F5F5F5F5F5F5F5F5F5F5F5F5F5F5F5F5F5F5F5E2F5F5F5F5F5F5F5F5F5F5F5F5F5F5F5F5F5F5F5F5E2E2EFF5F5F5F5F5F5F5F5F5F5F5F5F5F5F5F5F5F5
310
F5F5E2F5F5F5F5F5F5F5F5F5F5F5F5F5F5F5F5F5F5F5F5F5F5F5F5F5F5F5F5F5F5F5F5F5F5F5F5F5F5F5F5F5F5F5F5F5F5F5F5F5F5F5F5F5F5F5F5F5F5F5F5F5F5F5F5F5F5F5F5F5F5F5F5F5F5F5F5F5F5F5F5F5F5F5F5F5F5F5F5F5F5F5F5F5F5F5F5F5F5F5F5F5F5F5F5F5F5F5F5F5F5F5F5F5F5F5F5F5F5F5F5F5F5F5F5
310
F5F5F5F5F5F5F5F5F5F5F5E2F5F5F5F5F5F5F5F5F5F5F5F5F5F5F5F5F5F5F5F5E2E2EFF5F5F5F5F5F5F5F5F5F5F5F5F5F5F5F5F5F5F5F5E2F5F5F5F5F5F5F5F5F5F5F5F5F5F5F5F5F5F5F5F5F5F5F5F5F5F5F5F5F5F5F5F5F5F5F5F5F5F5F5F5F5F5F5F5F5F5F5F5F5F5F5F5F5F5F5F5F5F5F5F5F5F5F5F5F5F5F5F5F5F5F5
310
F5F5F5F5F5F5F5F5F5F5F5F5F5F5F5F5F5F5F5F5F5F5F5F5F5F5F5F5F5F5F5F5F5F5F5F5F5F5F5F5F5F5F5F5F5F5F5F5F5F5F5F5F5F5F5F5F5F5F5F5F5F5F5F5E2F5F5F5F5F5F5F5F5F5F5F5F5F5F5F5F5F5F5F5F5E2E2EFF5F5F5F5F5F5F5F5F5F5F5F5F5F5F5F5F5F5F5F5E2F5F5F5F5F5F5F5F5F5F5F5F5F5F5F5F5F5F5
310
F5F5F5F5F5F5F5F5F5F5F5F5F5F5F5F5F5F5F5F5F5F5F5F5F5F5F5F5F5F5F5F5F5F5F5F5F5F5F5F5F5F5F5F5F5F5F5F5F5F5F5F5F5F5F5F5F5F5F5F5F5F5F5F5F5F5F5F5F5F5F5F5F5F5F5F5F5F5F5F5F5F5F5F5F5F5F5F5F5F5F5F5F5F5F5F5F5F5F5F5F5F5F5F5F5F5F5F5F5F5F5F5F5F5F5F5F5E2F5F5F5F5F5F5F5F5F5
310
F5F5F5F5F5F5F5F5F5F5F5E2E2EFF5F5F5E2F5F5F5F5F5F5F5F5F5F5F5F5F5F5F5F5E2F5F5F5F5F5F5F5F5F5F5F5F5F5F5F5F5F5F5F5F5F5F5F5F5F5F5F5F5F5F5F5F5F5F5F5F5F5F5F5F5F5F5F5F5F5F5F5F5F5F5F5F5F5F5F5F5F5F5F5F5F5F5F5F5F5F5F5F5F5F5F5F5F5F5F5F5F5F5F5F5F5F5F5F5F5F5F5F5F5F5F5F5
310
F5F5F5F5F5F5F5F5F5F5F5F5F5F5F5F5F5F5F5F5F5F5F5F5F5F5F5F5F5F5F5F5F5F5F5F5F5F5F5F5F5F5F5E2F5F5F5F5F5F5F5F5F5F5F5F5F5F5F5F5E2F5F5F5E2E2EFF5F5F5E2F5F5F5F5F5F5F5F5F5F5F5F5F5F5F5F5E2F5F5F5F5F5F5F5F5F5F5F5F5F5F5F5F5F5F5F5F5F5F5F5F5F5F5F5F5F5F5F5F5F5F5F5F5F5F5F5
310
F5F5F5F5F5F5F5F5F5F5F5F5F5F5F5F5F5F5F5F5F5F5F5F5F5F5F5F5F5F5F5F5F5F5F5F5F5F5F5F5F5F5F5F5F5F5F5F5F5F5F5F5F5F5F5F5F5F5F5F5F5F5F5F5F5F5F5F5F5F5F5F5F5F5F5F5F5F5F5F5F5F5F5F5F5F5F5F5F5F5F5F5F5F5F5F5E2F5F5F5F5F5F5F5F5F5F5F5F5F5F5F5F5E2F5F5F5E2E2EFF5F5F5E2F5F5F5
310
F5F5F5F5F5F5F5F5F5F5F5F5F5E2F5F5F5F5F5F5F5F5F5F5F5F5F5F5F5F5F5F5F5F5F5F5F5F5F5F5F5F5F5F5F5F5F5F5F5F5F5F5F5F5F5F5F5F5F5F5F5F5F5F5F5F5F5F5F5F5F5F5F5F5F5F5F5F5F5F5F5F5F5F5F5F5F5F5F5F5F5F5F5F5F5F5F5F5F5F5F5F5F5F5F5F5F5F5F5F5F5F5F5F5F5F5F5F5F5F5F5F5F5F5F5F5F5
310
F5F5F5F5F5F5F5F5F5F5F5F5F5F5F5F5F5F5F5F5F5F5E2F5F5F5F5F5F5F5F5F5F5F5F5F5F5F5F5E2F5F5F5E2E2EFF5F5F5E2F5F5F5F5F5F5F5F5F5F5F5F5F5F5F5F5E2F5F5F5F5F5F5F5F5F5F5F5F5F5F5F5F5F5F5F5F5F5F5F5F5F5F5F5F5F5F5F5F5F5F5F5F5F5F5F5F5F5F5F5F5F5F5F5F5F5F5F5F5F5F5F5F5F5F5F5F5
310
F5F5F5F5F5F5F5F5F5F5F5F5F5F5F5F5F5F5F5F5F5F5F5F5F5F5F5F5F5F5F5F5F5F5F5F5F5F5F5F5F5F5F5F5F5F5F5F5F5F5F5F5F5F5F5F5F5F5F5F5F5F5F5F5F5F5F5F5F5F5F5F5F5F5F5E2F5F5F5F5F5F5F5F5F5F5F5F5F5F5F5F5E2F5F5F5E2E2EFF5F5F5E2F5F5F5F5F5F5F5F5F5F5F5F5F5F5F5F5E2F5F5F5F5F5F5F5
310
F5F5F5F5F5F5F5F5F5F5F5F5F5F5F5F5F5F5F5F5F5F5F5F5F5F5F5F5F5F5F5F5F5F5F5F5F5F5F5F5F5F5F5F5F5F5F5F5F5F5F5F5F5F5F5F5F5F5F5F5F5F5F5F5F5F5F5F5F5F5F5F5F5F5F5F5F5F5F5F5F5F5F5F5F5F5F5F5F5F5F5F5F5F5F5F5F5F5F5F5F5F5F5F5F5F5F5F5F5F5F5F5F5F5F5F5F5F5F5F5F5F5F5F5F5F5F5
310
F5E2F5F5F5F5F5F5F5F5F5F5F5F5F5F5F5F5E2F5F5F5E2E2EFF5F5F5E2F5F5F5F5F5F5F5F5F5F5F5F5F5F5F5F5E2F5F5F5F5F5F5F5F5F5F5F5F5F5F5F5F5F5F5F5F5F5F5F5F5F5F5F5F5F5F5F5F5F5F5F5F5F5F5F5F5F5F5F5F5F5F5F5F5F5F5F5F5F5F5F5F5F5F5F5F5F5F5F5F5F5F5F5F5F5F5F5F5F5F5F5F5F5F5F5F5F5
310
F5F5F5F5F5F5F5F5F5F5F5F5F5F5F5F5F5F5F5F5F5F5F5F5F5F5F5F5F5F5F5F5F5F5F5F5F5F5F5F5F5F5F5F5F5F5F5F5F5F5F5F5F5F5E2F5F5F5F5F5F5F5F5F5F5F5F5F5F5F5F5E2F5F5F5E2E2EFF5F5F5E2F5F5F5F5F5F5F5F5F5F5F5F5F5F5F5F5E2F5F5F5F5F5F5F5F5F5F5F5F5F5F5F5F5F5F5F5F5F5F5F5F5F5F5F5F5
310
F5F5F5F5F5F5F5F5F5F5F5F5F5F5F5F5F5F5F5F5F5F5F5F5F5F5F5F5F5F5F5F5F5F5F5F5F5F5F5F5F5F5F5F5F5F5F5F5F5F5F5F5F5F5F5F5F5F5F5F5F5F5F5F5F5F5F5F5F5F5F5F5F5F5F5F5F5F5F5F5F5F5F5F5F5F5F5F5F5F5F5F5F5F5F5F5F5F5F5F5F5F5F5F5F5F5F5E2F5F5F5F5F5F5F5F5F5F5F5F5F5F5F5F5E2F5F5
310
F5E2E2EFF5F5F5E2F5F5F5F5F5F5F5F5F5F5F5F5F5F5F5F5E2F5F5F5F5F5F5F5F5F5F5F5F5F5F5F5F5F5F5F5F5F5F5F5F5F5F5F5F5F5F5F5F5F5F5F5F5F5F5F5F5F5F5F5F5F5F5F5F5F5F5F5F5F5F5F5F5F5F5F5F5F5F5F5F5F5F5F5F5F5F5F5F5F5F5F5F5F5F5F5F5F5F5F5F5F5F5F5F5F5F5F5F5F5F5F5F5F5F5F5F5F5F5
310
F5F5F5F5F5F5F5F5F5F5F5F5F5F5F5F5F5F5F5F5F5F5F5F5F5F5F5F5F5F5F5F5F5E2F5F5F5F5F5F5F5F5F5F5F5F5F5F5F5F5E2F5F5F5E2E2EFF5F5F5E2F5F5F5F5F5F5F5F5F5F5F5F5F5F5F5F5E2F5F5F5F5F5F5F5F5F5F5F5F5F5F5F5F5F5F5F5F5F5F5F5F5F5F5F5F5F5F5F5F5F5F5F5F5F5F5F5F5F5F5F5F5F5F5F5F5F5
310
F5F5F5F5F5F5F5F5F5F5F5F5F5F5F5F5F5F5F5F5F5F5F5F5F5F5F5F5F5F5F5F5F5F5F5F5F5F5F5F5F5F5F5F5F5F5F5F5F5F5F5F5F5F5F5F5F5F5F5F5F5F5F5F5F5F5F5F5F5F5F5F5F5F5F5F5F5F5F5F5F5F5F5F5F5F5E2F5F5F5F5F5F5F5F5F5F5F5F5F5F5F5F5E2F5F5F5E2E2EFF5F5F5E2F5F5F5F5F5F5F5F5F5F5F5F5F5
310
F5F5F5E2F5F5F5F5F5F5F5F5F5F5F5F5F5F5F5F5F5F5F5F5F5F5F5F5F5F5F5F5F5F5F5F5F5F5F5F5F5F5F5F5F5F5F5F5F5F5F5F5F5F5F5F5F5F5F5F5F5F5F5F5F5F5F5F5F5F5F5F5F5F5F5F5F5F5F5F5F5F5F5F5F5F5F5F5F5F5F5F5F5F5F5F5F5F5F5F5F5F5F5F5F5F5F5F5F5F5F5F5F5F5F5F5F5F5F5F5F5F5F5F5F5F5F5
310
F5F5F5F5F5F5F5F5F5F5F5F5E2F5F5F5F5F5F5F5F5F5F5F5F5F5F5F5F5E2F5F5F5E2E2EFF5F5F5E2F5F5F5F5F5F5F5F5F5F5F5F5F5F5F5F5E2F5F5F5F5F5F5F5F5F5F5F5F5F5F5F5F5F5F5F5F5F5F5F5F5F5F5F5F5F5F5F5F5F5F5F5F5F5F5F5F5F5F5F5F5F5F5F5F5F5F5F5F5F5F5F5F5F5F5F5F5F5F5F5F5F5F5F5F5F5F5
310
F5F5F5F5F5F5F5F5F5F5F5F5F5F5F5F5F5F5F5F5F5F5F5F5F5F5F5F5F5F5F5F5F5F5F5F5F5F5F5F5F5F5F5F5F5F5F5F5F5F5F5F5F5F5F5F5F5F5F5F5F5F5F5F5F5E2F5F5F5F5F5F5F5F5F5F5F5F5F5F5F5F5E2F5F5F5E2E2EFF5F5F5E2F5F5F5F5F5F5F5F5F5F5F5F5F5F5F5F5E2F5F5F5F5F5F5F5F5F5F5F5F5F5F5F5F5F5
310
F5F5F5F5F5F5F5F5F5F5F5F5F5F5F5F5F5F5F5F5F5F5F5F5F5F5F5F5F5F5F5F5F5F5F5F5F5F5F5F5F5F5F5F5F5F5F5F5F5F5F5F5F5F5F5F5F5F5F5F5F5F5F5F5F5F5F5F5F5F5F5F5F5F5F5F5F5F5F5F5F5F5F5F5F5F5F5F5F5F5F5F5F5F5F5F5F5F5F5F5F5F5F5F5F5F5F5F5F5F5F5F5F5F5F5F5F5F5E2F5F5F5F5F5F5F5F5
310
F5F5F5F5F5F5F5F5E2F5F5F5E2E2EFF5F5F5E2F5F5F5F5F5F5F5F5F5F5F5F5F5F5F5F5E2F5F5F5F5F5F5F5F5F5F5F5F5F5F5F5F5F5F5F5F5F5F5F5F5F5F5F5F5F5F5F5F5F5F5F5F5F5F5F5F5F5F5F5F5F5F5F5F5F5F5F5F5F5F5F5F5F5F5F5F5F5F5F5F5F5F5F5F5F5F5F5F5F5F5F5F5F5F5F5F5F5F5F5F5F5F5F5F5F5F5F5
310
F5F5F5F5F5F5F5F5F5F5F5F5F5F5F5F5F5F5F5F5F5F5F5F5F5F5F5F5F5F5F5F5F5F5F5F5F5F5F5F5F5F5F5F5E2F5F5F5F5F5F5F5F5F5F5F5F5F5F5F5F5E2F5F5F5E2E2EFF5F5F5E2F5F5F5F5F5F5F5F5F5F5F5F5F5F5F5F5E2F5F5F5F5F5F5F5F5F5F5F5F5F5F5F5F5F5F5F5F5F5F5F5F5F5F5F5F5F5F5F5F5F5F5F5F5F5F5
310
F5F5F5F5F5F5F5F5F5F5F5F5F5F5F5F5F5F5F5F5F5F5F5F5F5F5F5F5F5F5F5F5F5F5F5F5F5F5F5F5F5F5F5F5F5F5F5F5F5F5F5F5F5F5F5F5F5F5F5F5F5F5F5F5F5F5F5F5F5F5F5F5F5F5F5F5F5F5F5F5F5F5F5F5F5F5F5F5F5F5F5F5F5F5F5F5F5E2F5F5F5F5F5F5F5F5F5F5F5F5F5F5F5F5E2F5F5F5E2E2EFF5F5F5E2F5F5
310
F5F5F5F5F5F5F5F5F5F5F5F5F5F5E2F5F5F5F5F5F5F5F5F5F5F5F5F5F5F5F5F5F5F5F5F5F5F5F5F5F5F5F5F5F5F5F5F5F5F5F5F5F5F5F5F5F5F5F5F5F5F5F5F5F5F5F5F5F5F5F5F5F5F5F5F5F5F5F5F5F5F5F5F5F5F5F5F5F5F5F5F5F5F5F5F5F5F5F5F5F5F5F5F5F5F5F5F5F5F5F5F5F5F5F5F5F5F5F5F5F5F5F5F5F5F5F5
310
F5F5F5F5F5F5F5F5F5F5F5F5F5F5F5F5F5F5F5F5F5F5F5E2F5F5F5F5F5F5F5F5F5F5F5F5F5F5F5F5E2F5F5F5E2E2EFF5F5F5E2F5F5F5F5F5F5F5F5F5F5F5F5F5F5F5F5E2F5F5F5F5F5F5F5F5F5F5F5F5F5F5F5F5F5F5F5F5F5F5F5F5F5F5F5F5F5F5F5F5F5F5F5F5F5F5F5F5F5F5F5F5F5F5F5F5F5F5F5F5F5F5F5F5F5F5F5
310
F5F5F5F5F5F5F5F5F5F5F5F5F5F5F5F5F5F5F5F5F5F5F5F5F5F5F5F5F5F5F5F5F5F5F5F5F5F5F5F5F5F5F5F5F5F5F5F5F5F5F5F5F5F5F5F5F5F5F5F5F5F5F5F5F5F5F5F5F5F5F5F5F5F5F5F5E2F5F5F5F5F5F5F5F5F5F5F5F5F5F5F5F5E2F5F5F5E2E2EFF5F5F5E2F5F5F5F5F5F5F5F5F5F5F5F5F5F5F5F5E2F5F5F5F5F5F5
310
F5F5F5F5F5F5F5F5F5F5F5F5F5F5F5F5F5F5F5F5F5F5F5F5F5F5F5F5F5F5F5F5F5F5F5F5F5F5F5F5F5F5F5F5F5F5F5F5F5F5F5F5F5F5F5F5F5F5F5F5F5F5F5F5F5F5F5F5F5F5F5F5F5F5F5F5F5F5F5F5F5F5F5F5F5F5F5F5F5F5F5F5F5F5F5F5F5F5F5F5F5F5F5F5F5F5F5F5F5F5F5F5F5F5F5F5F5F5F5F5F5F5F5F5F5F5F5
310
F5F5E2F5F5F5F5F5F5F5F5F5F5F5F5F5F5F5F5E2F5F5F5E2E2EFF5F5F5F5F5F5F5F5F5F5F5F5F5F5F5F5F5F5F5F5E2F5F5F5F5F5F5F5F5F5F5F5F5F5F5F5F5F5F5F5F5F5F5F5F5F5F5F5F5F5F5F5F5F5F5F5F5F5F5F5F5F5F5F5F5F5F5F5F5F5F5F5F5F5F5F5F5F5F5F5F5F5F5F5F5F5F5F5F5F5F5F5F5F5F5F5F5F5F5F5F5
310
F5F5F5F5F5F5F5F5F5F5F5F5F5F5F5F5F5F5F5F5F5F5F5F5F5F5F5F5F5F5F5F5F5F5F5F5F5F5F5F5F5F5F5F5F5F5F5F5F5F5F5F5F5F5F5E2F5F5F5F5F5F5F5F5F5F5F5F5F5F5F5F5F5F5F5F5E2E2EFF5F5F5F5F5F5F5F5F5F5F5F5F5F5F5F5F5F5F5F5E2F5F5F5F5F5F5F5F5F5F5F5F5F5F5F5F5F5F5F5F5F5F5F5F5F5F5F5
310
F5F5F5F5F5F5F5F5F5F5F5F5F5F5F5F5F5F5F5F5F5F5F5F5F5F5F5F5F5F5F5F5F5F5F5F5F5F5F5F5F5F5F5F5F5F5F5F5F5F5F5F5F5F5F5F5F5F5F5F5F5F5F5F5F5F5F5F5F5F5F5F5F5F5F5F5F5F5F5F5F5F5F5F5F5F5F5F5F5F5F5F5F5F5F5F5F5F5F5F5F5F5F5F5F5F5F5F5E2F5F5F5F5F5F5F5F5F5F5F5F5F5F5F5F5F5F5
310
F5F5E2E2EFF5F5F5F5F5F5F5F5F5F5F5F5F5F5F5F5F5F5F5F5E2F5F5F5F5F5F5F5F5F5F5F5F5F5F5F5F5F5F5F5F5F5F5F5F5F5F5F5F5F5F5F5F5F5F5F5F5F5F5F5F5F5F5F5F5F5F5F5F5F5F5F5F5F5F5F5F5F5F5F5F5F5F5F5F5F5F5F5F5F5F5F5F5F5F5F5F5F5F5F5F5F5F5F5F5F5F5F5F5F5F5F5F5F5F5F5F5F5F5F5F5F5
310
F5F5F5F5F5F5F5F5F5F5F5F5F5F5F5F5F5F5F5F5F5F5F5F5F5F5F5F5F5F5F5F5F5F5E2F5F5F5F5F5F5F5F5F5F5F5F5F5F5F5F5F5F5F5F5E2E2EFF5F5F5F5F5F5F5F5F5F5F5F5F5F5F5F5F5F5F5F5E2F5F5F5F5F5F5F5F5F5F5F5F5F5F5F5F5F5F5F5F5F5F5F5F5F5F5F5F5F5F5F5F5F5F5F5F5F5F5F5F5F5F5F5F5F5F5F5F5
310
F5F5F5F5F5F5F5F5F5F5F5F5F5F5F5F5F5F5F5F5F5F5F5F5F5F5F5F5F5F5F5F5F5F5F5F5F5F5F5F5F5F5F5F5F5F5F5F5F5F5F5F5F5F5F5F5F5F5F5F5F5F5F5F5F5F5F5F5F5F5F5F5F5F5F5F5F5F5F5F5F5F5F5F5F5F5F5E2F5F5F5F5F5F5F5F5F5F5F5F5F5F5F5F5F5F5F5F5E2E2EFF5F5F5F5F5F5F5F5F5F5F5F5F5F5F5F5
310
F5F5F5F5E2E2E2E2E2E2E2E2E2E2E2E2E2E2E2E2E2E2E2E2E2E2E2E2E2E2E2E2E2E2E2E2E2E2E2E2E2E2E2E2E2E2E2E2E2E2E2E2E2E2E2E2E2E2E2E2E2E2E2E2E2E2E2E2E2E2E2E2E2E2E2E2E2E2E2E2E2E2E2E2E2E2E2E2E2E2E2E2E2E2E2E2E2E2E2E2E2E2E2E2E2E2E2E2E2E2E2E2E2E2E2E2E2E2E2E2E2E2E2E2E2E2E2
310
E2E2E2E2E2E2E2E2E2E2E2E2E2E2F5F5F5F5F5F5F5F5F5F5F5F5F5F5F5F5F5F5F5F5E2E2EFF5F5F5F5F5F5F5F5F5F5F5F5F5F5F5F5F5F5F5F5F5F5F5F5F5F5F5F5F5F5F5F5F5F5F5F5F5F5F5F5F5F5F5F5F5F5F5F5F5F5F5F5F5F5F5F5F5F5F5F5F5F5F5F5F5F5F5F5F5F5F5F5F5F5F5F5F5F5F5F5F5F5F5F5F5F5F5F5F5F5
310
F5F5F5F5F5F5F5F5F5F5F5F5F5F5F5F5F5F5F5F5F5F5F5F5F5F5F5F5F5F5F5F5F5F5F5F5F5F5F5F5F5F5F5F5F5F5F5F5F5F5F5F5F5F5F5F5F5F5F5F5F5F5F5F5F5F5F5F5F5F5F5F5F5F5F5F5F5F5F5F5F5F5F5F5F5F5F5E2E2EFF5F5F5F5F5F5F5F5F5F5F5F5F5F5F5F5F5F5F5F5F5F5F5F5F5F5F5F5F5F5F5F5F5F5F5F5F5
310
F5F5F5F5F5F5F5F5F5F5F5F5F5F5F5F5F5F5F5F5F5F5F5F5F5F5F5F5F5F5F5F5F5F5F5F5F5F5F5F5F5F5F5F5F5F5F5F5F5F5F5F5F5F5F5F5F5F5F5F5F5F5F5F5F5F5F5F5F5F5F5F5F5F5F5F5F5F5F5F5F5F5F5F5F5F5F5F5F5F5F5F5F5F5F5F5F5F5F5F5F5F5F5F5F5F5F5F5F5F5F5F5F5F5F5F5F5F5F5F5F5F5F5F5F5F5F5
310
F5F5F5F5F5F5F5F5F5F5F5F5F5E2E2EFF5F5F5F5F5F5F5F5F5F5F5F5F5F5F5F5F5F5F5F5F5F5F5F5F5F5F5F5F5F5F5F5F5F5F5F5F5F5F5F5F5F5F5F5F5F5F5F5F5F5F5F5F5F5F5F5F5F5F5F5F5F5F5F5F5F5F5F5F5F5F5F5F5F5F5F5F5F5F5F5F5F5F5F5F5F5F5F5F5F5F5F5F5F5F5F5F5F5F5F5F5F5F5F5F5F5F5F5F5F5F5
310
F5F5F5F5F5F5F5F5F5F5F5F5F5F5F5F5F5F5F5F5F5F5F5F5F5F5F5F5F5F5F5F5F5F5F5F5F5F5F5F5F5F5F5F5F5F5F5F5F5F5F5F5F5F5F5F5F5F5F5F5F5F5F5F5F5F5E2E2EFF5F5F5F5F5F5F5F5F5F5F5F5F5F5F5F5F5F5F5F5F5F5F5F5F5F5F5F5F5F5F5F5F5F5F5F5F5F5F5F5F5F5F5F5F5F5F5F5F5F5F5F5F5F5F5F5F5F5
310
F5F5F5F5F5F5F5F5F5F5F5F5F5F5F5F5F5F5F5F5F5F5F5F5F5F5F5F5F5F5F5F5F5F5F5F5F5F5F5F5F5F5F5F5F5F5F5F5F5F5F5F5F5F5F5F5F5F5F5F5F5F5F5F5F5F5F5F5F5F5F5F5F5F5F5F5F5F5F5F5F5F5F5F5F5F5F5F5F5F5F5F5F5F5F5F5F5F5F5F5F5F5F5F5F5F5F5F5F5F5F5F5F5F5F5F5F5F5F5E2E2EFF5F5F5E2F5
310
F5F5F5F5F5F5F5F5F5F5F5F5F5F5F5F5F5F5F5F5F5F5F5F5F5F5F5F5F5F5F5F5F5F5F5F5F5F5F5F5F5F5F5F5F5F5F5F5F5F5F5F5F5F5F5F5F5F5F5F5F5F5F5F5F5F5F5F5F5F5F5F5F5F5F5F5F5F5F5F5F5F5F5F5F5F5F5F5F5F5F5F5F5F5F5F5F5F5F5F5F5F5F5F5F5F5F5F5F5F5F5F5F5F5F5F5F5F5F5F5F5F5F5F5F5F5F5
310
F5F5F5F5F5F5F5F5F5F5F5F5F5F5F5F5F5F5F5F5F5F5F5F5F5F5F5F5F5F5F5F5F5F5F5F5F5F5F5F5F5E2F5F5F5E2E2EFF5F5F5E2F5F5F5F5F5F5F5F5F5F5F5F5F5F5F5F5F5F5F5F5F5F5F5F5F5F5F5F5F5F5F5F5F5F5F5F5F5F5F5F5F5F5F5F5F5F5F5F5F5F5F5F5F5F5F5F5F5F5F5F5F5F5F5F5F5F5F5F5F5F5F5F5F5F5F5
310
F5F5F5F5F5F5F5F5F5F5F5F5F5F5F5F5F5F5F5F5F5F5F5F5F5F5F5F5F5F5F5F5F5F5F5F5F5F5F5F5F5F5F5F5F5F5F5F5F5F5F5F5F5F5F5F5F5F5F5F5F5F5F5F5F5F5F5F5F5F5F5F5F5F5F5F5F5F5F5F5F5F5F5F5F5F5F5F5F5F5F5F5F5F5E2F5F5F5E2E2EFF5F5F5E2F5F5F5F5F5F5F5F5F5F5F5F5F5F5F5F5F5F5F5F5F5F5
310
F5F5F5F5F5F5F5F5F5F5F5F5F5F5F5F5F5F5F5F5F5F5F5F5F5F5F5F5F5F5F5F5F5F5F5F5F5F5F5F5F5F5F5F5F5F5F5F5F5F5F5F5F5F5F5F5F5F5F5F5F5F5F5F5F5F5F5F5F5F5F5F5F5F5F5F5F5F5F5F5F5F5F5F5F5F5F5F5F5F5F5F5F5F5F5F5F5F5F5F5F5F5F5F5F5F5F5F5F5F5F5F5F5F5F5F5F5F5F5F5F5F5F5F5F5F5F5
310
F5F5F5F5F5F5F5F5F5F5F5F5F5F5F5F5F5F5F5F5E2F5F5F5E2E2EFF5F5F5E2F5F5F5F5F5F5F5F5F5F5F5F5F5F5F5F5F5F5F5F5F5F5F5F5F5F5F5F5F5F5F5F5F5F5F5F5F5F5F5F5F5F5F5F5F5F5F5F5F5F5F5F5F5F5F5F5F5F5F5F5F5F5F5F5F5F5F5F5F5F5F5F5F5F5F5F5F5F5F5F5F5F5F5F5F5F5F5F5F5F5F5F5F5F5F5F5
310
F5F5F5F5F5F5F5F5F5F5F5F5F5F5F5F5F5F5F5F5F5F5F5F5F5F5F5F5F5F5F5F5F5F5F5F5F5F5F5F5F5F5F5F5F5F5F5F5F5F5F5F5F5F5F5F5F5F5F5F5F5F5F5F5F5F5F5F5F5F5F5F5F5E2F5F5F5E2E2EFF5F5F5E2F5F5F5F5F5F5F5F5F5F5F5F5F5F5F5F5F5F5F5F5F5F5F5F5F5F5F5F5F5F5F5F5F5F5F5F5F5F5F5F5F5F5F5
310
F5F5F5F5F5F5F5F5F5F5F5F5F5F5F5F5F5F5F5F5F5F5F5F5F5F5F5F5F5F5F5F5F5F5F5F5F5F5F5F5F5F5F5F5F5F5F5F5F5F5F5F5F5F5F5F5F5F5F5F5F5F5F5F5F5F5F5F5F5F5F5F5F5F5F5F5F5F5F5F5F5F5F5F5F5F5F5F5F5F5F5F5F5F5F5F5F5F5F5F5F5F5F5F5F5F5F5F5F5F5F5F5F5F5F5F5F5F5F5F5F5F5F5F5F5F5E2
310
F5F5F5E2E2EFF5F5F5E2F5F5F5F5F5F5F5F5F5F5F5F5F5F5F5F5F5F5F5F5F5F5F5F5F5F5F5F5F5F5F5F5F5F5F5F5F5F5F5F5F5F5F5F5F5F5F5F5F5F5F5F5F5F5F5F5F5F5F5F5F5F5F5F5F5F5F5F5F5F5F5F5F5F5F5F5F5F5F5F5F5F5F5F5F5F5F5F5F5F5F5F5F5F5F5F5F5F5F5F5F5F5F5F5F5F5F5F5F5F5F5F5F5F5F5F5F5
310
F5F5F5F5F5F5F5F5F5F5F5F5F5F5F5F5F5F5F5F5F5F5F5F5F5F5F5F5F5F5F5F5F5F5F5F5F5F5F5F5F5F5F5F5F5F5F5F5F5F5F5F5E2F5F5F5E2E2EFF5F5F5E2F5F5F5F5F5F5F5F5F5F5F5F5F5F5F5F5F5F5F5F5F5F5F5F5F5F5F5F5F5F5F5F5F5F5F5F5F5F5F5F5F5F5F5F5F5F5F5F5F5F5F5F5F5F5F5F5F5F5F5F5F5F5F5F5
310
F5F5F5F5F5F5F5F5F5F5F5F5F5F5F5F5F5F5F5F5F5F5F5F5F5F5F5F5F5F5F5F5F5F5F5F5F5F5F5F5F5F5F5F5F5F5F5F5F5F5F5F5F5F5F5F5F5F5F5F5F5F5F5F5F5F5F5F5F5F5F5F5F5F5F5F5F5F5F5F5F5F5F5F5F5F5F5F5F5F5F5F5F5F5F5F5F5F5F5F5F5F5F5F5F5E2F5F5F5E2E2EFF5F5F5E2F5F5F5F5F5F5F5F5F5F5F5
310
F5F5F5F5F5F5F5F5F5F5F5F5F5F5F5F5F5F5F5F5F5F5F5F5F5F5F5F5F5F5F5F5F5F5F5F5F5F5F5F5F5F5F5F5F5F5F5F5F5F5F5F5F5F5F5F5F5F5F5F5F5F5F5F5F5F5F5F5F5F5F5F5F5F5F5F5F5F5F5F5F5F5F5F5F5F5F5F5F5F5F5F5F5F5F5F5F5F5F5F5F5F5F5F5F5F5F5F5F5F5F5F5F5F5F5F5F5F5F5F5F5F5F5F5F5F5F5
310
F5F5F5F5F5F5F5F5F5F5F5F5F5F5F5F5F5F5F5F5F5F5F5F5F5F5F5F5F5F5F5E2F5F5F5E2E2EFF5F5F5E2E2E2E2E2E2E2E2F5F5F5F5F5F5F5F5F5E2E2E2E2E2E2E2E2E2E2E2E2E2E2E2E2F5F5F5F5F5F5F5F5E2E2E2E2E2E2E2E2E2E2E2E2E2E2E2E2F5F5F5F5F5F5F5F5F5E2E2E2E2E2E2E2E2E2E2E2E2E2E2E2F5F5F5F5F5
310
F5F5F5F5E2E2E2E2E2E2E2E2E2E2E2E2E2E2E2F5F5F5F5F5F5F5F5F5E2E2E2E2E2E2E2E2E2E2E2E2E2E2E2E2F5F5F5F5F5F5F5F5E2E2E2E2E2E2E2E2E2E2E2E2E2E2E2E2F5F5F5F5F5F5F5F5F5E2E2E2E2E2E2E2E2F5F5F5E2E2EFF5F5F5F5F5F5F5F5F5F5F5F5F5F5F5F5F5F5F5F5F5F5F5F5F5F5F5F5F5F5F5F5F5F5F5F5
310
F5F5F5F5F5F5F5F5F5F5F5F5F5F5F5F5F5F5F5F5F5F5F5F5F5F5F5F5F5F5F5F5F5F5F5F5F5F5F5F5F5F5F5F5F5F5F5F5F5F5F5F5F5F5F5F5F5F5F5F5F5F5F5F5F5F5F5F5F5F5F5F5F5F5F5F5F5F5F5F5F5F5F5F5F5F5F5F5F5F5F5F5F5F5F5F5F5F5F5F5F5F5F5F5F5F5F5F5F5F5F5F5F5F5F5F5F5F5F5F5F5F5F5F5F5F5F5
310
F5F5F5F5F5F5F5F5F5F5F5F5F5F5E2E2EFF5F5F5F5F5F5F5F5F5F5F5F5F5F5F5F5F5F5F5F5F5F5F5F5F5F5F5F5F5F5F5F5F5F5F5F5F5F5F5F5F5F5F5F5F5F5F5F5F5F5F5F5F5F5F5F5F5F5F5F5F5F5F5F5F5F5F5F5F5F5F5F5F5F5F5F5F5F5F5F5F5F5F5F5F5F5F5F5F5F5F5F5F5F5F5F5F5F5F5F5F5F5F5F5F5F5F5F5F5F5
310
F5F5F5F5F5F5F5F5F5F5F5F5F5F5F5F5F5F5F5F5F5F5F5F5F5F5F5F5F5F5F5F5F5F5F5F5F5F5F5F5F5F5F5F5F5F5F5F5F5F5F5F5F5F5F5F5F5F5F5F5F5F5F5F5F5F5F5E2EFEFF5F5F5F5F5F5F5F5F5F5F5F5F5F5F5F5F5F5F5F5F5F5F5F5F5F5F5F5F5F5F5F5F5F5F5F5F5F5F5F5F5F5F5F5F5F5F5F5F5F5F5F5F5F5F5F5F5
310
F5F5F5F5F5F5F5F5F5F5F5F5F5F5F5F5F5F5F5F5F5F5F5F5F5F5F5F5F5F5F5F5F5F5F5F5F5F5F5F5F5F5F5F5F5F5F5F5F5F5F5F5F5F5F5F5F5F5F5F5F5F5F5F5F5F5F5F5F5F5F5F5F5F5F5F5F5F5F5F5F5F5F5F5F5F5F5F5F5F5F5F5F5F5F5F5F5F5F5F5F5F5F5F5F5F5F5F5F5F5F5F5F5F5F5F5F5F5F5F5E2EFEFE2E2E2E2
310
E2E2E2E2E2E2E2E2E2E2E2E2E2E2E2E2E2E2E2E2E2E2E2E2E2E2E2E2E2E2E2E2E2E2E2E2E2E2E2E2E2E2E2E2E2E2E2E2E2E2E2E2E2E2E2E2E2E2E2E2E2E2E2E2E2E2E2E2E2E2E2E2E2E2E2E2E2E2E2E2E2E2E2E2E2E2E2E2E2E2E2E2E2E2E2E2E2E2E2E2E2E2E2E2E2E2E2E2E2E2E2E2E2E2E2E2E2E2E2E2E2E2E2E2E2E2E2
310
E2E2E2E2E2E2E2E2E2E2E2E2E2E2E2E2E2E2E2E2E2E2E2E2E2E2E2E2E2E2E2E2E2E2E2E2E2E2E2E2E2E2E2E2E2E2E2EFEF
  0
ENDSEC
  0
EOF
