  0
SECTION
  2
HEADER
  9
$ACADVER
  1
AC1018
  9
$ACADMAINTVER
 70
     0
  9
$DWGCODEPAGE
  3
ANSI_1252
  9
$AUTHOR
  1
g6edxjah
  9
$LASTSAVEDBY
  1
g6edxjah
  9
$INSBASE
 10
0.0
 20
0.0
 30
0.0
  9
$EXTMIN
 10
0.043458
 20
-13.081542
 30
0.0
  9
$EXTMAX
 10
8.456542
 20
-1.918458
 30
0.0
  9
$LIMMIN
 10
-23.706709
 20
-35.456709
  9
$LIMMAX
 10
32.206709
 20
20.456709
  9
$ORTHOMODE
 70
     0
  9
$REGENMODE
 70
     1
  9
$FILLMODE
 70
     1
  9
$QTEXTMODE
 70
     0
  9
$MIRRTEXT
 70
     0
  9
$LTSCALE
 40
1.0
  9
$ATTMODE
 70
     1
  9
$TEXTSIZE
 40
0.140396
  9
$TRACEWID
 40
0.05
  9
$TEXTSTYLE
  7
Standard
  9
$CLAYER
  8
TITLE
  9
$CELTYPE
  6
Continuous
  9
$CECOLOR
 62
     6
  9
$CELTSCALE
 40
1.0
  9
$DISPSILH
 70
     0
  9
$DIMSCALE
 40
1.0
  9
$DIMASZ
 40
0.140396
  9
$DIMEXO
 40
0.070198
  9
$DIMDLI
 40
0.0
  9
$DIMRND
 40
0.0
  9
$DIMDLE
 40
0.0
  9
$DIMEXE
 40
0.070198
  9
$DIMTP
 40
0.0
  9
$DIMTM
 40
0.0
  9
$DIMTXT
 40
0.140396
  9
$DIMCEN
 40
0.09
  9
$DIMTSZ
 40
0.0
  9
$DIMTOL
 70
     0
  9
$DIMLIM
 70
     0
  9
$DIMTIH
 70
     0
  9
$DIMTOH
 70
     0
  9
$DIMSE1
 70
     0
  9
$DIMSE2
 70
     0
  9
$DIMTAD
 70
     1
  9
$DIMZIN
 70
    11
  9
$DIMBLK
  1
TerminatorOpen_0.5
  9
$DIMASO
 70
     1
  9
$DIMSHO
 70
     1
  9
$DIMPOST
  1

  9
$DIMAPOST
  1

  9
$DIMALT
 70
     0
  9
$DIMALTD
 70
     4
  9
$DIMALTF
 40
25.4
  9
$DIMLFAC
 40
1.0
  9
$DIMTOFL
 70
     0
  9
$DIMTVP
 40
0.0
  9
$DIMTIX
 70
     0
  9
$DIMSOXD
 70
     0
  9
$DIMSAH
 70
     0
  9
$DIMBLK1
  1

  9
$DIMBLK2
  1

  9
$DIMSTYLE
  2
Standard
  9
$DIMCLRD
 70
     0
  9
$DIMCLRE
 70
     0
  9
$DIMCLRT
 70
     0
  9
$DIMTFAC
 40
1.0
  9
$DIMGAP
 40
0.070198
  9
$DIMJUST
 70
     0
  9
$DIMSD1
 70
     0
  9
$DIMSD2
 70
     0
  9
$DIMTOLJ
 70
     0
  9
$DIMTZIN
 70
    11
  9
$DIMALTZ
 70
    15
  9
$DIMALTTZ
 70
    15
  9
$DIMUPT
 70
     0
  9
$DIMDEC
 70
     4
  9
$DIMTDEC
 70
     4
  9
$DIMALTU
 70
     2
  9
$DIMALTTD
 70
     4
  9
$DIMTXSTY
  7
Style-FANCY
  9
$DIMAUNIT
 70
     0
  9
$DIMADEC
 70
     4
  9
$DIMALTRND
 40
0.0
  9
$DIMAZIN
 70
     3
  9
$DIMDSEP
 70
    46
  9
$DIMATFIT
 70
     1
  9
$DIMFRAC
 70
     0
  9
$DIMLDRBLK
  1
TerminatorOpen_0.5
  9
$DIMLUNIT
 70
     2
  9
$DIMLWD
 70
    -2
  9
$DIMLWE
 70
    -2
  9
$DIMTMOVE
 70
     0
  9
$LUNITS
 70
     2
  9
$LUPREC
 70
     4
  9
$SKETCHINC
 40
0.1
  9
$FILLETRAD
 40
0.0
  9
$AUNITS
 70
     0
  9
$AUPREC
 70
     4
  9
$MENU
  1
.
  9
$ELEVATION
 40
0.0
  9
$PELEVATION
 40
0.0
  9
$THICKNESS
 40
0.0
  9
$LIMCHECK
 70
     0
  9
$CHAMFERA
 40
0.0
  9
$CHAMFERB
 40
0.0
  9
$CHAMFERC
 40
0.0
  9
$CHAMFERD
 40
0.0
  9
$SKPOLY
 70
     0
  9
$TDCREATE
 40
2455372.557176227
  9
$TDUCREATE
 40
2455372.76550956
  9
$TDUPDATE
 40
2455372.557176227
  9
$TDUUPDATE
 40
2455372.76550956
  9
$TDINDWG
 40
0.0
  9
$TDUSRTIMER
 40
0.0006630093
  9
$USRTIMER
 70
     1
  9
$ANGBASE
 50
0.0
  9
$ANGDIR
 70
     0
  9
$PDMODE
 70
     0
  9
$PDSIZE
 40
0.0
  9
$PLINEWID
 40
0.0
  9
$SPLFRAME
 70
     0
  9
$SPLINETYPE
 70
     6
  9
$SPLINESEGS
 70
     8
  9
$HANDSEED
  5
51E
  9
$SURFTAB1
 70
     6
  9
$SURFTAB2
 70
     6
  9
$SURFTYPE
 70
     6
  9
$SURFU
 70
     6
  9
$SURFV
 70
     6
  9
$UCSBASE
  2

  9
$UCSNAME
  2

  9
$UCSORG
 10
0.0
 20
0.0
 30
0.0
  9
$UCSXDIR
 10
1.0
 20
0.0
 30
0.0
  9
$UCSYDIR
 10
0.0
 20
1.0
 30
0.0
  9
$UCSORTHOREF
  2

  9
$UCSORTHOVIEW
 70
     0
  9
$UCSORGTOP
 10
0.0
 20
0.0
 30
0.0
  9
$UCSORGBOTTOM
 10
0.0
 20
0.0
 30
0.0
  9
$UCSORGLEFT
 10
0.0
 20
0.0
 30
0.0
  9
$UCSORGRIGHT
 10
0.0
 20
0.0
 30
0.0
  9
$UCSORGFRONT
 10
0.0
 20
0.0
 30
0.0
  9
$UCSORGBACK
 10
0.0
 20
0.0
 30
0.0
  9
$PUCSBASE
  2

  9
$PUCSNAME
  2

  9
$PUCSORG
 10
0.0
 20
0.0
 30
0.0
  9
$PUCSXDIR
 10
1.0
 20
0.0
 30
0.0
  9
$PUCSYDIR
 10
0.0
 20
1.0
 30
0.0
  9
$PUCSORTHOREF
  2

  9
$PUCSORTHOVIEW
 70
     0
  9
$PUCSORGTOP
 10
0.0
 20
0.0
 30
0.0
  9
$PUCSORGBOTTOM
 10
0.0
 20
0.0
 30
0.0
  9
$PUCSORGLEFT
 10
0.0
 20
0.0
 30
0.0
  9
$PUCSORGRIGHT
 10
0.0
 20
0.0
 30
0.0
  9
$PUCSORGFRONT
 10
0.0
 20
0.0
 30
0.0
  9
$PUCSORGBACK
 10
0.0
 20
0.0
 30
0.0
  9
$USERI1
 70
     0
  9
$USERI2
 70
     0
  9
$USERI3
 70
     0
  9
$USERI4
 70
     0
  9
$USERI5
 70
     0
  9
$USERR1
 40
0.0
  9
$USERR2
 40
0.0
  9
$USERR3
 40
0.0
  9
$USERR4
 40
0.0
  9
$USERR5
 40
0.0
  9
$WORLDVIEW
 70
     1
  9
$SHADEDGE
 70
     3
  9
$SHADEDIF
 70
    70
  9
$TILEMODE
 70
     1
  9
$MAXACTVP
 70
    64
  9
$PINSBASE
 10
0.0
 20
0.0
 30
0.0
  9
$PLIMCHECK
 70
     0
  9
$PEXTMIN
 10
1.049744
 20
0.799667
 30
-0.001526
  9
$PEXTMAX
 10
9.450623
 20
7.200577
 30
0.0
  9
$PLIMMIN
 10
-0.25
 20
-0.25
  9
$PLIMMAX
 10
10.75
 20
8.25
  9
$UNITMODE
 70
     0
  9
$VISRETAIN
 70
     1
  9
$PLINEGEN
 70
     0
  9
$PSLTSCALE
 70
     0
  9
$TREEDEPTH
 70
  3020
  9
$CMLSTYLE
  2
Standard
  9
$CMLJUST
 70
     0
  9
$CMLSCALE
 40
1.0
  9
$PROXYGRAPHICS
 70
     1
  9
$MEASUREMENT
 70
     0
  9
$CELWEIGHT
370
    30
  9
$ENDCAPS
280
     0
  9
$JOINSTYLE
280
     0
  9
$LWDISPLAY
290
     1
  9
$INSUNITS
 70
     2
  9
$HYPERLINKBASE
  1

  9
$STYLESHEET
  1

  9
$XEDIT
290
     1
  9
$CEPSNTYPE
380
     0
  9
$PSTYLEMODE
290
     1
  9
$FINGERPRINTGUID
  2
{02C0BBB5-38A7-4FBF-829E-00875EC88963}
  9
$VERSIONGUID
  2
{82C521FC-BF81-46B3-825E-420B6BD93A99}
  9
$EXTNAMES
290
     1
  9
$PSVPSCALE
 40
0.0
  9
$OLESTARTUP
290
     0
  9
$SORTENTS
280
   127
  9
$INDEXCTL
280
     0
  9
$HIDETEXT
280
     1
  9
$XCLIPFRAME
290
     0
  9
$HALOGAP
280
     0
  9
$OBSCOLOR
 70
   257
  9
$OBSLTYPE
280
     0
  9
$INTERSECTIONDISPLAY
280
     0
  9
$INTERSECTIONCOLOR
 70
   257
  9
$DIMASSOC
280
     1
  9
$PROJECTNAME
  1

  0
ENDSEC
  0
SECTION
  2
CLASSES
  0
CLASS
  1
ACDBDICTIONARYWDFLT
  2
AcDbDictionaryWithDefault
  3
ObjectDBX Classes
 90
        0
 91
        3
280
     0
281
     0
  0
CLASS
  1
SORTENTSTABLE
  2
AcDbSortentsTable
  3
ObjectDBX Classes
 90
        0
 91
        3
280
     0
281
     0
  0
ENDSEC
  0
SECTION
  2
TABLES
  0
TABLE
  2
VPORT
  5
501
330
0
100
AcDbSymbolTable
 70
     4
  0
VPORT
  5
49
330
501
100
AcDbSymbolTableRecord
100
AcDbViewportTableRecord
  2
*ACTIVE
 70
     0
 10
0.0
 20
0.0
 11
1.0
 21
1.0
 12
4.25
 22
-7.5
 13
0.0
 23
0.0
 14
0.083333
 24
0.083333
 15
0.083333
 25
0.083333
 16
0.0
 26
0.0
 36
1.0
 17
0.0
 27
0.0
 37
0.0
 40
11.609607
 41
1.884937
 42
50.0
 43
0.0
 44
0.0
 50
0.0
 51
0.0
 71
     0
 72
   100
 73
     1
 74
     2
 75
     0
 76
     0
 77
     0
 78
     1
281
     0
 65
     1
110
0.0
120
0.0
130
0.0
111
1.0
121
0.0
131
0.0
112
0.0
122
1.0
132
0.0
 79
     0
146
0.0
  0
ENDTAB
  0
TABLE
  2
LTYPE
  5
4E8
330
0
100
AcDbSymbolTable
 70
     1
  0
LTYPE
  5
4E9
330
4E8
100
AcDbSymbolTableRecord
100
AcDbLinetypeTableRecord
  2
ByBlock
 70
     0
  3

 72
    65
 73
     0
 40
0.0
  0
LTYPE
  5
4EA
330
4E8
100
AcDbSymbolTableRecord
100
AcDbLinetypeTableRecord
  2
ByLayer
 70
     0
  3

 72
    65
 73
     0
 40
0.0
  0
LTYPE
  5
4E7
330
4E8
100
AcDbSymbolTableRecord
100
AcDbLinetypeTableRecord
  2
Continuous
 70
     0
  3
Solid line
 72
    65
 73
     0
 40
0.0
  0
ENDTAB
  0
TABLE
  2
LAYER
  5
4E1
102
{ACAD_XDICTIONARY
360
4E2
102
}
330
0
100
AcDbSymbolTable
 70
    64
  0
LAYER
  5
4E0
330
4E1
100
AcDbSymbolTableRecord
100
AcDbLayerTableRecord
  2
0
 70
     0
 62
     7
  6
Continuous
370
    -3
390
4E4
  0
LAYER
  5
7
330
4E1
100
AcDbSymbolTableRecord
100
AcDbLayerTableRecord
  2
Level 1
 70
     0
 62
     7
  6
Continuous
370
     0
390
4E4
  0
LAYER
  5
8
330
4E1
100
AcDbSymbolTableRecord
100
AcDbLayerTableRecord
  2
2-34C
 70
     0
 62
     7
  6
Continuous
370
     0
390
4E4
1001
AcAecLayerStandard
1000

1000
2-34C
  0
LAYER
  5
9
330
4E1
100
AcDbSymbolTableRecord
100
AcDbLayerTableRecord
  2
BORDER
 70
     0
 62
     7
  6
Continuous
370
     0
390
4E4
1001
AcAecLayerStandard
1000

1000
BORDER
  0
LAYER
  5
A
330
4E1
100
AcDbSymbolTableRecord
100
AcDbLayerTableRecord
  2
LEGEND
 70
     0
 62
     7
  6
Continuous
370
     0
390
4E4
1001
AcAecLayerStandard
1000

1000
LEGEND
  0
LAYER
  5
B
330
4E1
100
AcDbSymbolTableRecord
100
AcDbLayerTableRecord
  2
DIM
 70
     0
 62
     7
  6
Continuous
370
     0
390
4E4
1001
AcAecLayerStandard
1000

1000
DIM
  0
LAYER
  5
C
330
4E1
100
AcDbSymbolTableRecord
100
AcDbLayerTableRecord
  2
HATCH
 70
     0
 62
     7
  6
Continuous
370
     0
390
4E4
1001
AcAecLayerStandard
1000

1000
HATCH
  0
LAYER
  5
D
330
4E1
100
AcDbSymbolTableRecord
100
AcDbLayerTableRecord
  2
NOTES
 70
     0
 62
     7
  6
Continuous
370
     0
390
4E4
1001
AcAecLayerStandard
1000

1000
NOTES
  0
LAYER
  5
E
330
4E1
100
AcDbSymbolTableRecord
100
AcDbLayerTableRecord
  2
TEXT
 70
     0
 62
     7
  6
Continuous
370
     0
390
4E4
1001
AcAecLayerStandard
1000

1000
TEXT
  0
LAYER
  5
F
330
4E1
100
AcDbSymbolTableRecord
100
AcDbLayerTableRecord
  2
TITLE
 70
     0
 62
     7
  6
Continuous
370
     0
390
4E4
1001
AcAecLayerStandard
1000

1000
TITLE
  0
LAYER
  5
10
330
4E1
100
AcDbSymbolTableRecord
100
AcDbLayerTableRecord
  2
Level 10
 70
     0
 62
     7
  6
Continuous
370
     0
390
4E4
  0
LAYER
  5
11
330
4E1
100
AcDbSymbolTableRecord
100
AcDbLayerTableRecord
  2
Level 11
 70
     0
 62
     7
  6
Continuous
370
     0
390
4E4
  0
LAYER
  5
12
330
4E1
100
AcDbSymbolTableRecord
100
AcDbLayerTableRecord
  2
Level 12
 70
     0
 62
     7
  6
Continuous
370
     0
390
4E4
  0
LAYER
  5
13
330
4E1
100
AcDbSymbolTableRecord
100
AcDbLayerTableRecord
  2
Level 13
 70
     0
 62
     7
  6
Continuous
370
     0
390
4E4
  0
LAYER
  5
14
330
4E1
100
AcDbSymbolTableRecord
100
AcDbLayerTableRecord
  2
Level 14
 70
     0
 62
     7
  6
Continuous
370
     0
390
4E4
  0
LAYER
  5
15
330
4E1
100
AcDbSymbolTableRecord
100
AcDbLayerTableRecord
  2
Level 15
 70
     0
 62
     7
  6
Continuous
370
     0
390
4E4
  0
LAYER
  5
16
330
4E1
100
AcDbSymbolTableRecord
100
AcDbLayerTableRecord
  2
Level 16
 70
     0
 62
     7
  6
Continuous
370
     0
390
4E4
  0
LAYER
  5
17
330
4E1
100
AcDbSymbolTableRecord
100
AcDbLayerTableRecord
  2
Level 17
 70
     0
 62
     7
  6
Continuous
370
     0
390
4E4
  0
LAYER
  5
18
330
4E1
100
AcDbSymbolTableRecord
100
AcDbLayerTableRecord
  2
Level 18
 70
     0
 62
     7
  6
Continuous
370
     0
390
4E4
  0
LAYER
  5
19
330
4E1
100
AcDbSymbolTableRecord
100
AcDbLayerTableRecord
  2
Level 19
 70
     0
 62
     7
  6
Continuous
370
     0
390
4E4
  0
LAYER
  5
1A
330
4E1
100
AcDbSymbolTableRecord
100
AcDbLayerTableRecord
  2
Level 20
 70
     0
 62
     7
  6
Continuous
370
     0
390
4E4
  0
LAYER
  5
1B
330
4E1
100
AcDbSymbolTableRecord
100
AcDbLayerTableRecord
  2
Level 21
 70
     0
 62
     7
  6
Continuous
370
     0
390
4E4
  0
LAYER
  5
1C
330
4E1
100
AcDbSymbolTableRecord
100
AcDbLayerTableRecord
  2
Level 22
 70
     0
 62
     7
  6
Continuous
370
     0
390
4E4
  0
LAYER
  5
1D
330
4E1
100
AcDbSymbolTableRecord
100
AcDbLayerTableRecord
  2
Level 23
 70
     0
 62
     7
  6
Continuous
370
     0
390
4E4
  0
LAYER
  5
1E
330
4E1
100
AcDbSymbolTableRecord
100
AcDbLayerTableRecord
  2
Level 24
 70
     0
 62
     7
  6
Continuous
370
     0
390
4E4
  0
LAYER
  5
1F
330
4E1
100
AcDbSymbolTableRecord
100
AcDbLayerTableRecord
  2
Level 25
 70
     0
 62
     7
  6
Continuous
370
     0
390
4E4
  0
LAYER
  5
20
330
4E1
100
AcDbSymbolTableRecord
100
AcDbLayerTableRecord
  2
Level 26
 70
     0
 62
     7
  6
Continuous
370
     0
390
4E4
  0
LAYER
  5
21
330
4E1
100
AcDbSymbolTableRecord
100
AcDbLayerTableRecord
  2
Level 27
 70
     0
 62
     7
  6
Continuous
370
     0
390
4E4
  0
LAYER
  5
22
330
4E1
100
AcDbSymbolTableRecord
100
AcDbLayerTableRecord
  2
Level 28
 70
     0
 62
     7
  6
Continuous
370
     0
390
4E4
  0
LAYER
  5
23
330
4E1
100
AcDbSymbolTableRecord
100
AcDbLayerTableRecord
  2
Level 29
 70
     0
 62
     7
  6
Continuous
370
     0
390
4E4
  0
LAYER
  5
24
330
4E1
100
AcDbSymbolTableRecord
100
AcDbLayerTableRecord
  2
Level 30
 70
     0
 62
     7
  6
Continuous
370
     0
390
4E4
  0
LAYER
  5
25
330
4E1
100
AcDbSymbolTableRecord
100
AcDbLayerTableRecord
  2
Level 31
 70
     0
 62
     7
  6
Continuous
370
     0
390
4E4
  0
LAYER
  5
26
330
4E1
100
AcDbSymbolTableRecord
100
AcDbLayerTableRecord
  2
Level 32
 70
     0
 62
     7
  6
Continuous
370
     0
390
4E4
  0
LAYER
  5
27
330
4E1
100
AcDbSymbolTableRecord
100
AcDbLayerTableRecord
  2
Level 33
 70
     0
 62
     7
  6
Continuous
370
     0
390
4E4
  0
LAYER
  5
28
330
4E1
100
AcDbSymbolTableRecord
100
AcDbLayerTableRecord
  2
Level 34
 70
     0
 62
     7
  6
Continuous
370
     0
390
4E4
  0
LAYER
  5
29
330
4E1
100
AcDbSymbolTableRecord
100
AcDbLayerTableRecord
  2
Level 35
 70
     0
 62
     7
  6
Continuous
370
     0
390
4E4
  0
LAYER
  5
2A
330
4E1
100
AcDbSymbolTableRecord
100
AcDbLayerTableRecord
  2
Level 36
 70
     0
 62
     7
  6
Continuous
370
     0
390
4E4
  0
LAYER
  5
2B
330
4E1
100
AcDbSymbolTableRecord
100
AcDbLayerTableRecord
  2
Level 37
 70
     0
 62
     7
  6
Continuous
370
     0
390
4E4
  0
LAYER
  5
2C
330
4E1
100
AcDbSymbolTableRecord
100
AcDbLayerTableRecord
  2
Level 38
 70
     0
 62
     7
  6
Continuous
370
     0
390
4E4
  0
LAYER
  5
2D
330
4E1
100
AcDbSymbolTableRecord
100
AcDbLayerTableRecord
  2
Level 39
 70
     0
 62
     7
  6
Continuous
370
     0
390
4E4
  0
LAYER
  5
2E
330
4E1
100
AcDbSymbolTableRecord
100
AcDbLayerTableRecord
  2
Level 40
 70
     0
 62
     7
  6
Continuous
370
     0
390
4E4
  0
LAYER
  5
2F
330
4E1
100
AcDbSymbolTableRecord
100
AcDbLayerTableRecord
  2
Level 41
 70
     0
 62
     7
  6
Continuous
370
     0
390
4E4
  0
LAYER
  5
30
330
4E1
100
AcDbSymbolTableRecord
100
AcDbLayerTableRecord
  2
Level 42
 70
     0
 62
     7
  6
Continuous
370
     0
390
4E4
  0
LAYER
  5
31
330
4E1
100
AcDbSymbolTableRecord
100
AcDbLayerTableRecord
  2
Level 43
 70
     0
 62
     7
  6
Continuous
370
     0
390
4E4
  0
LAYER
  5
32
330
4E1
100
AcDbSymbolTableRecord
100
AcDbLayerTableRecord
  2
Level 44
 70
     0
 62
     7
  6
Continuous
370
     0
390
4E4
  0
LAYER
  5
33
330
4E1
100
AcDbSymbolTableRecord
100
AcDbLayerTableRecord
  2
Level 45
 70
     0
 62
     7
  6
Continuous
370
     0
390
4E4
  0
LAYER
  5
34
330
4E1
100
AcDbSymbolTableRecord
100
AcDbLayerTableRecord
  2
Level 46
 70
     0
 62
     7
  6
Continuous
370
     0
390
4E4
  0
LAYER
  5
35
330
4E1
100
AcDbSymbolTableRecord
100
AcDbLayerTableRecord
  2
Level 47
 70
     0
 62
     7
  6
Continuous
370
     0
390
4E4
  0
LAYER
  5
36
330
4E1
100
AcDbSymbolTableRecord
100
AcDbLayerTableRecord
  2
Level 48
 70
     0
 62
     7
  6
Continuous
370
     0
390
4E4
  0
LAYER
  5
37
330
4E1
100
AcDbSymbolTableRecord
100
AcDbLayerTableRecord
  2
Level 49
 70
     0
 62
     7
  6
Continuous
370
     0
390
4E4
  0
LAYER
  5
38
330
4E1
100
AcDbSymbolTableRecord
100
AcDbLayerTableRecord
  2
Level 50
 70
     0
 62
     7
  6
Continuous
370
     0
390
4E4
  0
LAYER
  5
39
330
4E1
100
AcDbSymbolTableRecord
100
AcDbLayerTableRecord
  2
Level 51
 70
     0
 62
     7
  6
Continuous
370
     0
390
4E4
  0
LAYER
  5
3A
330
4E1
100
AcDbSymbolTableRecord
100
AcDbLayerTableRecord
  2
Level 52
 70
     0
 62
     7
  6
Continuous
370
     0
390
4E4
  0
LAYER
  5
3B
330
4E1
100
AcDbSymbolTableRecord
100
AcDbLayerTableRecord
  2
Level 53
 70
     0
 62
     7
  6
Continuous
370
     0
390
4E4
  0
LAYER
  5
3C
330
4E1
100
AcDbSymbolTableRecord
100
AcDbLayerTableRecord
  2
Level 54
 70
     0
 62
     7
  6
Continuous
370
     0
390
4E4
  0
LAYER
  5
3D
330
4E1
100
AcDbSymbolTableRecord
100
AcDbLayerTableRecord
  2
Level 55
 70
     0
 62
     7
  6
Continuous
370
     0
390
4E4
  0
LAYER
  5
3E
330
4E1
100
AcDbSymbolTableRecord
100
AcDbLayerTableRecord
  2
Level 56
 70
     0
 62
     7
  6
Continuous
370
     0
390
4E4
  0
LAYER
  5
3F
330
4E1
100
AcDbSymbolTableRecord
100
AcDbLayerTableRecord
  2
Level 57
 70
     0
 62
     7
  6
Continuous
370
     0
390
4E4
  0
LAYER
  5
40
330
4E1
100
AcDbSymbolTableRecord
100
AcDbLayerTableRecord
  2
Level 58
 70
     0
 62
     7
  6
Continuous
370
     0
390
4E4
  0
LAYER
  5
41
330
4E1
100
AcDbSymbolTableRecord
100
AcDbLayerTableRecord
  2
Level 59
 70
     0
 62
     7
  6
Continuous
370
     0
390
4E4
  0
LAYER
  5
42
330
4E1
100
AcDbSymbolTableRecord
100
AcDbLayerTableRecord
  2
Level 60
 70
     0
 62
     7
  6
Continuous
370
     0
390
4E4
  0
LAYER
  5
43
330
4E1
100
AcDbSymbolTableRecord
100
AcDbLayerTableRecord
  2
Level 61
 70
     0
 62
     7
  6
Continuous
370
     0
390
4E4
  0
LAYER
  5
44
330
4E1
100
AcDbSymbolTableRecord
100
AcDbLayerTableRecord
  2
Level 62
 70
     0
 62
     7
  6
Continuous
370
     0
390
4E4
  0
LAYER
  5
45
330
4E1
100
AcDbSymbolTableRecord
100
AcDbLayerTableRecord
  2
_0
 70
     0
 62
     7
  6
Continuous
370
     0
390
4E4
1001
AcAecLayerStandard
1000

1000
0
  0
ENDTAB
  0
TABLE
  2
STYLE
  5
4EC
330
0
100
AcDbSymbolTable
 70
     3
  0
STYLE
  5
4EB
330
4EC
100
AcDbSymbolTableRecord
100
AcDbTextStyleTableRecord
  2
Standard
 70
     0
 40
0.0
 41
1.0
 50
0.0
 71
     0
 42
0.140396
  3
txt
  4

  0
STYLE
  5
50B
330
4EC
100
AcDbSymbolTableRecord
100
AcDbTextStyleTableRecord
  2
Style-FANCY
 70
     0
 40
0.0
 41
1.0
 50
0.0
 71
     0
 42
0.2
  3
FANCY.shx
  4

  0
STYLE
  5
518
330
4EC
100
AcDbSymbolTableRecord
100
AcDbTextStyleTableRecord
  2
Style-Arial
 70
     0
 40
0.0
 41
1.0
 50
0.0
 71
     0
 42
0.2
  3

  4

1001
ACAD
1000
Arial
1071
       39
  0
ENDTAB
  0
TABLE
  2
VIEW
  5
4FF
330
0
100
AcDbSymbolTable
 70
     0
  0
ENDTAB
  0
TABLE
  2
UCS
  5
500
330
0
100
AcDbSymbolTable
 70
     0
  0
ENDTAB
  0
TABLE
  2
APPID
  5
4FE
330
0
100
AcDbSymbolTable
 70
     3
  0
APPID
  5
506
330
4FE
100
AcDbSymbolTableRecord
100
AcDbRegAppTableRecord
  2
ACAD
 70
     0
  0
APPID
  5
4FD
330
4FE
100
AcDbSymbolTableRecord
100
AcDbRegAppTableRecord
  2
ACAD_PSEXT
 70
     0
  0
APPID
  5
508
330
4FE
100
AcDbSymbolTableRecord
100
AcDbRegAppTableRecord
  2
AcAecLayerStandard
 70
     0
  0
ENDTAB
  0
TABLE
  2
DIMSTYLE
  5
4EE
330
0
100
AcDbSymbolTable
 70
     1
100
AcDbDimStyleTable
  0
DIMSTYLE
105
4ED
330
4EE
100
AcDbSymbolTableRecord
100
AcDbDimStyleTableRecord
  2
Standard
 70
     0
340
4EB
  0
ENDTAB
  0
TABLE
  2
BLOCK_RECORD
  5
4F1
330
0
100
AcDbSymbolTable
 70
     2
  0
BLOCK_RECORD
  5
4F2
102
{ACAD_XDICTIONARY
360
519
102
}
330
4F1
100
AcDbSymbolTableRecord
100
AcDbBlockTableRecord
  2
*Model_Space
340
4F5
  0
BLOCK_RECORD
  5
4F7
330
4F1
100
AcDbSymbolTableRecord
100
AcDbBlockTableRecord
  2
*Paper_Space
340
4FA
  0
BLOCK_RECORD
  5
50C
330
4F1
100
AcDbSymbolTableRecord
100
AcDbBlockTableRecord
  2
TerminatorOpen_0.5
340
0
  0
BLOCK_RECORD
  5
515
330
4F1
100
AcDbSymbolTableRecord
100
AcDbBlockTableRecord
  2
LARROW
340
0
102
{BLKREFS
331
48C
102
}
  0
ENDTAB
  0
ENDSEC
  0
SECTION
  2
BLOCKS
  0
BLOCK
  5
4F3
330
4F2
100
AcDbEntity
  8
0
100
AcDbBlockBegin
  2
*Model_Space
 70
     0
 71
     0
 10
0.0
 20
0.0
 30
0.0
  3
*Model_Space
  1

  0
ENDBLK
  5
4F4
330
4F2
100
AcDbEntity
  8
0
100
AcDbBlockEnd
  0
BLOCK
  5
4F8
330
4F7
100
AcDbEntity
 67
     1
  8
0
100
AcDbBlockBegin
  2
*Paper_Space
 70
     0
 71
     0
 10
0.0
 20
0.0
 30
0.0
  3
*Paper_Space
  1

  0
ENDBLK
  5
4F9
330
4F7
100
AcDbEntity
 67
     1
  8
0
100
AcDbBlockEnd
  0
BLOCK
  5
510
330
50C
100
AcDbEntity
  8
0
100
AcDbBlockBegin
  2
TerminatorOpen_0.5
 70
     0
 71
     0
 10
0.0
 20
0.0
 30
0.0
  3
TerminatorOpen_0.5
  1

  0
LINE
  5
50D
330
50C
100
AcDbEntity
  8
0
  6
ByBlock
 62
     0
370
    -2
100
AcDbLine
 10
0.0
 20
0.0
 30
0.0
 11
-1.0
 21
0.0
 31
0.0
  0
LINE
  5
50E
330
50C
100
AcDbEntity
  8
0
  6
ByBlock
 62
     0
370
    -2
100
AcDbLine
 10
0.0
 20
0.0
 30
0.0
 11
-1.0
 21
0.25
 31
0.0
  0
LINE
  5
50F
330
50C
100
AcDbEntity
  8
0
  6
ByBlock
 62
     0
370
    -2
100
AcDbLine
 10
0.0
 20
0.0
 30
0.0
 11
-1.0
 21
-0.25
 31
0.0
  0
ENDBLK
  5
511
330
50C
100
AcDbEntity
  8
0
100
AcDbBlockEnd
  0
BLOCK
  5
516
330
515
100
AcDbEntity
  8
0
100
AcDbBlockBegin
  2
LARROW
 70
     0
 71
     0
 10
0.0
 20
0.0
 30
0.0
  3
LARROW
  1

  0
LWPOLYLINE
  5
48D
330
515
100
AcDbEntity
  8
DIM
  6
Continuous
 62
     7
370
    13
100
AcDbPolyline
 90
       63
 70
   128
 43
0.0
 10
-0.013031
 20
0.001886
 10
0.0
 20
0.0
 10
-0.013021
 20
-0.001886
 10
-0.012614
 20
-0.001573
 10
-0.012041
 20
-0.001011
 10
-0.011761
 20
-0.00049
 10
-0.011687
 20
0.0
 10
-0.011792
 20
0.000552
 10
-0.012094
 20
0.001094
 10
-0.012678
 20
0.001625
 10
-0.013031
 20
0.001886
 10
-0.000385
 20
0.00002
 10
-0.012604
 20
-0.001761
 10
-0.012229
 20
-0.001479
 10
-0.011626
 20
-0.000906
 10
-0.011427
 20
-0.000167
 10
-0.011563
 20
0.000572
 10
-0.011917
 20
0.001083
 10
-0.012343
 20
0.0015
 10
-0.012636
 20
0.001729
 10
-0.001073
 20
0.000021
 10
-0.012052
 20
-0.001552
 10
-0.011667
 20
-0.001303
 10
-0.011469
 20
-0.00098
 10
-0.01125
 20
-0.000563
 10
-0.011135
 20
0.000021
 10
-0.011198
 20
0.0005
 10
-0.011427
 20
0.000875
 10
-0.011896
 20
0.001177
 10
-0.012208
 20
0.001541
 10
-0.001876
 20
0.000021
 10
-0.011448
 20
-0.001323
 10
-0.011021
 20
-0.000792
 10
-0.010896
 20
-0.000146
 10
-0.010959
 20
0.000573
 10
-0.011781
 20
0.001354
 10
-0.002771
 20
0.000063
 10
-0.010895
 20
-0.001073
 10
-0.010782
 20
-0.000698
 10
-0.010531
 20
-0.000094
 10
-0.010688
 20
0.000552
 10
-0.011334
 20
0.001125
 10
-0.003593
 20
0.000063
 10
-0.010604
 20
-0.000833
 10
-0.010375
 20
-0.000375
 10
-0.01027
 20
0.000115
 10
-0.01076
 20
0.000875
 10
-0.004573
 20
0.000062
 10
-0.010177
 20
-0.000625
 10
-0.010021
 20
-0.000281
 10
-0.009979
 20
0.000115
 10
-0.010375
 20
0.000667
 10
-0.005739
 20
0.000063
 10
-0.009823
 20
-0.000396
 10
-0.009708
 20
0.000136
 10
-0.010084
 20
0.000458
 10
-0.006698
 20
0.000063
 10
-0.009552
 20
-0.00024
 10
-0.009615
 20
0.000271
 10
-0.007677
 20
0.000063
 10
-0.009437
 20
-0.000073
 10
-0.00949
 20
0.000083
 10
-0.008885
 20
0.000083
  0
ENDBLK
  5
517
330
515
100
AcDbEntity
  8
0
100
AcDbBlockEnd
  0
ENDSEC
  0
SECTION
  2
ENTITIES
  0
POINT
  5
5B
330
4F2
100
AcDbEntity
  8
BORDER
  6
Continuous
 62
     7
370
    30
100
AcDbPoint
 10
0.625
 20
-12.013094
 30
0.0
  0
LINE
  5
5C
330
4F2
100
AcDbEntity
  8
BORDER
  6
Continuous
 62
     7
370
    30
100
AcDbLine
 10
0.625
 20
-12.013094
 30
0.0
 11
7.875
 21
-12.013094
 31
0.0
  0
LINE
  5
5D
330
4F2
100
AcDbEntity
  8
LEGEND
  6
Continuous
 62
     7
370
    30
100
AcDbLine
 10
1.901125
 20
-8.587917
 30
0.0
 11
2.852948
 21
-9.539729
 31
0.0
  0
LINE
  5
5E
330
4F2
100
AcDbEntity
  8
LEGEND
  6
Continuous
 62
     7
370
    30
100
AcDbLine
 10
1.904271
 20
-8.587521
 30
0.0
 11
2.855823
 21
-9.539073
 31
0.0
  0
LINE
  5
5F
330
4F2
100
AcDbEntity
  8
LEGEND
  6
Continuous
 62
     7
370
    30
100
AcDbLine
 10
1.907406
 20
-8.587125
 30
0.0
 11
2.858698
 21
-9.538406
 31
0.0
  0
LINE
  5
60
330
4F2
100
AcDbEntity
  8
LEGEND
  6
Continuous
 62
     7
370
    30
100
AcDbLine
 10
1.910552
 20
-8.586729
 30
0.0
 11
2.861573
 21
-9.53775
 31
0.0
  0
LINE
  5
61
330
4F2
100
AcDbEntity
  8
LEGEND
  6
Continuous
 62
     7
370
    30
100
AcDbLine
 10
1.913687
 20
-8.586333
 30
0.0
 11
2.864437
 21
-9.537083
 31
0.0
  0
LINE
  5
62
330
4F2
100
AcDbEntity
  8
LEGEND
  6
Continuous
 62
     7
370
    30
100
AcDbLine
 10
1.916833
 20
-8.585938
 30
0.0
 11
2.867312
 21
-9.536427
 31
0.0
  0
LINE
  5
63
330
4F2
100
AcDbEntity
  8
LEGEND
  6
Continuous
 62
     7
370
    30
100
AcDbLine
 10
1.919969
 20
-8.585542
 30
0.0
 11
2.870188
 21
-9.53576
 31
0.0
  0
LINE
  5
64
330
4F2
100
AcDbEntity
  8
LEGEND
  6
Continuous
 62
     7
370
    30
100
AcDbLine
 10
1.923115
 20
-8.585156
 30
0.0
 11
2.873063
 21
-9.535104
 31
0.0
  0
LINE
  5
65
330
4F2
100
AcDbEntity
  8
LEGEND
  6
Continuous
 62
     7
370
    30
100
AcDbLine
 10
1.92625
 20
-8.58476
 30
0.0
 11
2.875938
 21
-9.534448
 31
0.0
  0
LINE
  5
66
330
4F2
100
AcDbEntity
  8
LEGEND
  6
Continuous
 62
     7
370
    30
100
AcDbLine
 10
1.929396
 20
-8.584365
 30
0.0
 11
2.878812
 21
-9.533781
 31
0.0
  0
LINE
  5
67
330
4F2
100
AcDbEntity
  8
LEGEND
  6
Continuous
 62
     7
370
    30
100
AcDbLine
 10
1.932542
 20
-8.583969
 30
0.0
 11
2.881687
 21
-9.533125
 31
0.0
  0
LINE
  5
68
330
4F2
100
AcDbEntity
  8
LEGEND
  6
Continuous
 62
     7
370
    30
100
AcDbLine
 10
1.935677
 20
-8.583573
 30
0.0
 11
2.884562
 21
-9.532458
 31
0.0
  0
LINE
  5
69
330
4F2
100
AcDbEntity
  8
LEGEND
  6
Continuous
 62
     7
370
    30
100
AcDbLine
 10
1.938823
 20
-8.583177
 30
0.0
 11
2.887437
 21
-9.531802
 31
0.0
  0
LINE
  5
6A
330
4F2
100
AcDbEntity
  8
LEGEND
  6
Continuous
 62
     7
370
    30
100
AcDbLine
 10
1.941958
 20
-8.582781
 30
0.0
 11
2.890312
 21
-9.531146
 31
0.0
  0
LINE
  5
6B
330
4F2
100
AcDbEntity
  8
LEGEND
  6
Continuous
 62
     7
370
    30
100
AcDbLine
 10
1.945104
 20
-8.582396
 30
0.0
 11
2.893187
 21
-9.530479
 31
0.0
  0
LINE
  5
6C
330
4F2
100
AcDbEntity
  8
LEGEND
  6
Continuous
 62
     7
370
    30
100
AcDbLine
 10
1.94824
 20
-8.582
 30
0.0
 11
2.896062
 21
-9.529823
 31
0.0
  0
LINE
  5
6D
330
4F2
100
AcDbEntity
  8
LEGEND
  6
Continuous
 62
     7
370
    30
100
AcDbLine
 10
1.951385
 20
-8.581604
 30
0.0
 11
2.898937
 21
-9.529156
 31
0.0
  0
LINE
  5
6E
330
4F2
100
AcDbEntity
  8
LEGEND
  6
Continuous
 62
     7
370
    30
100
AcDbLine
 10
1.954521
 20
-8.581208
 30
0.0
 11
2.901812
 21
-9.5285
 31
0.0
  0
LINE
  5
6F
330
4F2
100
AcDbEntity
  8
LEGEND
  6
Continuous
 62
     7
370
    30
100
AcDbLine
 10
1.957667
 20
-8.580813
 30
0.0
 11
2.904688
 21
-9.527833
 31
0.0
  0
LINE
  5
70
330
4F2
100
AcDbEntity
  8
LEGEND
  6
Continuous
 62
     7
370
    30
100
AcDbLine
 10
1.960812
 20
-8.580417
 30
0.0
 11
2.907563
 21
-9.527177
 31
0.0
  0
LINE
  5
71
330
4F2
100
AcDbEntity
  8
LEGEND
  6
Continuous
 62
     7
370
    30
100
AcDbLine
 10
1.963948
 20
-8.580021
 30
0.0
 11
2.910438
 21
-9.526521
 31
0.0
  0
LINE
  5
72
330
4F2
100
AcDbEntity
  8
LEGEND
  6
Continuous
 62
     7
370
    30
100
AcDbLine
 10
1.967094
 20
-8.579625
 30
0.0
 11
2.913312
 21
-9.525854
 31
0.0
  0
LINE
  5
73
330
4F2
100
AcDbEntity
  8
LEGEND
  6
Continuous
 62
     7
370
    30
100
AcDbLine
 10
1.970229
 20
-8.57924
 30
0.0
 11
2.916187
 21
-9.525198
 31
0.0
  0
LINE
  5
74
330
4F2
100
AcDbEntity
  8
LEGEND
  6
Continuous
 62
     7
370
    30
100
AcDbLine
 10
1.973375
 20
-8.578844
 30
0.0
 11
2.919062
 21
-9.524531
 31
0.0
  0
LINE
  5
75
330
4F2
100
AcDbEntity
  8
LEGEND
  6
Continuous
 62
     7
370
    30
100
AcDbLine
 10
1.97651
 20
-8.578448
 30
0.0
 11
2.921937
 21
-9.523875
 31
0.0
  0
LINE
  5
76
330
4F2
100
AcDbEntity
  8
LEGEND
  6
Continuous
 62
     7
370
    30
100
AcDbLine
 10
1.979656
 20
-8.578052
 30
0.0
 11
2.924812
 21
-9.523208
 31
0.0
  0
LINE
  5
77
330
4F2
100
AcDbEntity
  8
LEGEND
  6
Continuous
 62
     7
370
    30
100
AcDbLine
 10
1.982792
 20
-8.577656
 30
0.0
 11
2.927687
 21
-9.522552
 31
0.0
  0
LINE
  5
78
330
4F2
100
AcDbEntity
  8
LEGEND
  6
Continuous
 62
     7
370
    30
100
AcDbLine
 10
1.985937
 20
-8.57726
 30
0.0
 11
2.930562
 21
-9.521896
 31
0.0
  0
LINE
  5
79
330
4F2
100
AcDbEntity
  8
LEGEND
  6
Continuous
 62
     7
370
    30
100
AcDbLine
 10
1.989073
 20
-8.576865
 30
0.0
 11
2.933437
 21
-9.521229
 31
0.0
  0
LINE
  5
7A
330
4F2
100
AcDbEntity
  8
LEGEND
  6
Continuous
 62
     7
370
    30
100
AcDbLine
 10
1.992219
 20
-8.576479
 30
0.0
 11
2.936313
 21
-9.520573
 31
0.0
  0
LINE
  5
7B
330
4F2
100
AcDbEntity
  8
LEGEND
  6
Continuous
 62
     7
370
    30
100
AcDbLine
 10
1.995365
 20
-8.576083
 30
0.0
 11
2.939188
 21
-9.519906
 31
0.0
  0
LINE
  5
7C
330
4F2
100
AcDbEntity
  8
LEGEND
  6
Continuous
 62
     7
370
    30
100
AcDbLine
 10
1.9985
 20
-8.575687
 30
0.0
 11
2.942063
 21
-9.51925
 31
0.0
  0
LINE
  5
7D
330
4F2
100
AcDbEntity
  8
LEGEND
  6
Continuous
 62
     7
370
    30
100
AcDbLine
 10
2.001646
 20
-8.575292
 30
0.0
 11
2.944937
 21
-9.518583
 31
0.0
  0
LINE
  5
7E
330
4F2
100
AcDbEntity
  8
LEGEND
  6
Continuous
 62
     7
370
    30
100
AcDbLine
 10
2.004781
 20
-8.574896
 30
0.0
 11
2.947812
 21
-9.517927
 31
0.0
  0
LINE
  5
7F
330
4F2
100
AcDbEntity
  8
LEGEND
  6
Continuous
 62
     7
370
    30
100
AcDbLine
 10
2.007927
 20
-8.5745
 30
0.0
 11
2.950687
 21
-9.517271
 31
0.0
  0
LINE
  5
80
330
4F2
100
AcDbEntity
  8
LEGEND
  6
Continuous
 62
     7
370
    30
100
AcDbLine
 10
2.011062
 20
-8.574104
 30
0.0
 11
2.953562
 21
-9.516604
 31
0.0
  0
LINE
  5
81
330
4F2
100
AcDbEntity
  8
LEGEND
  6
Continuous
 62
     7
370
    30
100
AcDbLine
 10
2.014208
 20
-8.573719
 30
0.0
 11
2.956437
 21
-9.515948
 31
0.0
  0
LINE
  5
82
330
4F2
100
AcDbEntity
  8
LEGEND
  6
Continuous
 62
     7
370
    30
100
AcDbLine
 10
2.017344
 20
-8.573323
 30
0.0
 11
2.959312
 21
-9.515281
 31
0.0
  0
LINE
  5
83
330
4F2
100
AcDbEntity
  8
LEGEND
  6
Continuous
 62
     7
370
    30
100
AcDbLine
 10
2.02049
 20
-8.572927
 30
0.0
 11
2.962187
 21
-9.514625
 31
0.0
  0
LINE
  5
84
330
4F2
100
AcDbEntity
  8
LEGEND
  6
Continuous
 62
     7
370
    30
100
AcDbLine
 10
2.023625
 20
-8.572531
 30
0.0
 11
2.965062
 21
-9.513958
 31
0.0
  0
LINE
  5
85
330
4F2
100
AcDbEntity
  8
LEGEND
  6
Continuous
 62
     7
370
    30
100
AcDbLine
 10
2.026771
 20
-8.572135
 30
0.0
 11
2.967938
 21
-9.513302
 31
0.0
  0
LINE
  5
86
330
4F2
100
AcDbEntity
  8
LEGEND
  6
Continuous
 62
     7
370
    30
100
AcDbLine
 10
2.029917
 20
-8.57174
 30
0.0
 11
2.970813
 21
-9.512646
 31
0.0
  0
LINE
  5
87
330
4F2
100
AcDbEntity
  8
LEGEND
  6
Continuous
 62
     7
370
    30
100
AcDbLine
 10
2.033052
 20
-8.571344
 30
0.0
 11
2.973688
 21
-9.511979
 31
0.0
  0
LINE
  5
88
330
4F2
100
AcDbEntity
  8
LEGEND
  6
Continuous
 62
     7
370
    30
100
AcDbLine
 10
2.036198
 20
-8.570948
 30
0.0
 11
2.976562
 21
-9.511323
 31
0.0
  0
LINE
  5
89
330
4F2
100
AcDbEntity
  8
LEGEND
  6
Continuous
 62
     7
370
    30
100
AcDbLine
 10
2.039333
 20
-8.570562
 30
0.0
 11
2.979437
 21
-9.510656
 31
0.0
  0
LINE
  5
8A
330
4F2
100
AcDbEntity
  8
LEGEND
  6
Continuous
 62
     7
370
    30
100
AcDbLine
 10
2.042479
 20
-8.570167
 30
0.0
 11
2.982312
 21
-9.51
 31
0.0
  0
LINE
  5
8B
330
4F2
100
AcDbEntity
  8
LEGEND
  6
Continuous
 62
     7
370
    30
100
AcDbLine
 10
2.045615
 20
-8.569771
 30
0.0
 11
2.985187
 21
-9.509333
 31
0.0
  0
LINE
  5
8C
330
4F2
100
AcDbEntity
  8
LEGEND
  6
Continuous
 62
     7
370
    30
100
AcDbLine
 10
2.04876
 20
-8.569375
 30
0.0
 11
2.988062
 21
-9.508677
 31
0.0
  0
LINE
  5
8D
330
4F2
100
AcDbEntity
  8
LEGEND
  6
Continuous
 62
     7
370
    30
100
AcDbLine
 10
2.051896
 20
-8.568979
 30
0.0
 11
2.990937
 21
-9.508021
 31
0.0
  0
LINE
  5
8E
330
4F2
100
AcDbEntity
  8
LEGEND
  6
Continuous
 62
     7
370
    30
100
AcDbLine
 10
2.055042
 20
-8.568583
 30
0.0
 11
2.993812
 21
-9.507354
 31
0.0
  0
LINE
  5
8F
330
4F2
100
AcDbEntity
  8
LEGEND
  6
Continuous
 62
     7
370
    30
100
AcDbLine
 10
2.058177
 20
-8.568188
 30
0.0
 11
2.996687
 21
-9.506698
 31
0.0
  0
LINE
  5
90
330
4F2
100
AcDbEntity
  8
LEGEND
  6
Continuous
 62
     7
370
    30
100
AcDbLine
 10
2.061323
 20
-8.567802
 30
0.0
 11
2.999562
 21
-9.506031
 31
0.0
  0
LINE
  5
91
330
4F2
100
AcDbEntity
  8
LEGEND
  6
Continuous
 62
     7
370
    30
100
AcDbLine
 10
2.064469
 20
-8.567406
 30
0.0
 11
3.002438
 21
-9.505375
 31
0.0
  0
LINE
  5
92
330
4F2
100
AcDbEntity
  8
LEGEND
  6
Continuous
 62
     7
370
    30
100
AcDbLine
 10
2.067604
 20
-8.56701
 30
0.0
 11
3.005313
 21
-9.504719
 31
0.0
  0
LINE
  5
93
330
4F2
100
AcDbEntity
  8
LEGEND
  6
Continuous
 62
     7
370
    30
100
AcDbLine
 10
2.07075
 20
-8.566615
 30
0.0
 11
3.008188
 21
-9.504052
 31
0.0
  0
LINE
  5
94
330
4F2
100
AcDbEntity
  8
LEGEND
  6
Continuous
 62
     7
370
    30
100
AcDbLine
 10
2.073885
 20
-8.566219
 30
0.0
 11
3.011062
 21
-9.503396
 31
0.0
  0
LINE
  5
95
330
4F2
100
AcDbEntity
  8
LEGEND
  6
Continuous
 62
     7
370
    30
100
AcDbLine
 10
2.077031
 20
-8.565823
 30
0.0
 11
3.013937
 21
-9.502729
 31
0.0
  0
LINE
  5
96
330
4F2
100
AcDbEntity
  8
LEGEND
  6
Continuous
 62
     7
370
    30
100
AcDbLine
 10
2.080167
 20
-8.565427
 30
0.0
 11
3.016812
 21
-9.502073
 31
0.0
  0
LINE
  5
97
330
4F2
100
AcDbEntity
  8
LEGEND
  6
Continuous
 62
     7
370
    30
100
AcDbLine
 10
2.083312
 20
-8.565042
 30
0.0
 11
3.019687
 21
-9.501406
 31
0.0
  0
LINE
  5
98
330
4F2
100
AcDbEntity
  8
LEGEND
  6
Continuous
 62
     7
370
    30
100
AcDbLine
 10
2.086448
 20
-8.564646
 30
0.0
 11
3.022562
 21
-9.50075
 31
0.0
  0
LINE
  5
99
330
4F2
100
AcDbEntity
  8
LEGEND
  6
Continuous
 62
     7
370
    30
100
AcDbLine
 10
2.089594
 20
-8.56425
 30
0.0
 11
3.025437
 21
-9.500094
 31
0.0
  0
LINE
  5
9A
330
4F2
100
AcDbEntity
  8
LEGEND
  6
Continuous
 62
     7
370
    30
100
AcDbLine
 10
2.09274
 20
-8.563854
 30
0.0
 11
3.028312
 21
-9.499427
 31
0.0
  0
LINE
  5
9B
330
4F2
100
AcDbEntity
  8
LEGEND
  6
Continuous
 62
     7
370
    30
100
AcDbLine
 10
2.095875
 20
-8.563458
 30
0.0
 11
3.031187
 21
-9.498771
 31
0.0
  0
LINE
  5
9C
330
4F2
100
AcDbEntity
  8
LEGEND
  6
Continuous
 62
     7
370
    30
100
AcDbLine
 10
2.099021
 20
-8.563062
 30
0.0
 11
3.034063
 21
-9.498104
 31
0.0
  0
LINE
  5
9D
330
4F2
100
AcDbEntity
  8
LEGEND
  6
Continuous
 62
     7
370
    30
100
AcDbLine
 10
2.102156
 20
-8.562667
 30
0.0
 11
3.036938
 21
-9.497448
 31
0.0
  0
LINE
  5
9E
330
4F2
100
AcDbEntity
  8
LEGEND
  6
Continuous
 62
     7
370
    30
100
AcDbLine
 10
2.105302
 20
-8.562271
 30
0.0
 11
3.039813
 21
-9.496781
 31
0.0
  0
LINE
  5
9F
330
4F2
100
AcDbEntity
  8
LEGEND
  6
Continuous
 62
     7
370
    30
100
AcDbLine
 10
2.108437
 20
-8.561885
 30
0.0
 11
3.042687
 21
-9.496125
 31
0.0
  0
LINE
  5
A0
330
4F2
100
AcDbEntity
  8
LEGEND
  6
Continuous
 62
     7
370
    30
100
AcDbLine
 10
2.111583
 20
-8.56149
 30
0.0
 11
3.045562
 21
-9.495469
 31
0.0
  0
LINE
  5
A1
330
4F2
100
AcDbEntity
  8
LEGEND
  6
Continuous
 62
     7
370
    30
100
AcDbLine
 10
2.114719
 20
-8.561094
 30
0.0
 11
3.048437
 21
-9.494802
 31
0.0
  0
LINE
  5
A2
330
4F2
100
AcDbEntity
  8
LEGEND
  6
Continuous
 62
     7
370
    30
100
AcDbLine
 10
2.117865
 20
-8.560698
 30
0.0
 11
3.051312
 21
-9.494146
 31
0.0
  0
LINE
  5
A3
330
4F2
100
AcDbEntity
  8
LEGEND
  6
Continuous
 62
     7
370
    30
100
AcDbLine
 10
2.121
 20
-8.560302
 30
0.0
 11
3.054187
 21
-9.493479
 31
0.0
  0
LINE
  5
A4
330
4F2
100
AcDbEntity
  8
LEGEND
  6
Continuous
 62
     7
370
    30
100
AcDbLine
 10
2.124146
 20
-8.559906
 30
0.0
 11
2.737344
 21
-9.173115
 31
0.0
  0
LINE
  5
A5
330
4F2
100
AcDbEntity
  8
LEGEND
  6
Continuous
 62
     7
370
    30
100
AcDbLine
 10
2.738115
 20
-9.173875
 30
0.0
 11
3.057062
 21
-9.492823
 31
0.0
  0
LINE
  5
A6
330
4F2
100
AcDbEntity
  8
LEGEND
  6
Continuous
 62
     7
370
    30
100
AcDbLine
 10
2.127292
 20
-8.55951
 30
0.0
 11
2.736292
 21
-9.168521
 31
0.0
  0
LINE
  5
A7
330
4F2
100
AcDbEntity
  8
LEGEND
  6
Continuous
 62
     7
370
    30
100
AcDbLine
 10
2.74399
 20
-9.176219
 30
0.0
 11
3.059937
 21
-9.492156
 31
0.0
  0
LINE
  5
A8
330
4F2
100
AcDbEntity
  8
LEGEND
  6
Continuous
 62
     7
370
    30
100
AcDbLine
 10
2.130427
 20
-8.559125
 30
0.0
 11
2.735229
 21
-9.163927
 31
0.0
  0
LINE
  5
A9
330
4F2
100
AcDbEntity
  8
LEGEND
  6
Continuous
 62
     7
370
    30
100
AcDbLine
 10
2.749865
 20
-9.178552
 30
0.0
 11
3.062812
 21
-9.4915
 31
0.0
  0
LINE
  5
AA
330
4F2
100
AcDbEntity
  8
LEGEND
  6
Continuous
 62
     7
370
    30
100
AcDbLine
 10
2.133573
 20
-8.558729
 30
0.0
 11
2.734177
 21
-9.159333
 31
0.0
  0
LINE
  5
AB
330
4F2
100
AcDbEntity
  8
LEGEND
  6
Continuous
 62
     7
370
    30
100
AcDbLine
 10
2.75574
 20
-9.180896
 30
0.0
 11
3.065687
 21
-9.490844
 31
0.0
  0
LINE
  5
AC
330
4F2
100
AcDbEntity
  8
LEGEND
  6
Continuous
 62
     7
370
    30
100
AcDbLine
 10
2.136708
 20
-8.558333
 30
0.0
 11
2.733115
 21
-9.15474
 31
0.0
  0
LINE
  5
AD
330
4F2
100
AcDbEntity
  8
LEGEND
  6
Continuous
 62
     7
370
    30
100
AcDbLine
 10
2.761615
 20
-9.183229
 30
0.0
 11
3.068563
 21
-9.490177
 31
0.0
  0
LINE
  5
AE
330
4F2
100
AcDbEntity
  8
LEGEND
  6
Continuous
 62
     7
370
    30
100
AcDbLine
 10
2.139854
 20
-8.557937
 30
0.0
 11
2.732052
 21
-9.150146
 31
0.0
  0
LINE
  5
AF
330
4F2
100
AcDbEntity
  8
LEGEND
  6
Continuous
 62
     7
370
    30
100
AcDbLine
 10
2.76749
 20
-9.185573
 30
0.0
 11
3.071427
 21
-9.489521
 31
0.0
  0
LINE
  5
B0
330
4F2
100
AcDbEntity
  8
LEGEND
  6
Continuous
 62
     7
370
    30
100
AcDbLine
 10
2.14299
 20
-8.557542
 30
0.0
 11
2.731
 21
-9.145552
 31
0.0
  0
LINE
  5
B1
330
4F2
100
AcDbEntity
  8
LEGEND
  6
Continuous
 62
     7
370
    30
100
AcDbLine
 10
2.773365
 20
-9.187906
 30
0.0
 11
3.074302
 21
-9.488854
 31
0.0
  0
LINE
  5
B2
330
4F2
100
AcDbEntity
  8
LEGEND
  6
Continuous
 62
     7
370
    30
100
AcDbLine
 10
2.146135
 20
-8.557146
 30
0.0
 11
2.729938
 21
-9.140958
 31
0.0
  0
LINE
  5
B3
330
4F2
100
AcDbEntity
  8
LEGEND
  6
Continuous
 62
     7
370
    30
100
AcDbLine
 10
2.779229
 20
-9.19025
 30
0.0
 11
3.077177
 21
-9.488198
 31
0.0
  0
LINE
  5
B4
330
4F2
100
AcDbEntity
  8
LEGEND
  6
Continuous
 62
     7
370
    30
100
AcDbLine
 10
2.149271
 20
-8.55675
 30
0.0
 11
2.728885
 21
-9.136365
 31
0.0
  0
LINE
  5
B5
330
4F2
100
AcDbEntity
  8
LEGEND
  6
Continuous
 62
     7
370
    30
100
AcDbLine
 10
2.785104
 20
-9.192583
 30
0.0
 11
3.080052
 21
-9.487531
 31
0.0
  0
LINE
  5
B6
330
4F2
100
AcDbEntity
  8
LEGEND
  6
Continuous
 62
     7
370
    30
100
AcDbLine
 10
2.152417
 20
-8.556365
 30
0.0
 11
2.727823
 21
-9.131771
 31
0.0
  0
LINE
  5
B7
330
4F2
100
AcDbEntity
  8
LEGEND
  6
Continuous
 62
     7
370
    30
100
AcDbLine
 10
2.790979
 20
-9.194927
 30
0.0
 11
3.082927
 21
-9.486875
 31
0.0
  0
LINE
  5
B8
330
4F2
100
AcDbEntity
  8
LEGEND
  6
Continuous
 62
     7
370
    30
100
AcDbLine
 10
2.155552
 20
-8.555969
 30
0.0
 11
2.72676
 21
-9.127177
 31
0.0
  0
LINE
  5
B9
330
4F2
100
AcDbEntity
  8
LEGEND
  6
Continuous
 62
     7
370
    30
100
AcDbLine
 10
2.796854
 20
-9.19726
 30
0.0
 11
3.085802
 21
-9.486219
 31
0.0
  0
LINE
  5
BA
330
4F2
100
AcDbEntity
  8
LEGEND
  6
Continuous
 62
     7
370
    30
100
AcDbLine
 10
2.158698
 20
-8.555573
 30
0.0
 11
2.725708
 21
-9.122583
 31
0.0
  0
LINE
  5
BB
330
4F2
100
AcDbEntity
  8
LEGEND
  6
Continuous
 62
     7
370
    30
100
AcDbLine
 10
2.802729
 20
-9.199604
 30
0.0
 11
3.088677
 21
-9.485552
 31
0.0
  0
LINE
  5
BC
330
4F2
100
AcDbEntity
  8
LEGEND
  6
Continuous
 62
     7
370
    30
100
AcDbLine
 10
2.161844
 20
-8.555177
 30
0.0
 11
2.724646
 21
-9.11799
 31
0.0
  0
LINE
  5
BD
330
4F2
100
AcDbEntity
  8
LEGEND
  6
Continuous
 62
     7
370
    30
100
AcDbLine
 10
2.808604
 20
-9.201937
 30
0.0
 11
3.091552
 21
-9.484896
 31
0.0
  0
LINE
  5
BE
330
4F2
100
AcDbEntity
  8
LEGEND
  6
Continuous
 62
     7
370
    30
100
AcDbLine
 10
2.164979
 20
-8.554781
 30
0.0
 11
2.72349
 21
-9.113292
 31
0.0
  0
LINE
  5
BF
330
4F2
100
AcDbEntity
  8
LEGEND
  6
Continuous
 62
     7
370
    30
100
AcDbLine
 10
2.814479
 20
-9.204281
 30
0.0
 11
3.094427
 21
-9.484229
 31
0.0
  0
LINE
  5
C0
330
4F2
100
AcDbEntity
  8
LEGEND
  6
Continuous
 62
     7
370
    30
100
AcDbLine
 10
2.168125
 20
-8.554385
 30
0.0
 11
2.722312
 21
-9.108573
 31
0.0
  0
LINE
  5
C1
330
4F2
100
AcDbEntity
  8
LEGEND
  6
Continuous
 62
     7
370
    30
100
AcDbLine
 10
2.820354
 20
-9.206615
 30
0.0
 11
3.097302
 21
-9.483573
 31
0.0
  0
LINE
  5
C2
330
4F2
100
AcDbEntity
  8
LEGEND
  6
Continuous
 62
     7
370
    30
100
AcDbLine
 10
2.17126
 20
-8.55399
 30
0.0
 11
2.721135
 21
-9.103865
 31
0.0
  0
LINE
  5
C3
330
4F2
100
AcDbEntity
  8
LEGEND
  6
Continuous
 62
     7
370
    30
100
AcDbLine
 10
2.826229
 20
-9.208958
 30
0.0
 11
3.100177
 21
-9.482906
 31
0.0
  0
LINE
  5
C4
330
4F2
100
AcDbEntity
  8
LEGEND
  6
Continuous
 62
     7
370
    30
100
AcDbLine
 10
2.174406
 20
-8.553594
 30
0.0
 11
2.719958
 21
-9.099146
 31
0.0
  0
LINE
  5
C5
330
4F2
100
AcDbEntity
  8
LEGEND
  6
Continuous
 62
     7
370
    30
100
AcDbLine
 10
2.832104
 20
-9.211292
 30
0.0
 11
3.103052
 21
-9.48225
 31
0.0
  0
LINE
  5
C6
330
4F2
100
AcDbEntity
  8
LEGEND
  6
Continuous
 62
     7
370
    30
100
AcDbLine
 10
2.177542
 20
-8.553208
 30
0.0
 11
2.718781
 21
-9.094437
 31
0.0
  0
LINE
  5
C7
330
4F2
100
AcDbEntity
  8
LEGEND
  6
Continuous
 62
     7
370
    30
100
AcDbLine
 10
2.837979
 20
-9.213635
 30
0.0
 11
3.105927
 21
-9.481594
 31
0.0
  0
LINE
  5
C8
330
4F2
100
AcDbEntity
  8
LEGEND
  6
Continuous
 62
     7
370
    30
100
AcDbLine
 10
2.180687
 20
-8.552812
 30
0.0
 11
2.717594
 21
-9.089719
 31
0.0
  0
LINE
  5
C9
330
4F2
100
AcDbEntity
  8
LEGEND
  6
Continuous
 62
     7
370
    30
100
AcDbLine
 10
2.843844
 20
-9.215969
 30
0.0
 11
3.108802
 21
-9.480927
 31
0.0
  0
LINE
  5
CA
330
4F2
100
AcDbEntity
  8
LEGEND
  6
Continuous
 62
     7
370
    30
100
AcDbLine
 10
2.183823
 20
-8.552417
 30
0.0
 11
2.716417
 21
-9.08501
 31
0.0
  0
LINE
  5
CB
330
4F2
100
AcDbEntity
  8
LEGEND
  6
Continuous
 62
     7
370
    30
100
AcDbLine
 10
2.849719
 20
-9.218312
 30
0.0
 11
3.111677
 21
-9.480271
 31
0.0
  0
LINE
  5
CC
330
4F2
100
AcDbEntity
  8
LEGEND
  6
Continuous
 62
     7
370
    30
100
AcDbLine
 10
2.186969
 20
-8.552021
 30
0.0
 11
2.71524
 21
-9.080292
 31
0.0
  0
LINE
  5
CD
330
4F2
100
AcDbEntity
  8
LEGEND
  6
Continuous
 62
     7
370
    30
100
AcDbLine
 10
2.855594
 20
-9.220646
 30
0.0
 11
3.114552
 21
-9.479604
 31
0.0
  0
LINE
  5
CE
330
4F2
100
AcDbEntity
  8
LEGEND
  6
Continuous
 62
     7
370
    30
100
AcDbLine
 10
2.190115
 20
-8.551625
 30
0.0
 11
2.714062
 21
-9.075583
 31
0.0
  0
LINE
  5
CF
330
4F2
100
AcDbEntity
  8
LEGEND
  6
Continuous
 62
     7
370
    30
100
AcDbLine
 10
2.861469
 20
-9.22299
 30
0.0
 11
3.117427
 21
-9.478948
 31
0.0
  0
LINE
  5
D0
330
4F2
100
AcDbEntity
  8
LEGEND
  6
Continuous
 62
     7
370
    30
100
AcDbLine
 10
2.19325
 20
-8.551229
 30
0.0
 11
2.712885
 21
-9.070865
 31
0.0
  0
LINE
  5
D1
330
4F2
100
AcDbEntity
  8
LEGEND
  6
Continuous
 62
     7
370
    30
100
AcDbLine
 10
2.867344
 20
-9.225323
 30
0.0
 11
3.120302
 21
-9.478292
 31
0.0
  0
LINE
  5
D2
330
4F2
100
AcDbEntity
  8
LEGEND
  6
Continuous
 62
     7
370
    30
100
AcDbLine
 10
2.196396
 20
-8.550833
 30
0.0
 11
2.711708
 21
-9.066156
 31
0.0
  0
LINE
  5
D3
330
4F2
100
AcDbEntity
  8
LEGEND
  6
Continuous
 62
     7
370
    30
100
AcDbLine
 10
2.873219
 20
-9.227667
 30
0.0
 11
3.123177
 21
-9.477625
 31
0.0
  0
LINE
  5
D4
330
4F2
100
AcDbEntity
  8
LEGEND
  6
Continuous
 62
     7
370
    30
100
AcDbLine
 10
2.199531
 20
-8.550448
 30
0.0
 11
2.710531
 21
-9.061438
 31
0.0
  0
LINE
  5
D5
330
4F2
100
AcDbEntity
  8
LEGEND
  6
Continuous
 62
     7
370
    30
100
AcDbLine
 10
2.879094
 20
-9.23
 30
0.0
 11
3.126052
 21
-9.476969
 31
0.0
  0
LINE
  5
D6
330
4F2
100
AcDbEntity
  8
LEGEND
  6
Continuous
 62
     7
370
    30
100
AcDbLine
 10
2.202677
 20
-8.550052
 30
0.0
 11
2.709344
 21
-9.056719
 31
0.0
  0
LINE
  5
D7
330
4F2
100
AcDbEntity
  8
LEGEND
  6
Continuous
 62
     7
370
    30
100
AcDbLine
 10
2.884969
 20
-9.232344
 30
0.0
 11
3.128927
 21
-9.476302
 31
0.0
  0
LINE
  5
D8
330
4F2
100
AcDbEntity
  8
LEGEND
  6
Continuous
 62
     7
370
    30
100
AcDbLine
 10
2.205812
 20
-8.549656
 30
0.0
 11
2.708167
 21
-9.05201
 31
0.0
  0
LINE
  5
D9
330
4F2
100
AcDbEntity
  8
LEGEND
  6
Continuous
 62
     7
370
    30
100
AcDbLine
 10
2.890844
 20
-9.234677
 30
0.0
 11
3.131802
 21
-9.475646
 31
0.0
  0
LINE
  5
DA
330
4F2
100
AcDbEntity
  8
LEGEND
  6
Continuous
 62
     7
370
    30
100
AcDbLine
 10
2.208958
 20
-8.54926
 30
0.0
 11
2.707781
 21
-9.048083
 31
0.0
  0
LINE
  5
DB
330
4F2
100
AcDbEntity
  8
LEGEND
  6
Continuous
 62
     7
370
    30
100
AcDbLine
 10
2.896719
 20
-9.237021
 30
0.0
 11
3.134677
 21
-9.474979
 31
0.0
  0
LINE
  5
DC
330
4F2
100
AcDbEntity
  8
LEGEND
  6
Continuous
 62
     7
370
    30
100
AcDbLine
 10
2.212094
 20
-8.548865
 30
0.0
 11
2.707458
 21
-9.044229
 31
0.0
  0
LINE
  5
DD
330
4F2
100
AcDbEntity
  8
LEGEND
  6
Continuous
 62
     7
370
    30
100
AcDbLine
 10
2.902594
 20
-9.239354
 30
0.0
 11
3.137552
 21
-9.474323
 31
0.0
  0
LINE
  5
DE
330
4F2
100
AcDbEntity
  8
LEGEND
  6
Continuous
 62
     7
370
    30
100
AcDbLine
 10
2.21524
 20
-8.548469
 30
0.0
 11
2.707135
 21
-9.040375
 31
0.0
  0
LINE
  5
DF
330
4F2
100
AcDbEntity
  8
LEGEND
  6
Continuous
 62
     7
370
    30
100
AcDbLine
 10
2.908458
 20
-9.241698
 30
0.0
 11
3.140427
 21
-9.473667
 31
0.0
  0
LINE
  5
E0
330
4F2
100
AcDbEntity
  8
LEGEND
  6
Continuous
 62
     7
370
    30
100
AcDbLine
 10
2.218375
 20
-8.548073
 30
0.0
 11
2.706812
 21
-9.03651
 31
0.0
  0
LINE
  5
E1
330
4F2
100
AcDbEntity
  8
LEGEND
  6
Continuous
 62
     7
370
    30
100
AcDbLine
 10
2.914333
 20
-9.244031
 30
0.0
 11
3.143302
 21
-9.473
 31
0.0
  0
LINE
  5
E2
330
4F2
100
AcDbEntity
  8
LEGEND
  6
Continuous
 62
     7
370
    30
100
AcDbLine
 10
2.221521
 20
-8.547688
 30
0.0
 11
2.7065
 21
-9.032656
 31
0.0
  0
LINE
  5
E3
330
4F2
100
AcDbEntity
  8
LEGEND
  6
Continuous
 62
     7
370
    30
100
AcDbLine
 10
2.920208
 20
-9.246375
 30
0.0
 11
3.146177
 21
-9.472344
 31
0.0
  0
LINE
  5
E4
330
4F2
100
AcDbEntity
  8
LEGEND
  6
Continuous
 62
     7
370
    30
100
AcDbLine
 10
2.224667
 20
-8.547292
 30
0.0
 11
2.706177
 21
-9.028802
 31
0.0
  0
LINE
  5
E5
330
4F2
100
AcDbEntity
  8
LEGEND
  6
Continuous
 62
     7
370
    30
100
AcDbLine
 10
2.926083
 20
-9.248708
 30
0.0
 11
3.149052
 21
-9.471677
 31
0.0
  0
LINE
  5
E6
330
4F2
100
AcDbEntity
  8
LEGEND
  6
Continuous
 62
     7
370
    30
100
AcDbLine
 10
2.227802
 20
-8.546896
 30
0.0
 11
2.705854
 21
-9.024948
 31
0.0
  0
LINE
  5
E7
330
4F2
100
AcDbEntity
  8
LEGEND
  6
Continuous
 62
     7
370
    30
100
AcDbLine
 10
2.931958
 20
-9.251052
 30
0.0
 11
3.151927
 21
-9.471021
 31
0.0
  0
LINE
  5
E8
330
4F2
100
AcDbEntity
  8
LEGEND
  6
Continuous
 62
     7
370
    30
100
AcDbLine
 10
2.230948
 20
-8.5465
 30
0.0
 11
2.705531
 21
-9.021083
 31
0.0
  0
LINE
  5
E9
330
4F2
100
AcDbEntity
  8
LEGEND
  6
Continuous
 62
     7
370
    30
100
AcDbLine
 10
2.937833
 20
-9.253385
 30
0.0
 11
3.154802
 21
-9.470354
 31
0.0
  0
LINE
  5
EA
330
4F2
100
AcDbEntity
  8
LEGEND
  6
Continuous
 62
     7
370
    30
100
AcDbLine
 10
2.234083
 20
-8.546104
 30
0.0
 11
2.705208
 21
-9.017229
 31
0.0
  0
LINE
  5
EB
330
4F2
100
AcDbEntity
  8
LEGEND
  6
Continuous
 62
     7
370
    30
100
AcDbLine
 10
2.943708
 20
-9.255729
 30
0.0
 11
3.157677
 21
-9.469698
 31
0.0
  0
LINE
  5
EC
330
4F2
100
AcDbEntity
  8
LEGEND
  6
Continuous
 62
     7
370
    30
100
AcDbLine
 10
2.237229
 20
-8.545708
 30
0.0
 11
2.704885
 21
-9.013375
 31
0.0
  0
LINE
  5
ED
330
4F2
100
AcDbEntity
  8
LEGEND
  6
Continuous
 62
     7
370
    30
100
AcDbLine
 10
2.949583
 20
-9.258062
 30
0.0
 11
3.160552
 21
-9.469042
 31
0.0
  0
LINE
  5
EE
330
4F2
100
AcDbEntity
  8
LEGEND
  6
Continuous
 62
     7
370
    30
100
AcDbLine
 10
2.240365
 20
-8.545312
 30
0.0
 11
2.704573
 21
-9.009521
 31
0.0
  0
LINE
  5
EF
330
4F2
100
AcDbEntity
  8
LEGEND
  6
Continuous
 62
     7
370
    30
100
AcDbLine
 10
2.955458
 20
-9.260406
 30
0.0
 11
3.163427
 21
-9.468375
 31
0.0
  0
LINE
  5
F0
330
4F2
100
AcDbEntity
  8
LEGEND
  6
Continuous
 62
     7
370
    30
100
AcDbLine
 10
2.24351
 20
-8.544927
 30
0.0
 11
2.70425
 21
-9.005656
 31
0.0
  0
LINE
  5
F1
330
4F2
100
AcDbEntity
  8
LEGEND
  6
Continuous
 62
     7
370
    30
100
AcDbLine
 10
2.961333
 20
-9.26274
 30
0.0
 11
3.166302
 21
-9.467719
 31
0.0
  0
LINE
  5
F2
330
4F2
100
AcDbEntity
  8
LEGEND
  6
Continuous
 62
     7
370
    30
100
AcDbLine
 10
2.246646
 20
-8.544531
 30
0.0
 11
2.703927
 21
-9.001802
 31
0.0
  0
LINE
  5
F3
330
4F2
100
AcDbEntity
  8
LEGEND
  6
Continuous
 62
     7
370
    30
100
AcDbLine
 10
2.967208
 20
-9.265083
 30
0.0
 11
3.169177
 21
-9.467052
 31
0.0
  0
LINE
  5
F4
330
4F2
100
AcDbEntity
  8
LEGEND
  6
Continuous
 62
     7
370
    30
100
AcDbLine
 10
2.249792
 20
-8.544135
 30
0.0
 11
2.703604
 21
-8.997948
 31
0.0
  0
LINE
  5
F5
330
4F2
100
AcDbEntity
  8
LEGEND
  6
Continuous
 62
     7
370
    30
100
AcDbLine
 10
2.973073
 20
-9.267417
 30
0.0
 11
3.172052
 21
-9.466396
 31
0.0
  0
LINE
  5
F6
330
4F2
100
AcDbEntity
  8
LEGEND
  6
Continuous
 62
     7
370
    30
100
AcDbLine
 10
2.252927
 20
-8.54374
 30
0.0
 11
2.703281
 21
-8.994094
 31
0.0
  0
LINE
  5
F7
330
4F2
100
AcDbEntity
  8
LEGEND
  6
Continuous
 62
     7
370
    30
100
AcDbLine
 10
2.978948
 20
-9.26976
 30
0.0
 11
3.174927
 21
-9.465729
 31
0.0
  0
LINE
  5
F8
330
4F2
100
AcDbEntity
  8
LEGEND
  6
Continuous
 62
     7
370
    30
100
AcDbLine
 10
2.256073
 20
-8.543344
 30
0.0
 11
2.702958
 21
-8.990229
 31
0.0
  0
LINE
  5
F9
330
4F2
100
AcDbEntity
  8
LEGEND
  6
Continuous
 62
     7
370
    30
100
AcDbLine
 10
2.984823
 20
-9.272094
 30
0.0
 11
3.177802
 21
-9.465073
 31
0.0
  0
LINE
  5
FA
330
4F2
100
AcDbEntity
  8
LEGEND
  6
Continuous
 62
     7
370
    30
100
AcDbLine
 10
2.259219
 20
-8.542948
 30
0.0
 11
2.702635
 21
-8.986375
 31
0.0
  0
LINE
  5
FB
330
4F2
100
AcDbEntity
  8
LEGEND
  6
Continuous
 62
     7
370
    30
100
AcDbLine
 10
2.990698
 20
-9.274437
 30
0.0
 11
3.180677
 21
-9.464417
 31
0.0
  0
LINE
  5
FC
330
4F2
100
AcDbEntity
  8
LEGEND
  6
Continuous
 62
     7
370
    30
100
AcDbLine
 10
2.262354
 20
-8.542552
 30
0.0
 11
2.702979
 21
-8.983177
 31
0.0
  0
LINE
  5
FD
330
4F2
100
AcDbEntity
  8
LEGEND
  6
Continuous
 62
     7
370
    30
100
AcDbLine
 10
2.996573
 20
-9.276771
 30
0.0
 11
3.183552
 21
-9.46375
 31
0.0
  0
LINE
  5
FE
330
4F2
100
AcDbEntity
  8
LEGEND
  6
Continuous
 62
     7
370
    30
100
AcDbLine
 10
2.2655
 20
-8.542156
 30
0.0
 11
2.703375
 21
-8.980042
 31
0.0
  0
LINE
  5
FF
330
4F2
100
AcDbEntity
  8
LEGEND
  6
Continuous
 62
     7
370
    30
100
AcDbLine
 10
3.002448
 20
-9.279115
 30
0.0
 11
3.186427
 21
-9.463094
 31
0.0
  0
LINE
  5
100
330
4F2
100
AcDbEntity
  8
LEGEND
  6
Continuous
 62
     7
370
    30
100
AcDbLine
 10
2.268635
 20
-8.541771
 30
0.0
 11
2.703771
 21
-8.976896
 31
0.0
  0
LINE
  5
101
330
4F2
100
AcDbEntity
  8
LEGEND
  6
Continuous
 62
     7
370
    30
100
AcDbLine
 10
3.008323
 20
-9.281448
 30
0.0
 11
3.189302
 21
-9.462427
 31
0.0
  0
LINE
  5
102
330
4F2
100
AcDbEntity
  8
LEGEND
  6
Continuous
 62
     7
370
    30
100
AcDbLine
 10
2.273406
 20
-8.543
 30
0.0
 11
2.704156
 21
-8.97375
 31
0.0
  0
LINE
  5
103
330
4F2
100
AcDbEntity
  8
LEGEND
  6
Continuous
 62
     7
370
    30
100
AcDbLine
 10
3.014198
 20
-9.283792
 30
0.0
 11
3.192177
 21
-9.461771
 31
0.0
  0
LINE
  5
104
330
4F2
100
AcDbEntity
  8
LEGEND
  6
Continuous
 62
     7
370
    30
100
AcDbLine
 10
2.279365
 20
-8.545427
 30
0.0
 11
2.704552
 21
-8.970615
 31
0.0
  0
LINE
  5
105
330
4F2
100
AcDbEntity
  8
LEGEND
  6
Continuous
 62
     7
370
    30
100
AcDbLine
 10
3.020073
 20
-9.286125
 30
0.0
 11
3.195052
 21
-9.461104
 31
0.0
  0
LINE
  5
106
330
4F2
100
AcDbEntity
  8
LEGEND
  6
Continuous
 62
     7
370
    30
100
AcDbLine
 10
2.285323
 20
-8.547844
 30
0.0
 11
2.704948
 21
-8.967469
 31
0.0
  0
LINE
  5
107
330
4F2
100
AcDbEntity
  8
LEGEND
  6
Continuous
 62
     7
370
    30
100
AcDbLine
 10
3.025948
 20
-9.288469
 30
0.0
 11
3.197927
 21
-9.460448
 31
0.0
  0
LINE
  5
108
330
4F2
100
AcDbEntity
  8
LEGEND
  6
Continuous
 62
     7
370
    30
100
AcDbLine
 10
2.291281
 20
-8.55026
 30
0.0
 11
2.705333
 21
-8.964323
 31
0.0
  0
LINE
  5
109
330
4F2
100
AcDbEntity
  8
LEGEND
  6
Continuous
 62
     7
370
    30
100
AcDbLine
 10
3.031823
 20
-9.290802
 30
0.0
 11
3.200802
 21
-9.459792
 31
0.0
  0
LINE
  5
10A
330
4F2
100
AcDbEntity
  8
LEGEND
  6
Continuous
 62
     7
370
    30
100
AcDbLine
 10
2.297229
 20
-8.552687
 30
0.0
 11
2.705729
 21
-8.961177
 31
0.0
  0
LINE
  5
10B
330
4F2
100
AcDbEntity
  8
LEGEND
  6
Continuous
 62
     7
370
    30
100
AcDbLine
 10
3.037688
 20
-9.293146
 30
0.0
 11
3.203677
 21
-9.459125
 31
0.0
  0
LINE
  5
10C
330
4F2
100
AcDbEntity
  8
LEGEND
  6
Continuous
 62
     7
370
    30
100
AcDbLine
 10
2.303187
 20
-8.555104
 30
0.0
 11
2.706125
 21
-8.958042
 31
0.0
  0
LINE
  5
10D
330
4F2
100
AcDbEntity
  8
LEGEND
  6
Continuous
 62
     7
370
    30
100
AcDbLine
 10
3.043562
 20
-9.295479
 30
0.0
 11
3.206552
 21
-9.458469
 31
0.0
  0
LINE
  5
10E
330
4F2
100
AcDbEntity
  8
LEGEND
  6
Continuous
 62
     7
370
    30
100
AcDbLine
 10
2.309146
 20
-8.557531
 30
0.0
 11
2.706521
 21
-8.954896
 31
0.0
  0
LINE
  5
10F
330
4F2
100
AcDbEntity
  8
LEGEND
  6
Continuous
 62
     7
370
    30
100
AcDbLine
 10
3.049437
 20
-9.297823
 30
0.0
 11
3.209427
 21
-9.457802
 31
0.0
  0
LINE
  5
110
330
4F2
100
AcDbEntity
  8
LEGEND
  6
Continuous
 62
     7
370
    30
100
AcDbLine
 10
2.315104
 20
-8.559948
 30
0.0
 11
2.706906
 21
-8.95175
 31
0.0
  0
LINE
  5
111
330
4F2
100
AcDbEntity
  8
LEGEND
  6
Continuous
 62
     7
370
    30
100
AcDbLine
 10
3.055312
 20
-9.300156
 30
0.0
 11
3.212302
 21
-9.457146
 31
0.0
  0
LINE
  5
112
330
4F2
100
AcDbEntity
  8
LEGEND
  6
Continuous
 62
     7
370
    30
100
AcDbLine
 10
2.321063
 20
-8.562365
 30
0.0
 11
2.707302
 21
-8.948615
 31
0.0
  0
LINE
  5
113
330
4F2
100
AcDbEntity
  8
LEGEND
  6
Continuous
 62
     7
370
    30
100
AcDbLine
 10
3.061187
 20
-9.3025
 30
0.0
 11
3.215177
 21
-9.456479
 31
0.0
  0
LINE
  5
114
330
4F2
100
AcDbEntity
  8
LEGEND
  6
Continuous
 62
     7
370
    30
100
AcDbLine
 10
2.327021
 20
-8.564792
 30
0.0
 11
2.707698
 21
-8.945469
 31
0.0
  0
LINE
  5
115
330
4F2
100
AcDbEntity
  8
LEGEND
  6
Continuous
 62
     7
370
    30
100
AcDbLine
 10
3.067063
 20
-9.304833
 30
0.0
 11
3.218052
 21
-9.455823
 31
0.0
  0
LINE
  5
116
330
4F2
100
AcDbEntity
  8
LEGEND
  6
Continuous
 62
     7
370
    30
100
AcDbLine
 10
2.332969
 20
-8.567208
 30
0.0
 11
2.708083
 21
-8.942323
 31
0.0
  0
LINE
  5
117
330
4F2
100
AcDbEntity
  8
LEGEND
  6
Continuous
 62
     7
370
    30
100
AcDbLine
 10
3.072938
 20
-9.307177
 30
0.0
 11
3.220927
 21
-9.455167
 31
0.0
  0
LINE
  5
118
330
4F2
100
AcDbEntity
  8
LEGEND
  6
Continuous
 62
     7
370
    30
100
AcDbLine
 10
2.338927
 20
-8.569635
 30
0.0
 11
2.708479
 21
-8.939187
 31
0.0
  0
LINE
  5
119
330
4F2
100
AcDbEntity
  8
LEGEND
  6
Continuous
 62
     7
370
    30
100
AcDbLine
 10
3.078812
 20
-9.30951
 30
0.0
 11
3.223802
 21
-9.4545
 31
0.0
  0
LINE
  5
11A
330
4F2
100
AcDbEntity
  8
LEGEND
  6
Continuous
 62
     7
370
    30
100
AcDbLine
 10
2.344885
 20
-8.572052
 30
0.0
 11
2.708875
 21
-8.936042
 31
0.0
  0
LINE
  5
11B
330
4F2
100
AcDbEntity
  8
LEGEND
  6
Continuous
 62
     7
370
    30
100
AcDbLine
 10
3.084687
 20
-9.311854
 30
0.0
 11
3.226677
 21
-9.453844
 31
0.0
  0
LINE
  5
11C
330
4F2
100
AcDbEntity
  8
LEGEND
  6
Continuous
 62
     7
370
    30
100
AcDbLine
 10
2.350844
 20
-8.574469
 30
0.0
 11
2.709271
 21
-8.932896
 31
0.0
  0
LINE
  5
11D
330
4F2
100
AcDbEntity
  8
LEGEND
  6
Continuous
 62
     7
370
    30
100
AcDbLine
 10
3.090562
 20
-9.314187
 30
0.0
 11
3.229552
 21
-9.453177
 31
0.0
  0
LINE
  5
11E
330
4F2
100
AcDbEntity
  8
LEGEND
  6
Continuous
 62
     7
370
    30
100
AcDbLine
 10
2.356802
 20
-8.576896
 30
0.0
 11
2.709656
 21
-8.92975
 31
0.0
  0
LINE
  5
11F
330
4F2
100
AcDbEntity
  8
LEGEND
  6
Continuous
 62
     7
370
    30
100
AcDbLine
 10
3.096437
 20
-9.316531
 30
0.0
 11
3.232427
 21
-9.452521
 31
0.0
  0
LINE
  5
120
330
4F2
100
AcDbEntity
  8
LEGEND
  6
Continuous
 62
     7
370
    30
100
AcDbLine
 10
2.36275
 20
-8.579313
 30
0.0
 11
2.710052
 21
-8.926615
 31
0.0
  0
LINE
  5
121
330
4F2
100
AcDbEntity
  8
LEGEND
  6
Continuous
 62
     7
370
    30
100
AcDbLine
 10
3.102302
 20
-9.318865
 30
0.0
 11
3.235302
 21
-9.451865
 31
0.0
  0
LINE
  5
122
330
4F2
100
AcDbEntity
  8
LEGEND
  6
Continuous
 62
     7
370
    30
100
AcDbLine
 10
2.368708
 20
-8.58174
 30
0.0
 11
2.710448
 21
-8.923469
 31
0.0
  0
LINE
  5
123
330
4F2
100
AcDbEntity
  8
LEGEND
  6
Continuous
 62
     7
370
    30
100
AcDbLine
 10
3.108177
 20
-9.321208
 30
0.0
 11
3.238177
 21
-9.451198
 31
0.0
  0
LINE
  5
124
330
4F2
100
AcDbEntity
  8
LEGEND
  6
Continuous
 62
     7
370
    30
100
AcDbLine
 10
2.374667
 20
-8.584156
 30
0.0
 11
2.710833
 21
-8.920323
 31
0.0
  0
LINE
  5
125
330
4F2
100
AcDbEntity
  8
LEGEND
  6
Continuous
 62
     7
370
    30
100
AcDbLine
 10
3.114052
 20
-9.323542
 30
0.0
 11
3.241052
 21
-9.450542
 31
0.0
  0
LINE
  5
126
330
4F2
100
AcDbEntity
  8
LEGEND
  6
Continuous
 62
     7
370
    30
100
AcDbLine
 10
2.380625
 20
-8.586573
 30
0.0
 11
2.711229
 21
-8.917187
 31
0.0
  0
LINE
  5
127
330
4F2
100
AcDbEntity
  8
LEGEND
  6
Continuous
 62
     7
370
    30
100
AcDbLine
 10
3.119927
 20
-9.325885
 30
0.0
 11
3.243927
 21
-9.449875
 31
0.0
  0
LINE
  5
128
330
4F2
100
AcDbEntity
  8
LEGEND
  6
Continuous
 62
     7
370
    30
100
AcDbLine
 10
2.386583
 20
-8.589
 30
0.0
 11
2.711625
 21
-8.914042
 31
0.0
  0
LINE
  5
129
330
4F2
100
AcDbEntity
  8
LEGEND
  6
Continuous
 62
     7
370
    30
100
AcDbLine
 10
3.125802
 20
-9.328219
 30
0.0
 11
3.246802
 21
-9.449219
 31
0.0
  0
LINE
  5
12A
330
4F2
100
AcDbEntity
  8
LEGEND
  6
Continuous
 62
     7
370
    30
100
AcDbLine
 10
2.392531
 20
-8.591417
 30
0.0
 11
2.712021
 21
-8.910896
 31
0.0
  0
LINE
  5
12B
330
4F2
100
AcDbEntity
  8
LEGEND
  6
Continuous
 62
     7
370
    30
100
AcDbLine
 10
3.131677
 20
-9.330562
 30
0.0
 11
3.249677
 21
-9.448552
 31
0.0
  0
LINE
  5
12C
330
4F2
100
AcDbEntity
  8
LEGEND
  6
Continuous
 62
     7
370
    30
100
AcDbLine
 10
2.39849
 20
-8.593844
 30
0.0
 11
2.712406
 21
-8.90776
 31
0.0
  0
LINE
  5
12D
330
4F2
100
AcDbEntity
  8
LEGEND
  6
Continuous
 62
     7
370
    30
100
AcDbLine
 10
3.137552
 20
-9.332896
 30
0.0
 11
3.252552
 21
-9.447896
 31
0.0
  0
LINE
  5
12E
330
4F2
100
AcDbEntity
  8
LEGEND
  6
Continuous
 62
     7
370
    30
100
AcDbLine
 10
2.404448
 20
-8.59626
 30
0.0
 11
2.712802
 21
-8.904615
 31
0.0
  0
LINE
  5
12F
330
4F2
100
AcDbEntity
  8
LEGEND
  6
Continuous
 62
     7
370
    30
100
AcDbLine
 10
3.143427
 20
-9.33524
 30
0.0
 11
3.255427
 21
-9.44724
 31
0.0
  0
LINE
  5
130
330
4F2
100
AcDbEntity
  8
LEGEND
  6
Continuous
 62
     7
370
    30
100
AcDbLine
 10
2.410406
 20
-8.598677
 30
0.0
 11
2.713198
 21
-8.901469
 31
0.0
  0
LINE
  5
131
330
4F2
100
AcDbEntity
  8
LEGEND
  6
Continuous
 62
     7
370
    30
100
AcDbLine
 10
3.149302
 20
-9.337573
 30
0.0
 11
3.258302
 21
-9.446573
 31
0.0
  0
LINE
  5
132
330
4F2
100
AcDbEntity
  8
LEGEND
  6
Continuous
 62
     7
370
    30
100
AcDbLine
 10
2.416365
 20
-8.601104
 30
0.0
 11
2.713594
 21
-8.898333
 31
0.0
  0
LINE
  5
133
330
4F2
100
AcDbEntity
  8
LEGEND
  6
Continuous
 62
     7
370
    30
100
AcDbLine
 10
3.155177
 20
-9.339917
 30
0.0
 11
3.261177
 21
-9.445917
 31
0.0
  0
LINE
  5
134
330
4F2
100
AcDbEntity
  8
LEGEND
  6
Continuous
 62
     7
370
    30
100
AcDbLine
 10
2.422323
 20
-8.603521
 30
0.0
 11
2.714031
 21
-8.89524
 31
0.0
  0
LINE
  5
135
330
4F2
100
AcDbEntity
  8
LEGEND
  6
Continuous
 62
     7
370
    30
100
AcDbLine
 10
3.161052
 20
-9.34225
 30
0.0
 11
3.264052
 21
-9.44525
 31
0.0
  0
LINE
  5
136
330
4F2
100
AcDbEntity
  8
LEGEND
  6
Continuous
 62
     7
370
    30
100
AcDbLine
 10
2.428271
 20
-8.605948
 30
0.0
 11
2.714479
 21
-8.892146
 31
0.0
  0
LINE
  5
137
330
4F2
100
AcDbEntity
  8
LEGEND
  6
Continuous
 62
     7
370
    30
100
AcDbLine
 10
3.166917
 20
-9.344594
 30
0.0
 11
3.266927
 21
-9.444594
 31
0.0
  0
LINE
  5
138
330
4F2
100
AcDbEntity
  8
LEGEND
  6
Continuous
 62
     7
370
    30
100
AcDbLine
 10
2.434229
 20
-8.608365
 30
0.0
 11
2.714917
 21
-8.889052
 31
0.0
  0
LINE
  5
139
330
4F2
100
AcDbEntity
  8
LEGEND
  6
Continuous
 62
     7
370
    30
100
AcDbLine
 10
3.172792
 20
-9.346927
 30
0.0
 11
3.269802
 21
-9.443927
 31
0.0
  0
LINE
  5
13A
330
4F2
100
AcDbEntity
  8
LEGEND
  6
Continuous
 62
     7
370
    30
100
AcDbLine
 10
2.440187
 20
-8.610781
 30
0.0
 11
2.715365
 21
-8.885958
 31
0.0
  0
LINE
  5
13B
330
4F2
100
AcDbEntity
  8
LEGEND
  6
Continuous
 62
     7
370
    30
100
AcDbLine
 10
3.178667
 20
-9.349271
 30
0.0
 11
3.272677
 21
-9.443271
 31
0.0
  0
LINE
  5
13C
330
4F2
100
AcDbEntity
  8
LEGEND
  6
Continuous
 62
     7
370
    30
100
AcDbLine
 10
2.446146
 20
-8.613208
 30
0.0
 11
2.715802
 21
-8.882865
 31
0.0
  0
LINE
  5
13D
330
4F2
100
AcDbEntity
  8
LEGEND
  6
Continuous
 62
     7
370
    30
100
AcDbLine
 10
3.184542
 20
-9.351604
 30
0.0
 11
3.275552
 21
-9.442615
 31
0.0
  0
LINE
  5
13E
330
4F2
100
AcDbEntity
  8
LEGEND
  6
Continuous
 62
     7
370
    30
100
AcDbLine
 10
2.452104
 20
-8.615625
 30
0.0
 11
2.71624
 21
-8.879771
 31
0.0
  0
LINE
  5
13F
330
4F2
100
AcDbEntity
  8
LEGEND
  6
Continuous
 62
     7
370
    30
100
AcDbLine
 10
3.190417
 20
-9.353948
 30
0.0
 11
3.278427
 21
-9.441948
 31
0.0
  0
LINE
  5
140
330
4F2
100
AcDbEntity
  8
LEGEND
  6
Continuous
 62
     7
370
    30
100
AcDbLine
 10
2.458052
 20
-8.618052
 30
0.0
 11
2.716687
 21
-8.876677
 31
0.0
  0
LINE
  5
141
330
4F2
100
AcDbEntity
  8
LEGEND
  6
Continuous
 62
     7
370
    30
100
AcDbLine
 10
3.196292
 20
-9.356281
 30
0.0
 11
3.281292
 21
-9.441292
 31
0.0
  0
LINE
  5
142
330
4F2
100
AcDbEntity
  8
LEGEND
  6
Continuous
 62
     7
370
    30
100
AcDbLine
 10
2.46401
 20
-8.620469
 30
0.0
 11
2.717125
 21
-8.873583
 31
0.0
  0
LINE
  5
143
330
4F2
100
AcDbEntity
  8
LEGEND
  6
Continuous
 62
     7
370
    30
100
AcDbLine
 10
3.202167
 20
-9.358625
 30
0.0
 11
3.284167
 21
-9.440625
 31
0.0
  0
LINE
  5
144
330
4F2
100
AcDbEntity
  8
LEGEND
  6
Continuous
 62
     7
370
    30
100
AcDbLine
 10
2.469969
 20
-8.622885
 30
0.0
 11
2.717573
 21
-8.87049
 31
0.0
  0
LINE
  5
145
330
4F2
100
AcDbEntity
  8
LEGEND
  6
Continuous
 62
     7
370
    30
100
AcDbLine
 10
3.208042
 20
-9.360958
 30
0.0
 11
3.287042
 21
-9.439969
 31
0.0
  0
LINE
  5
146
330
4F2
100
AcDbEntity
  8
LEGEND
  6
Continuous
 62
     7
370
    30
100
AcDbLine
 10
2.475927
 20
-8.625312
 30
0.0
 11
2.71801
 21
-8.867396
 31
0.0
  0
LINE
  5
147
330
4F2
100
AcDbEntity
  8
LEGEND
  6
Continuous
 62
     7
370
    30
100
AcDbLine
 10
3.213917
 20
-9.363302
 30
0.0
 11
3.289917
 21
-9.439302
 31
0.0
  0
LINE
  5
148
330
4F2
100
AcDbEntity
  8
LEGEND
  6
Continuous
 62
     7
370
    30
100
AcDbLine
 10
2.481885
 20
-8.627729
 30
0.0
 11
2.718458
 21
-8.864302
 31
0.0
  0
LINE
  5
149
330
4F2
100
AcDbEntity
  8
LEGEND
  6
Continuous
 62
     7
370
    30
100
AcDbLine
 10
3.219792
 20
-9.365635
 30
0.0
 11
3.292792
 21
-9.438646
 31
0.0
  0
LINE
  5
14A
330
4F2
100
AcDbEntity
  8
LEGEND
  6
Continuous
 62
     7
370
    30
100
AcDbLine
 10
2.487844
 20
-8.630156
 30
0.0
 11
2.718896
 21
-8.861208
 31
0.0
  0
LINE
  5
14B
330
4F2
100
AcDbEntity
  8
LEGEND
  6
Continuous
 62
     7
370
    30
100
AcDbLine
 10
3.225667
 20
-9.367979
 30
0.0
 11
3.295667
 21
-9.43799
 31
0.0
  0
LINE
  5
14C
330
4F2
100
AcDbEntity
  8
LEGEND
  6
Continuous
 62
     7
370
    30
100
AcDbLine
 10
2.493792
 20
-8.632573
 30
0.0
 11
2.717656
 21
-8.856427
 31
0.0
  0
LINE
  5
14D
330
4F2
100
AcDbEntity
  8
LEGEND
  6
Continuous
 62
     7
370
    30
100
AcDbLine
 10
3.231531
 20
-9.370312
 30
0.0
 11
3.298542
 21
-9.437323
 31
0.0
  0
LINE
  5
14E
330
4F2
100
AcDbEntity
  8
LEGEND
  6
Continuous
 62
     7
370
    30
100
AcDbLine
 10
2.49975
 20
-8.63499
 30
0.0
 11
2.715885
 21
-8.851125
 31
0.0
  0
LINE
  5
14F
330
4F2
100
AcDbEntity
  8
LEGEND
  6
Continuous
 62
     7
370
    30
100
AcDbLine
 10
3.237406
 20
-9.372656
 30
0.0
 11
3.301417
 21
-9.436667
 31
0.0
  0
LINE
  5
150
330
4F2
100
AcDbEntity
  8
LEGEND
  6
Continuous
 62
     7
370
    30
100
AcDbLine
 10
2.505708
 20
-8.637417
 30
0.0
 11
2.714115
 21
-8.845823
 31
0.0
  0
LINE
  5
151
330
4F2
100
AcDbEntity
  8
LEGEND
  6
Continuous
 62
     7
370
    30
100
AcDbLine
 10
3.243281
 20
-9.37499
 30
0.0
 11
3.304292
 21
-9.436
 31
0.0
  0
LINE
  5
152
330
4F2
100
AcDbEntity
  8
LEGEND
  6
Continuous
 62
     7
370
    30
100
AcDbLine
 10
2.511667
 20
-8.639833
 30
0.0
 11
2.712354
 21
-8.840521
 31
0.0
  0
LINE
  5
153
330
4F2
100
AcDbEntity
  8
LEGEND
  6
Continuous
 62
     7
370
    30
100
AcDbLine
 10
3.249156
 20
-9.377333
 30
0.0
 11
3.307167
 21
-9.435344
 31
0.0
  0
LINE
  5
154
330
4F2
100
AcDbEntity
  8
LEGEND
  6
Continuous
 62
     7
370
    30
100
AcDbLine
 10
2.517625
 20
-8.64226
 30
0.0
 11
2.710583
 21
-8.835219
 31
0.0
  0
LINE
  5
155
330
4F2
100
AcDbEntity
  8
LEGEND
  6
Continuous
 62
     7
370
    30
100
AcDbLine
 10
3.255354
 20
-9.37999
 30
0.0
 11
3.310042
 21
-9.434677
 31
0.0
  0
LINE
  5
156
330
4F2
100
AcDbEntity
  8
LEGEND
  6
Continuous
 62
     7
370
    30
100
AcDbLine
 10
2.523573
 20
-8.644677
 30
0.0
 11
2.708813
 21
-8.829917
 31
0.0
  0
LINE
  5
157
330
4F2
100
AcDbEntity
  8
LEGEND
  6
Continuous
 62
     7
370
    30
100
AcDbLine
 10
3.263604
 20
-9.384708
 30
0.0
 11
3.312917
 21
-9.434021
 31
0.0
  0
LINE
  5
158
330
4F2
100
AcDbEntity
  8
LEGEND
  6
Continuous
 62
     7
370
    30
100
AcDbLine
 10
2.529531
 20
-8.647094
 30
0.0
 11
2.707052
 21
-8.824615
 31
0.0
  0
LINE
  5
159
330
4F2
100
AcDbEntity
  8
LEGEND
  6
Continuous
 62
     7
370
    30
100
AcDbLine
 10
3.271854
 20
-9.389417
 30
0.0
 11
3.315792
 21
-9.433365
 31
0.0
  0
LINE
  5
15A
330
4F2
100
AcDbEntity
  8
LEGEND
  6
Continuous
 62
     7
370
    30
100
AcDbLine
 10
2.53549
 20
-8.649521
 30
0.0
 11
2.705281
 21
-8.819313
 31
0.0
  0
LINE
  5
15B
330
4F2
100
AcDbEntity
  8
LEGEND
  6
Continuous
 62
     7
370
    30
100
AcDbLine
 10
3.280104
 20
-9.394135
 30
0.0
 11
3.318667
 21
-9.432698
 31
0.0
  0
LINE
  5
15C
330
4F2
100
AcDbEntity
  8
LEGEND
  6
Continuous
 62
     7
370
    30
100
AcDbLine
 10
2.541448
 20
-8.651937
 30
0.0
 11
2.70351
 21
-8.81401
 31
0.0
  0
LINE
  5
15D
330
4F2
100
AcDbEntity
  8
LEGEND
  6
Continuous
 62
     7
370
    30
100
AcDbLine
 10
3.288354
 20
-9.398844
 30
0.0
 11
3.321542
 21
-9.432042
 31
0.0
  0
LINE
  5
15E
330
4F2
100
AcDbEntity
  8
LEGEND
  6
Continuous
 62
     7
370
    30
100
AcDbLine
 10
2.547406
 20
-8.654365
 30
0.0
 11
2.70174
 21
-8.808708
 31
0.0
  0
LINE
  5
15F
330
4F2
100
AcDbEntity
  8
LEGEND
  6
Continuous
 62
     7
370
    30
100
AcDbLine
 10
3.294667
 20
-9.401635
 30
0.0
 11
3.324417
 21
-9.431375
 31
0.0
  0
LINE
  5
160
330
4F2
100
AcDbEntity
  8
LEGEND
  6
Continuous
 62
     7
370
    30
100
AcDbLine
 10
2.553354
 20
-8.656781
 30
0.0
 11
2.699979
 21
-8.803396
 31
0.0
  0
LINE
  5
161
330
4F2
100
AcDbEntity
  8
LEGEND
  6
Continuous
 62
     7
370
    30
100
AcDbLine
 10
3.299062
 20
-9.40249
 30
0.0
 11
3.327292
 21
-9.430719
 31
0.0
  0
LINE
  5
162
330
4F2
100
AcDbEntity
  8
LEGEND
  6
Continuous
 62
     7
370
    30
100
AcDbLine
 10
2.559312
 20
-8.659198
 30
0.0
 11
2.698208
 21
-8.798094
 31
0.0
  0
LINE
  5
163
330
4F2
100
AcDbEntity
  8
LEGEND
  6
Continuous
 62
     7
370
    30
100
AcDbLine
 10
3.303458
 20
-9.403344
 30
0.0
 11
3.330167
 21
-9.430052
 31
0.0
  0
LINE
  5
164
330
4F2
100
AcDbEntity
  8
LEGEND
  6
Continuous
 62
     7
370
    30
100
AcDbLine
 10
2.565271
 20
-8.661625
 30
0.0
 11
2.696979
 21
-8.793333
 31
0.0
  0
LINE
  5
165
330
4F2
100
AcDbEntity
  8
LEGEND
  6
Continuous
 62
     7
370
    30
100
AcDbLine
 10
3.307854
 20
-9.404208
 30
0.0
 11
3.333042
 21
-9.429396
 31
0.0
  0
LINE
  5
166
330
4F2
100
AcDbEntity
  8
LEGEND
  6
Continuous
 62
     7
370
    30
100
AcDbLine
 10
2.571229
 20
-8.664042
 30
0.0
 11
2.696531
 21
-8.789354
 31
0.0
  0
LINE
  5
167
330
4F2
100
AcDbEntity
  8
LEGEND
  6
Continuous
 62
     7
370
    30
100
AcDbLine
 10
3.31225
 20
-9.405062
 30
0.0
 11
3.335917
 21
-9.42874
 31
0.0
  0
LINE
  5
168
330
4F2
100
AcDbEntity
  8
LEGEND
  6
Continuous
 62
     7
370
    30
100
AcDbLine
 10
2.577187
 20
-8.666469
 30
0.0
 11
2.696094
 21
-8.785375
 31
0.0
  0
LINE
  5
169
330
4F2
100
AcDbEntity
  8
LEGEND
  6
Continuous
 62
     7
370
    30
100
AcDbLine
 10
3.316635
 20
-9.405917
 30
0.0
 11
3.338792
 21
-9.428073
 31
0.0
  0
LINE
  5
16A
330
4F2
100
AcDbEntity
  8
LEGEND
  6
Continuous
 62
     7
370
    30
100
AcDbLine
 10
2.583146
 20
-8.668885
 30
0.0
 11
2.695646
 21
-8.781396
 31
0.0
  0
LINE
  5
16B
330
4F2
100
AcDbEntity
  8
LEGEND
  6
Continuous
 62
     7
370
    30
100
AcDbLine
 10
3.321031
 20
-9.406781
 30
0.0
 11
3.341667
 21
-9.427417
 31
0.0
  0
LINE
  5
16C
330
4F2
100
AcDbEntity
  8
LEGEND
  6
Continuous
 62
     7
370
    30
100
AcDbLine
 10
2.589094
 20
-8.671312
 30
0.0
 11
2.695208
 21
-8.777417
 31
0.0
  0
LINE
  5
16D
330
4F2
100
AcDbEntity
  8
LEGEND
  6
Continuous
 62
     7
370
    30
100
AcDbLine
 10
3.325427
 20
-9.407635
 30
0.0
 11
3.344542
 21
-9.42675
 31
0.0
  0
LINE
  5
16E
330
4F2
100
AcDbEntity
  8
LEGEND
  6
Continuous
 62
     7
370
    30
100
AcDbLine
 10
2.595052
 20
-8.673729
 30
0.0
 11
2.694771
 21
-8.773438
 31
0.0
  0
LINE
  5
16F
330
4F2
100
AcDbEntity
  8
LEGEND
  6
Continuous
 62
     7
370
    30
100
AcDbLine
 10
3.329823
 20
-9.40849
 30
0.0
 11
3.347417
 21
-9.426094
 31
0.0
  0
LINE
  5
170
330
4F2
100
AcDbEntity
  8
LEGEND
  6
Continuous
 62
     7
370
    30
100
AcDbLine
 10
2.60101
 20
-8.676146
 30
0.0
 11
2.694323
 21
-8.769469
 31
0.0
  0
LINE
  5
171
330
4F2
100
AcDbEntity
  8
LEGEND
  6
Continuous
 62
     7
370
    30
100
AcDbLine
 10
3.334208
 20
-9.409354
 30
0.0
 11
3.350292
 21
-9.425437
 31
0.0
  0
LINE
  5
172
330
4F2
100
AcDbEntity
  8
LEGEND
  6
Continuous
 62
     7
370
    30
100
AcDbLine
 10
2.606969
 20
-8.678573
 30
0.0
 11
2.693885
 21
-8.76549
 31
0.0
  0
LINE
  5
173
330
4F2
100
AcDbEntity
  8
LEGEND
  6
Continuous
 62
     7
370
    30
100
AcDbLine
 10
3.338604
 20
-9.410208
 30
0.0
 11
3.353167
 21
-9.424771
 31
0.0
  0
LINE
  5
174
330
4F2
100
AcDbEntity
  8
LEGEND
  6
Continuous
 62
     7
370
    30
100
AcDbLine
 10
2.612927
 20
-8.68099
 30
0.0
 11
2.693437
 21
-8.76151
 31
0.0
  0
LINE
  5
175
330
4F2
100
AcDbEntity
  8
LEGEND
  6
Continuous
 62
     7
370
    30
100
AcDbLine
 10
3.343
 20
-9.411073
 30
0.0
 11
3.356042
 21
-9.424115
 31
0.0
  0
LINE
  5
176
330
4F2
100
AcDbEntity
  8
LEGEND
  6
Continuous
 62
     7
370
    30
100
AcDbLine
 10
2.618875
 20
-8.683417
 30
0.0
 11
2.693
 21
-8.757531
 31
0.0
  0
LINE
  5
177
330
4F2
100
AcDbEntity
  8
LEGEND
  6
Continuous
 62
     7
370
    30
100
AcDbLine
 10
3.347396
 20
-9.411927
 30
0.0
 11
3.358917
 21
-9.423448
 31
0.0
  0
LINE
  5
178
330
4F2
100
AcDbEntity
  8
LEGEND
  6
Continuous
 62
     7
370
    30
100
AcDbLine
 10
2.624833
 20
-8.685833
 30
0.0
 11
2.692552
 21
-8.753552
 31
0.0
  0
LINE
  5
179
330
4F2
100
AcDbEntity
  8
LEGEND
  6
Continuous
 62
     7
370
    30
100
AcDbLine
 10
3.351792
 20
-9.412781
 30
0.0
 11
3.361792
 21
-9.422792
 31
0.0
  0
LINE
  5
17A
330
4F2
100
AcDbEntity
  8
LEGEND
  6
Continuous
 62
     7
370
    30
100
AcDbLine
 10
2.630792
 20
-8.68825
 30
0.0
 11
2.692115
 21
-8.749573
 31
0.0
  0
LINE
  5
17B
330
4F2
100
AcDbEntity
  8
LEGEND
  6
Continuous
 62
     7
370
    30
100
AcDbLine
 10
3.356177
 20
-9.413646
 30
0.0
 11
3.364667
 21
-9.422125
 31
0.0
  0
LINE
  5
17C
330
4F2
100
AcDbEntity
  8
LEGEND
  6
Continuous
 62
     7
370
    30
100
AcDbLine
 10
2.63675
 20
-8.690677
 30
0.0
 11
2.691698
 21
-8.745615
 31
0.0
  0
LINE
  5
17D
330
4F2
100
AcDbEntity
  8
LEGEND
  6
Continuous
 62
     7
370
    30
100
AcDbLine
 10
3.360573
 20
-9.4145
 30
0.0
 11
3.367542
 21
-9.421469
 31
0.0
  0
LINE
  5
17E
330
4F2
100
AcDbEntity
  8
LEGEND
  6
Continuous
 62
     7
370
    30
100
AcDbLine
 10
2.642708
 20
-8.693094
 30
0.0
 11
2.691698
 21
-8.742083
 31
0.0
  0
LINE
  5
17F
330
4F2
100
AcDbEntity
  8
LEGEND
  6
Continuous
 62
     7
370
    30
100
AcDbLine
 10
3.364969
 20
-9.415354
 30
0.0
 11
3.370417
 21
-9.420813
 31
0.0
  0
LINE
  5
180
330
4F2
100
AcDbEntity
  8
LEGEND
  6
Continuous
 62
     7
370
    30
100
AcDbLine
 10
2.648656
 20
-8.695521
 30
0.0
 11
2.691698
 21
-8.738552
 31
0.0
  0
LINE
  5
181
330
4F2
100
AcDbEntity
  8
LEGEND
  6
Continuous
 62
     7
370
    30
100
AcDbLine
 10
3.369365
 20
-9.416219
 30
0.0
 11
3.373292
 21
-9.420146
 31
0.0
  0
LINE
  5
182
330
4F2
100
AcDbEntity
  8
LEGEND
  6
Continuous
 62
     7
370
    30
100
AcDbLine
 10
2.654615
 20
-8.697938
 30
0.0
 11
2.691698
 21
-8.73501
 31
0.0
  0
LINE
  5
183
330
4F2
100
AcDbEntity
  8
LEGEND
  6
Continuous
 62
     7
370
    30
100
AcDbLine
 10
3.37376
 20
-9.417073
 30
0.0
 11
3.376167
 21
-9.41949
 31
0.0
  0
LINE
  5
184
330
4F2
100
AcDbEntity
  8
LEGEND
  6
Continuous
 62
     7
370
    30
100
AcDbLine
 10
2.660573
 20
-8.700354
 30
0.0
 11
2.691698
 21
-8.731479
 31
0.0
  0
LINE
  5
185
330
4F2
100
AcDbEntity
  8
LEGEND
  6
Continuous
 62
     7
370
    30
100
AcDbLine
 10
3.378146
 20
-9.417937
 30
0.0
 11
3.379042
 21
-9.418823
 31
0.0
  0
LINE
  5
186
330
4F2
100
AcDbEntity
  8
LEGEND
  6
Continuous
 62
     7
370
    30
100
AcDbLine
 10
2.666531
 20
-8.702781
 30
0.0
 11
2.691698
 21
-8.727937
 31
0.0
  0
LINE
  5
187
330
4F2
100
AcDbEntity
  8
LEGEND
  6
Continuous
 62
     7
370
    30
100
AcDbLine
 10
2.67249
 20
-8.705198
 30
0.0
 11
2.691698
 21
-8.724406
 31
0.0
  0
LINE
  5
188
330
4F2
100
AcDbEntity
  8
LEGEND
  6
Continuous
 62
     7
370
    30
100
AcDbLine
 10
2.678448
 20
-8.707625
 30
0.0
 11
2.691698
 21
-8.720875
 31
0.0
  0
LINE
  5
189
330
4F2
100
AcDbEntity
  8
LEGEND
  6
Continuous
 62
     7
370
    30
100
AcDbLine
 10
2.684396
 20
-8.710042
 30
0.0
 11
2.691698
 21
-8.717333
 31
0.0
  0
LINE
  5
18A
330
4F2
100
AcDbEntity
  8
LEGEND
  6
Continuous
 62
     7
370
    30
100
AcDbLine
 10
2.690354
 20
-8.712458
 30
0.0
 11
2.691698
 21
-8.713802
 31
0.0
  0
LINE
  5
18B
330
4F2
100
AcDbEntity
  8
LEGEND
  6
Continuous
 62
     7
370
    30
100
AcDbLine
 10
1.89799
 20
-8.588302
 30
0.0
 11
2.850073
 21
-9.540385
 31
0.0
  0
LINE
  5
18C
330
4F2
100
AcDbEntity
  8
LEGEND
  6
Continuous
 62
     7
370
    30
100
AcDbLine
 10
1.894844
 20
-8.588698
 30
0.0
 11
2.847198
 21
-9.541052
 31
0.0
  0
LINE
  5
18D
330
4F2
100
AcDbEntity
  8
LEGEND
  6
Continuous
 62
     7
370
    30
100
AcDbLine
 10
1.891698
 20
-8.589094
 30
0.0
 11
2.844323
 21
-9.541708
 31
0.0
  0
LINE
  5
18E
330
4F2
100
AcDbEntity
  8
LEGEND
  6
Continuous
 62
     7
370
    30
100
AcDbLine
 10
1.888562
 20
-8.58949
 30
0.0
 11
2.841448
 21
-9.542375
 31
0.0
  0
LINE
  5
18F
330
4F2
100
AcDbEntity
  8
LEGEND
  6
Continuous
 62
     7
370
    30
100
AcDbLine
 10
1.885417
 20
-8.589885
 30
0.0
 11
2.838573
 21
-9.543031
 31
0.0
  0
LINE
  5
190
330
4F2
100
AcDbEntity
  8
LEGEND
  6
Continuous
 62
     7
370
    30
100
AcDbLine
 10
1.882281
 20
-8.590281
 30
0.0
 11
2.835698
 21
-9.543698
 31
0.0
  0
LINE
  5
191
330
4F2
100
AcDbEntity
  8
LEGEND
  6
Continuous
 62
     7
370
    30
100
AcDbLine
 10
1.879135
 20
-8.590677
 30
0.0
 11
2.832823
 21
-9.544354
 31
0.0
  0
LINE
  5
192
330
4F2
100
AcDbEntity
  8
LEGEND
  6
Continuous
 62
     7
370
    30
100
AcDbLine
 10
1.876
 20
-8.591062
 30
0.0
 11
2.829948
 21
-9.54501
 31
0.0
  0
LINE
  5
193
330
4F2
100
AcDbEntity
  8
LEGEND
  6
Continuous
 62
     7
370
    30
100
AcDbLine
 10
1.872854
 20
-8.591458
 30
0.0
 11
2.827073
 21
-9.545677
 31
0.0
  0
LINE
  5
194
330
4F2
100
AcDbEntity
  8
LEGEND
  6
Continuous
 62
     7
370
    30
100
AcDbLine
 10
1.869719
 20
-8.591854
 30
0.0
 11
2.819083
 21
-9.541229
 31
0.0
  0
LINE
  5
195
330
4F2
100
AcDbEntity
  8
LEGEND
  6
Continuous
 62
     7
370
    30
100
AcDbLine
 10
1.866573
 20
-8.59225
 30
0.0
 11
2.810396
 21
-9.536073
 31
0.0
  0
LINE
  5
196
330
4F2
100
AcDbEntity
  8
LEGEND
  6
Continuous
 62
     7
370
    30
100
AcDbLine
 10
1.863437
 20
-8.592646
 30
0.0
 11
2.801719
 21
-9.530927
 31
0.0
  0
LINE
  5
197
330
4F2
100
AcDbEntity
  8
LEGEND
  6
Continuous
 62
     7
370
    30
100
AcDbLine
 10
1.860292
 20
-8.593042
 30
0.0
 11
2.793031
 21
-9.525781
 31
0.0
  0
LINE
  5
198
330
4F2
100
AcDbEntity
  8
LEGEND
  6
Continuous
 62
     7
370
    30
100
AcDbLine
 10
1.857146
 20
-8.593438
 30
0.0
 11
2.784344
 21
-9.520635
 31
0.0
  0
LINE
  5
199
330
4F2
100
AcDbEntity
  8
LEGEND
  6
Continuous
 62
     7
370
    30
100
AcDbLine
 10
1.85401
 20
-8.593833
 30
0.0
 11
2.775667
 21
-9.515479
 31
0.0
  0
LINE
  5
19A
330
4F2
100
AcDbEntity
  8
LEGEND
  6
Continuous
 62
     7
370
    30
100
AcDbLine
 10
1.850865
 20
-8.594219
 30
0.0
 11
2.766979
 21
-9.510333
 31
0.0
  0
LINE
  5
19B
330
4F2
100
AcDbEntity
  8
LEGEND
  6
Continuous
 62
     7
370
    30
100
AcDbLine
 10
1.847729
 20
-8.594615
 30
0.0
 11
2.758292
 21
-9.505187
 31
0.0
  0
LINE
  5
19C
330
4F2
100
AcDbEntity
  8
LEGEND
  6
Continuous
 62
     7
370
    30
100
AcDbLine
 10
1.844583
 20
-8.59501
 30
0.0
 11
2.749615
 21
-9.500042
 31
0.0
  0
LINE
  5
19D
330
4F2
100
AcDbEntity
  8
LEGEND
  6
Continuous
 62
     7
370
    30
100
AcDbLine
 10
1.841448
 20
-8.595406
 30
0.0
 11
2.740927
 21
-9.494885
 31
0.0
  0
LINE
  5
19E
330
4F2
100
AcDbEntity
  8
LEGEND
  6
Continuous
 62
     7
370
    30
100
AcDbLine
 10
1.838302
 20
-8.595802
 30
0.0
 11
2.73224
 21
-9.48974
 31
0.0
  0
LINE
  5
19F
330
4F2
100
AcDbEntity
  8
LEGEND
  6
Continuous
 62
     7
370
    30
100
AcDbLine
 10
1.835167
 20
-8.596198
 30
0.0
 11
2.723562
 21
-9.484594
 31
0.0
  0
LINE
  5
1A0
330
4F2
100
AcDbEntity
  8
LEGEND
  6
Continuous
 62
     7
370
    30
100
AcDbLine
 10
1.832021
 20
-8.596594
 30
0.0
 11
2.714875
 21
-9.479448
 31
0.0
  0
LINE
  5
1A1
330
4F2
100
AcDbEntity
  8
LEGEND
  6
Continuous
 62
     7
370
    30
100
AcDbLine
 10
1.828875
 20
-8.596979
 30
0.0
 11
2.706198
 21
-9.474292
 31
0.0
  0
LINE
  5
1A2
330
4F2
100
AcDbEntity
  8
LEGEND
  6
Continuous
 62
     7
370
    30
100
AcDbLine
 10
1.82574
 20
-8.597375
 30
0.0
 11
2.69751
 21
-9.469146
 31
0.0
  0
LINE
  5
1A3
330
4F2
100
AcDbEntity
  8
LEGEND
  6
Continuous
 62
     7
370
    30
100
AcDbLine
 10
1.822594
 20
-8.597771
 30
0.0
 11
2.688823
 21
-9.464
 31
0.0
  0
LINE
  5
1A4
330
4F2
100
AcDbEntity
  8
LEGEND
  6
Continuous
 62
     7
370
    30
100
AcDbLine
 10
1.819458
 20
-8.598167
 30
0.0
 11
2.680146
 21
-9.458854
 31
0.0
  0
LINE
  5
1A5
330
4F2
100
AcDbEntity
  8
LEGEND
  6
Continuous
 62
     7
370
    30
100
AcDbLine
 10
1.816312
 20
-8.598562
 30
0.0
 11
2.671458
 21
-9.453708
 31
0.0
  0
LINE
  5
1A6
330
4F2
100
AcDbEntity
  8
LEGEND
  6
Continuous
 62
     7
370
    30
100
AcDbLine
 10
1.813177
 20
-8.598958
 30
0.0
 11
2.662771
 21
-9.448552
 31
0.0
  0
LINE
  5
1A7
330
4F2
100
AcDbEntity
  8
LEGEND
  6
Continuous
 62
     7
370
    30
100
AcDbLine
 10
1.810031
 20
-8.599354
 30
0.0
 11
2.654094
 21
-9.443406
 31
0.0
  0
LINE
  5
1A8
330
4F2
100
AcDbEntity
  8
LEGEND
  6
Continuous
 62
     7
370
    30
100
AcDbLine
 10
1.806896
 20
-8.59974
 30
0.0
 11
2.645406
 21
-9.43826
 31
0.0
  0
LINE
  5
1A9
330
4F2
100
AcDbEntity
  8
LEGEND
  6
Continuous
 62
     7
370
    30
100
AcDbLine
 10
1.80375
 20
-8.600135
 30
0.0
 11
2.636719
 21
-9.433115
 31
0.0
  0
LINE
  5
1AA
330
4F2
100
AcDbEntity
  8
LEGEND
  6
Continuous
 62
     7
370
    30
100
AcDbLine
 10
1.800615
 20
-8.600531
 30
0.0
 11
2.628042
 21
-9.427958
 31
0.0
  0
LINE
  5
1AB
330
4F2
100
AcDbEntity
  8
LEGEND
  6
Continuous
 62
     7
370
    30
100
AcDbLine
 10
1.797469
 20
-8.600927
 30
0.0
 11
2.619354
 21
-9.422812
 31
0.0
  0
LINE
  5
1AC
330
4F2
100
AcDbEntity
  8
LEGEND
  6
Continuous
 62
     7
370
    30
100
AcDbLine
 10
1.794323
 20
-8.601323
 30
0.0
 11
2.610667
 21
-9.417667
 31
0.0
  0
LINE
  5
1AD
330
4F2
100
AcDbEntity
  8
LEGEND
  6
Continuous
 62
     7
370
    30
100
AcDbLine
 10
1.791187
 20
-8.601719
 30
0.0
 11
2.60199
 21
-9.412521
 31
0.0
  0
LINE
  5
1AE
330
4F2
100
AcDbEntity
  8
LEGEND
  6
Continuous
 62
     7
370
    30
100
AcDbLine
 10
1.788042
 20
-8.602115
 30
0.0
 11
2.593302
 21
-9.407365
 31
0.0
  0
LINE
  5
1AF
330
4F2
100
AcDbEntity
  8
LEGEND
  6
Continuous
 62
     7
370
    30
100
AcDbLine
 10
1.784906
 20
-8.60251
 30
0.0
 11
2.584615
 21
-9.402219
 31
0.0
  0
LINE
  5
1B0
330
4F2
100
AcDbEntity
  8
LEGEND
  6
Continuous
 62
     7
370
    30
100
AcDbLine
 10
1.78176
 20
-8.602896
 30
0.0
 11
2.575937
 21
-9.397073
 31
0.0
  0
LINE
  5
1B1
330
4F2
100
AcDbEntity
  8
LEGEND
  6
Continuous
 62
     7
370
    30
100
AcDbLine
 10
1.778625
 20
-8.603292
 30
0.0
 11
2.56725
 21
-9.391927
 31
0.0
  0
LINE
  5
1B2
330
4F2
100
AcDbEntity
  8
LEGEND
  6
Continuous
 62
     7
370
    30
100
AcDbLine
 10
1.775479
 20
-8.603687
 30
0.0
 11
2.558562
 21
-9.386771
 31
0.0
  0
LINE
  5
1B3
330
4F2
100
AcDbEntity
  8
LEGEND
  6
Continuous
 62
     7
370
    30
100
AcDbLine
 10
1.772344
 20
-8.604083
 30
0.0
 11
2.549885
 21
-9.381625
 31
0.0
  0
LINE
  5
1B4
330
4F2
100
AcDbEntity
  8
LEGEND
  6
Continuous
 62
     7
370
    30
100
AcDbLine
 10
1.769198
 20
-8.604479
 30
0.0
 11
2.541198
 21
-9.376479
 31
0.0
  0
LINE
  5
1B5
330
4F2
100
AcDbEntity
  8
LEGEND
  6
Continuous
 62
     7
370
    30
100
AcDbLine
 10
1.766062
 20
-8.604875
 30
0.0
 11
2.532521
 21
-9.371333
 31
0.0
  0
LINE
  5
1B6
330
4F2
100
AcDbEntity
  8
LEGEND
  6
Continuous
 62
     7
370
    30
100
AcDbLine
 10
1.762917
 20
-8.605271
 30
0.0
 11
2.523833
 21
-9.366177
 31
0.0
  0
LINE
  5
1B7
330
4F2
100
AcDbEntity
  8
LEGEND
  6
Continuous
 62
     7
370
    30
100
AcDbLine
 10
1.759771
 20
-8.605656
 30
0.0
 11
2.515146
 21
-9.361031
 31
0.0
  0
LINE
  5
1B8
330
4F2
100
AcDbEntity
  8
LEGEND
  6
Continuous
 62
     7
370
    30
100
AcDbLine
 10
1.756635
 20
-8.606052
 30
0.0
 11
2.506469
 21
-9.355885
 31
0.0
  0
LINE
  5
1B9
330
4F2
100
AcDbEntity
  8
LEGEND
  6
Continuous
 62
     7
370
    30
100
AcDbLine
 10
1.75349
 20
-8.606448
 30
0.0
 11
2.497781
 21
-9.35074
 31
0.0
  0
LINE
  5
1BA
330
4F2
100
AcDbEntity
  8
LEGEND
  6
Continuous
 62
     7
370
    30
100
AcDbLine
 10
1.750354
 20
-8.606844
 30
0.0
 11
2.489094
 21
-9.345583
 31
0.0
  0
LINE
  5
1BB
330
4F2
100
AcDbEntity
  8
LEGEND
  6
Continuous
 62
     7
370
    30
100
AcDbLine
 10
1.747208
 20
-8.60724
 30
0.0
 11
2.480417
 21
-9.340438
 31
0.0
  0
LINE
  5
1BC
330
4F2
100
AcDbEntity
  8
LEGEND
  6
Continuous
 62
     7
370
    30
100
AcDbLine
 10
1.744073
 20
-8.607635
 30
0.0
 11
2.471729
 21
-9.335292
 31
0.0
  0
LINE
  5
1BD
330
4F2
100
AcDbEntity
  8
LEGEND
  6
Continuous
 62
     7
370
    30
100
AcDbLine
 10
1.740927
 20
-8.608031
 30
0.0
 11
2.463042
 21
-9.330146
 31
0.0
  0
LINE
  5
1BE
330
4F2
100
AcDbEntity
  8
LEGEND
  6
Continuous
 62
     7
370
    30
100
AcDbLine
 10
1.737792
 20
-8.608417
 30
0.0
 11
2.454365
 21
-9.325
 31
0.0
  0
LINE
  5
1BF
330
4F2
100
AcDbEntity
  8
LEGEND
  6
Continuous
 62
     7
370
    30
100
AcDbLine
 10
1.734646
 20
-8.608812
 30
0.0
 11
2.445677
 21
-9.319844
 31
0.0
  0
LINE
  5
1C0
330
4F2
100
AcDbEntity
  8
LEGEND
  6
Continuous
 62
     7
370
    30
100
AcDbLine
 10
1.7315
 20
-8.609208
 30
0.0
 11
2.43699
 21
-9.314698
 31
0.0
  0
LINE
  5
1C1
330
4F2
100
AcDbEntity
  8
LEGEND
  6
Continuous
 62
     7
370
    30
100
AcDbLine
 10
1.728365
 20
-8.609604
 30
0.0
 11
2.428313
 21
-9.309552
 31
0.0
  0
LINE
  5
1C2
330
4F2
100
AcDbEntity
  8
LEGEND
  6
Continuous
 62
     7
370
    30
100
AcDbLine
 10
1.725219
 20
-8.61
 30
0.0
 11
2.419625
 21
-9.304406
 31
0.0
  0
LINE
  5
1C3
330
4F2
100
AcDbEntity
  8
LEGEND
  6
Continuous
 62
     7
370
    30
100
AcDbLine
 10
1.722083
 20
-8.610396
 30
0.0
 11
2.410937
 21
-9.29925
 31
0.0
  0
LINE
  5
1C4
330
4F2
100
AcDbEntity
  8
LEGEND
  6
Continuous
 62
     7
370
    30
100
AcDbLine
 10
1.718938
 20
-8.610792
 30
0.0
 11
2.40226
 21
-9.294104
 31
0.0
  0
LINE
  5
1C5
330
4F2
100
AcDbEntity
  8
LEGEND
  6
Continuous
 62
     7
370
    30
100
AcDbLine
 10
1.715802
 20
-8.611187
 30
0.0
 11
2.393573
 21
-9.288958
 31
0.0
  0
LINE
  5
1C6
330
4F2
100
AcDbEntity
  8
LEGEND
  6
Continuous
 62
     7
370
    30
100
AcDbLine
 10
1.712656
 20
-8.611573
 30
0.0
 11
2.384885
 21
-9.283812
 31
0.0
  0
LINE
  5
1C7
330
4F2
100
AcDbEntity
  8
LEGEND
  6
Continuous
 62
     7
370
    30
100
AcDbLine
 10
1.709521
 20
-8.611969
 30
0.0
 11
2.376208
 21
-9.278656
 31
0.0
  0
LINE
  5
1C8
330
4F2
100
AcDbEntity
  8
LEGEND
  6
Continuous
 62
     7
370
    30
100
AcDbLine
 10
1.706375
 20
-8.612365
 30
0.0
 11
2.367521
 21
-9.27351
 31
0.0
  0
LINE
  5
1C9
330
4F2
100
AcDbEntity
  8
LEGEND
  6
Continuous
 62
     7
370
    30
100
AcDbLine
 10
1.70324
 20
-8.61276
 30
0.0
 11
2.358833
 21
-9.268365
 31
0.0
  0
LINE
  5
1CA
330
4F2
100
AcDbEntity
  8
LEGEND
  6
Continuous
 62
     7
370
    30
100
AcDbLine
 10
1.700094
 20
-8.613156
 30
0.0
 11
2.350156
 21
-9.263219
 31
0.0
  0
LINE
  5
1CB
330
4F2
100
AcDbEntity
  8
LEGEND
  6
Continuous
 62
     7
370
    30
100
AcDbLine
 10
1.696948
 20
-8.613552
 30
0.0
 11
2.341469
 21
-9.258062
 31
0.0
  0
LINE
  5
1CC
330
4F2
100
AcDbEntity
  8
LEGEND
  6
Continuous
 62
     7
370
    30
100
AcDbLine
 10
1.693812
 20
-8.613948
 30
0.0
 11
2.332792
 21
-9.252917
 31
0.0
  0
LINE
  5
1CD
330
4F2
100
AcDbEntity
  8
LEGEND
  6
Continuous
 62
     7
370
    30
100
AcDbLine
 10
1.690667
 20
-8.614333
 30
0.0
 11
2.324104
 21
-9.247771
 31
0.0
  0
LINE
  5
1CE
330
4F2
100
AcDbEntity
  8
LEGEND
  6
Continuous
 62
     7
370
    30
100
AcDbLine
 10
1.687531
 20
-8.614729
 30
0.0
 11
2.315417
 21
-9.242625
 31
0.0
  0
LINE
  5
1CF
330
4F2
100
AcDbEntity
  8
LEGEND
  6
Continuous
 62
     7
370
    30
100
AcDbLine
 10
1.684385
 20
-8.615125
 30
0.0
 11
2.30674
 21
-9.237469
 31
0.0
  0
LINE
  5
1D0
330
4F2
100
AcDbEntity
  8
LEGEND
  6
Continuous
 62
     7
370
    30
100
AcDbLine
 10
1.68125
 20
-8.615521
 30
0.0
 11
2.298052
 21
-9.232323
 31
0.0
  0
LINE
  5
1D1
330
4F2
100
AcDbEntity
  8
LEGEND
  6
Continuous
 62
     7
370
    30
100
AcDbLine
 10
1.678104
 20
-8.615917
 30
0.0
 11
2.289365
 21
-9.227177
 31
0.0
  0
LINE
  5
1D2
330
4F2
100
AcDbEntity
  8
LEGEND
  6
Continuous
 62
     7
370
    30
100
AcDbLine
 10
1.674969
 20
-8.616312
 30
0.0
 11
2.280687
 21
-9.222031
 31
0.0
  0
LINE
  5
1D3
330
4F2
100
AcDbEntity
  8
LEGEND
  6
Continuous
 62
     7
370
    30
100
AcDbLine
 10
1.671823
 20
-8.616708
 30
0.0
 11
2.272
 21
-9.216875
 31
0.0
  0
LINE
  5
1D4
330
4F2
100
AcDbEntity
  8
LEGEND
  6
Continuous
 62
     7
370
    30
100
AcDbLine
 10
1.668687
 20
-8.617094
 30
0.0
 11
2.263313
 21
-9.211729
 31
0.0
  0
LINE
  5
1D5
330
4F2
100
AcDbEntity
  8
LEGEND
  6
Continuous
 62
     7
370
    30
100
AcDbLine
 10
1.665542
 20
-8.61749
 30
0.0
 11
2.254635
 21
-9.206583
 31
0.0
  0
LINE
  5
1D6
330
4F2
100
AcDbEntity
  8
LEGEND
  6
Continuous
 62
     7
370
    30
100
AcDbLine
 10
1.662396
 20
-8.617885
 30
0.0
 11
2.245948
 21
-9.201437
 31
0.0
  0
LINE
  5
1D7
330
4F2
100
AcDbEntity
  8
LEGEND
  6
Continuous
 62
     7
370
    30
100
AcDbLine
 10
1.65926
 20
-8.618281
 30
0.0
 11
2.23726
 21
-9.196292
 31
0.0
  0
LINE
  5
1D8
330
4F2
100
AcDbEntity
  8
LEGEND
  6
Continuous
 62
     7
370
    30
100
AcDbLine
 10
1.656115
 20
-8.618677
 30
0.0
 11
2.228583
 21
-9.191135
 31
0.0
  0
LINE
  5
1D9
330
4F2
100
AcDbEntity
  8
LEGEND
  6
Continuous
 62
     7
370
    30
100
AcDbLine
 10
1.652979
 20
-8.619073
 30
0.0
 11
2.219896
 21
-9.18599
 31
0.0
  0
LINE
  5
1DA
330
4F2
100
AcDbEntity
  8
LEGEND
  6
Continuous
 62
     7
370
    30
100
AcDbLine
 10
1.649833
 20
-8.619469
 30
0.0
 11
2.211208
 21
-9.180844
 31
0.0
  0
LINE
  5
1DB
330
4F2
100
AcDbEntity
  8
LEGEND
  6
Continuous
 62
     7
370
    30
100
AcDbLine
 10
1.646698
 20
-8.619865
 30
0.0
 11
2.202531
 21
-9.175698
 31
0.0
  0
LINE
  5
1DC
330
4F2
100
AcDbEntity
  8
LEGEND
  6
Continuous
 62
     7
370
    30
100
AcDbLine
 10
1.643552
 20
-8.62025
 30
0.0
 11
2.193844
 21
-9.170542
 31
0.0
  0
LINE
  5
1DD
330
4F2
100
AcDbEntity
  8
LEGEND
  6
Continuous
 62
     7
370
    30
100
AcDbLine
 10
1.640417
 20
-8.620646
 30
0.0
 11
2.185156
 21
-9.165396
 31
0.0
  0
LINE
  5
1DE
330
4F2
100
AcDbEntity
  8
LEGEND
  6
Continuous
 62
     7
370
    30
100
AcDbLine
 10
1.637271
 20
-8.621042
 30
0.0
 11
2.176479
 21
-9.16025
 31
0.0
  0
LINE
  5
1DF
330
4F2
100
AcDbEntity
  8
LEGEND
  6
Continuous
 62
     7
370
    30
100
AcDbLine
 10
1.634135
 20
-8.621437
 30
0.0
 11
2.167792
 21
-9.155104
 31
0.0
  0
LINE
  5
1E0
330
4F2
100
AcDbEntity
  8
LEGEND
  6
Continuous
 62
     7
370
    30
100
AcDbLine
 10
1.63099
 20
-8.621833
 30
0.0
 11
2.159115
 21
-9.149948
 31
0.0
  0
LINE
  5
1E1
330
4F2
100
AcDbEntity
  8
LEGEND
  6
Continuous
 62
     7
370
    30
100
AcDbLine
 10
1.627844
 20
-8.622229
 30
0.0
 11
2.150427
 21
-9.144802
 31
0.0
  0
LINE
  5
1E2
330
4F2
100
AcDbEntity
  8
LEGEND
  6
Continuous
 62
     7
370
    30
100
AcDbLine
 10
1.624708
 20
-8.622625
 30
0.0
 11
2.14174
 21
-9.139656
 31
0.0
  0
LINE
  5
1E3
330
4F2
100
AcDbEntity
  8
LEGEND
  6
Continuous
 62
     7
370
    30
100
AcDbLine
 10
1.621563
 20
-8.62301
 30
0.0
 11
2.133062
 21
-9.13451
 31
0.0
  0
LINE
  5
1E4
330
4F2
100
AcDbEntity
  8
LEGEND
  6
Continuous
 62
     7
370
    30
100
AcDbLine
 10
1.618427
 20
-8.623406
 30
0.0
 11
2.124375
 21
-9.129354
 31
0.0
  0
LINE
  5
1E5
330
4F2
100
AcDbEntity
  8
LEGEND
  6
Continuous
 62
     7
370
    30
100
AcDbLine
 10
1.615281
 20
-8.623802
 30
0.0
 11
2.115687
 21
-9.124208
 31
0.0
  0
LINE
  5
1E6
330
4F2
100
AcDbEntity
  8
LEGEND
  6
Continuous
 62
     7
370
    30
100
AcDbLine
 10
1.612146
 20
-8.624198
 30
0.0
 11
2.10701
 21
-9.119063
 31
0.0
  0
LINE
  5
1E7
330
4F2
100
AcDbEntity
  8
LEGEND
  6
Continuous
 62
     7
370
    30
100
AcDbLine
 10
1.609
 20
-8.624594
 30
0.0
 11
2.098323
 21
-9.113917
 31
0.0
  0
LINE
  5
1E8
330
4F2
100
AcDbEntity
  8
LEGEND
  6
Continuous
 62
     7
370
    30
100
AcDbLine
 10
1.605865
 20
-8.62499
 30
0.0
 11
2.089635
 21
-9.10876
 31
0.0
  0
LINE
  5
1E9
330
4F2
100
AcDbEntity
  8
LEGEND
  6
Continuous
 62
     7
370
    30
100
AcDbLine
 10
1.602719
 20
-8.625385
 30
0.0
 11
2.080958
 21
-9.103615
 31
0.0
  0
LINE
  5
1EA
330
4F2
100
AcDbEntity
  8
LEGEND
  6
Continuous
 62
     7
370
    30
100
AcDbLine
 10
1.599573
 20
-8.625771
 30
0.0
 11
2.072271
 21
-9.098469
 31
0.0
  0
LINE
  5
1EB
330
4F2
100
AcDbEntity
  8
LEGEND
  6
Continuous
 62
     7
370
    30
100
AcDbLine
 10
1.596437
 20
-8.626167
 30
0.0
 11
2.063583
 21
-9.093323
 31
0.0
  0
LINE
  5
1EC
330
4F2
100
AcDbEntity
  8
LEGEND
  6
Continuous
 62
     7
370
    30
100
AcDbLine
 10
1.593292
 20
-8.626563
 30
0.0
 11
2.054906
 21
-9.088167
 31
0.0
  0
LINE
  5
1ED
330
4F2
100
AcDbEntity
  8
LEGEND
  6
Continuous
 62
     7
370
    30
100
AcDbLine
 10
1.590156
 20
-8.626958
 30
0.0
 11
2.046219
 21
-9.083021
 31
0.0
  0
LINE
  5
1EE
330
4F2
100
AcDbEntity
  8
LEGEND
  6
Continuous
 62
     7
370
    30
100
AcDbLine
 10
1.58701
 20
-8.627354
 30
0.0
 11
2.037531
 21
-9.077875
 31
0.0
  0
LINE
  5
1EF
330
4F2
100
AcDbEntity
  8
LEGEND
  6
Continuous
 62
     7
370
    30
100
AcDbLine
 10
1.583875
 20
-8.62775
 30
0.0
 11
2.028854
 21
-9.072729
 31
0.0
  0
LINE
  5
1F0
330
4F2
100
AcDbEntity
  8
LEGEND
  6
Continuous
 62
     7
370
    30
100
AcDbLine
 10
1.580729
 20
-8.628146
 30
0.0
 11
2.020167
 21
-9.067583
 31
0.0
  0
LINE
  5
1F1
330
4F2
100
AcDbEntity
  8
LEGEND
  6
Continuous
 62
     7
370
    30
100
AcDbLine
 10
1.577594
 20
-8.628531
 30
0.0
 11
2.011479
 21
-9.062427
 31
0.0
  0
LINE
  5
1F2
330
4F2
100
AcDbEntity
  8
LEGEND
  6
Continuous
 62
     7
370
    30
100
AcDbLine
 10
1.574448
 20
-8.628927
 30
0.0
 11
2.002802
 21
-9.057281
 31
0.0
  0
LINE
  5
1F3
330
4F2
100
AcDbEntity
  8
LEGEND
  6
Continuous
 62
     7
370
    30
100
AcDbLine
 10
1.571312
 20
-8.629323
 30
0.0
 11
1.994115
 21
-9.052135
 31
0.0
  0
LINE
  5
1F4
330
4F2
100
AcDbEntity
  8
LEGEND
  6
Continuous
 62
     7
370
    30
100
AcDbLine
 10
1.568167
 20
-8.629719
 30
0.0
 11
1.985427
 21
-9.04699
 31
0.0
  0
LINE
  5
1F5
330
4F2
100
AcDbEntity
  8
LEGEND
  6
Continuous
 62
     7
370
    30
100
AcDbLine
 10
1.565021
 20
-8.630115
 30
0.0
 11
1.97675
 21
-9.041833
 31
0.0
  0
LINE
  5
1F6
330
4F2
100
AcDbEntity
  8
LEGEND
  6
Continuous
 62
     7
370
    30
100
AcDbLine
 10
1.561885
 20
-8.63051
 30
0.0
 11
1.968062
 21
-9.036687
 31
0.0
  0
LINE
  5
1F7
330
4F2
100
AcDbEntity
  8
LEGEND
  6
Continuous
 62
     7
370
    30
100
AcDbLine
 10
1.55874
 20
-8.630906
 30
0.0
 11
1.959385
 21
-9.031542
 31
0.0
  0
LINE
  5
1F8
330
4F2
100
AcDbEntity
  8
LEGEND
  6
Continuous
 62
     7
370
    30
100
AcDbLine
 10
1.555604
 20
-8.631302
 30
0.0
 11
1.950698
 21
-9.026396
 31
0.0
  0
LINE
  5
1F9
330
4F2
100
AcDbEntity
  8
LEGEND
  6
Continuous
 62
     7
370
    30
100
AcDbLine
 10
1.552458
 20
-8.631687
 30
0.0
 11
1.94201
 21
-9.02124
 31
0.0
  0
LINE
  5
1FA
330
4F2
100
AcDbEntity
  8
LEGEND
  6
Continuous
 62
     7
370
    30
100
AcDbLine
 10
1.549323
 20
-8.632083
 30
0.0
 11
1.933333
 21
-9.016094
 31
0.0
  0
LINE
  5
1FB
330
4F2
100
AcDbEntity
  8
LEGEND
  6
Continuous
 62
     7
370
    30
100
AcDbLine
 10
1.546177
 20
-8.632479
 30
0.0
 11
1.924646
 21
-9.010948
 31
0.0
  0
LINE
  5
1FC
330
4F2
100
AcDbEntity
  8
LEGEND
  6
Continuous
 62
     7
370
    30
100
AcDbLine
 10
1.543042
 20
-8.632875
 30
0.0
 11
1.915958
 21
-9.005802
 31
0.0
  0
LINE
  5
1FD
330
4F2
100
AcDbEntity
  8
LEGEND
  6
Continuous
 62
     7
370
    30
100
AcDbLine
 10
1.539896
 20
-8.633271
 30
0.0
 11
1.907281
 21
-9.000646
 31
0.0
  0
LINE
  5
1FE
330
4F2
100
AcDbEntity
  8
LEGEND
  6
Continuous
 62
     7
370
    30
100
AcDbLine
 10
1.53676
 20
-8.633667
 30
0.0
 11
1.898594
 21
-8.9955
 31
0.0
  0
LINE
  5
1FF
330
4F2
100
AcDbEntity
  8
LEGEND
  6
Continuous
 62
     7
370
    30
100
AcDbLine
 10
1.533615
 20
-8.634062
 30
0.0
 11
1.889906
 21
-8.990354
 31
0.0
  0
LINE
  5
200
330
4F2
100
AcDbEntity
  8
LEGEND
  6
Continuous
 62
     7
370
    30
100
AcDbLine
 10
1.530469
 20
-8.634448
 30
0.0
 11
1.881229
 21
-8.985208
 31
0.0
  0
LINE
  5
201
330
4F2
100
AcDbEntity
  8
LEGEND
  6
Continuous
 62
     7
370
    30
100
AcDbLine
 10
1.527333
 20
-8.634844
 30
0.0
 11
1.872542
 21
-8.980052
 31
0.0
  0
LINE
  5
202
330
4F2
100
AcDbEntity
  8
LEGEND
  6
Continuous
 62
     7
370
    30
100
AcDbLine
 10
1.524188
 20
-8.63524
 30
0.0
 11
1.863854
 21
-8.974906
 31
0.0
  0
LINE
  5
203
330
4F2
100
AcDbEntity
  8
LEGEND
  6
Continuous
 62
     7
370
    30
100
AcDbLine
 10
1.521052
 20
-8.635635
 30
0.0
 11
1.855177
 21
-8.96976
 31
0.0
  0
LINE
  5
204
330
4F2
100
AcDbEntity
  8
LEGEND
  6
Continuous
 62
     7
370
    30
100
AcDbLine
 10
1.517906
 20
-8.636031
 30
0.0
 11
1.84649
 21
-8.964615
 31
0.0
  0
LINE
  5
205
330
4F2
100
AcDbEntity
  8
LEGEND
  6
Continuous
 62
     7
370
    30
100
AcDbLine
 10
1.514771
 20
-8.636427
 30
0.0
 11
1.837802
 21
-8.959469
 31
0.0
  0
LINE
  5
206
330
4F2
100
AcDbEntity
  8
LEGEND
  6
Continuous
 62
     7
370
    30
100
AcDbLine
 10
1.511625
 20
-8.636823
 30
0.0
 11
1.829125
 21
-8.954313
 31
0.0
  0
LINE
  5
207
330
4F2
100
AcDbEntity
  8
LEGEND
  6
Continuous
 62
     7
370
    30
100
AcDbLine
 10
1.50849
 20
-8.637208
 30
0.0
 11
1.820437
 21
-8.949167
 31
0.0
  0
LINE
  5
208
330
4F2
100
AcDbEntity
  8
LEGEND
  6
Continuous
 62
     7
370
    30
100
AcDbLine
 10
1.505344
 20
-8.637604
 30
0.0
 11
1.81175
 21
-8.944021
 31
0.0
  0
LINE
  5
209
330
4F2
100
AcDbEntity
  8
LEGEND
  6
Continuous
 62
     7
370
    30
100
AcDbLine
 10
1.502198
 20
-8.638
 30
0.0
 11
1.803073
 21
-8.938875
 31
0.0
  0
LINE
  5
20A
330
4F2
100
AcDbEntity
  8
LEGEND
  6
Continuous
 62
     7
370
    30
100
AcDbLine
 10
1.499062
 20
-8.638396
 30
0.0
 11
1.794385
 21
-8.933719
 31
0.0
  0
LINE
  5
20B
330
4F2
100
AcDbEntity
  8
LEGEND
  6
Continuous
 62
     7
370
    30
100
AcDbLine
 10
1.495917
 20
-8.638792
 30
0.0
 11
1.785708
 21
-8.928573
 31
0.0
  0
LINE
  5
20C
330
4F2
100
AcDbEntity
  8
LEGEND
  6
Continuous
 62
     7
370
    30
100
AcDbLine
 10
1.492781
 20
-8.639188
 30
0.0
 11
1.777021
 21
-8.923427
 31
0.0
  0
LINE
  5
20D
330
4F2
100
AcDbEntity
  8
LEGEND
  6
Continuous
 62
     7
370
    30
100
AcDbLine
 10
1.489635
 20
-8.639583
 30
0.0
 11
1.768333
 21
-8.918281
 31
0.0
  0
LINE
  5
20E
330
4F2
100
AcDbEntity
  8
LEGEND
  6
Continuous
 62
     7
370
    30
100
AcDbLine
 10
1.4865
 20
-8.639979
 30
0.0
 11
1.759656
 21
-8.913125
 31
0.0
  0
LINE
  5
20F
330
4F2
100
AcDbEntity
  8
LEGEND
  6
Continuous
 62
     7
370
    30
100
AcDbLine
 10
1.483354
 20
-8.640365
 30
0.0
 11
1.750969
 21
-8.907979
 31
0.0
  0
LINE
  5
210
330
4F2
100
AcDbEntity
  8
LEGEND
  6
Continuous
 62
     7
370
    30
100
AcDbLine
 10
1.480219
 20
-8.64076
 30
0.0
 11
1.742281
 21
-8.902833
 31
0.0
  0
LINE
  5
211
330
4F2
100
AcDbEntity
  8
LEGEND
  6
Continuous
 62
     7
370
    30
100
AcDbLine
 10
1.477073
 20
-8.641156
 30
0.0
 11
1.733604
 21
-8.897687
 31
0.0
  0
LINE
  5
212
330
4F2
100
AcDbEntity
  8
LEGEND
  6
Continuous
 62
     7
370
    30
100
AcDbLine
 10
1.473937
 20
-8.641552
 30
0.0
 11
1.724917
 21
-8.892531
 31
0.0
  0
LINE
  5
213
330
4F2
100
AcDbEntity
  8
LEGEND
  6
Continuous
 62
     7
370
    30
100
AcDbLine
 10
1.470792
 20
-8.641948
 30
0.0
 11
1.716229
 21
-8.887385
 31
0.0
  0
LINE
  5
214
330
4F2
100
AcDbEntity
  8
LEGEND
  6
Continuous
 62
     7
370
    30
100
AcDbLine
 10
1.467646
 20
-8.642344
 30
0.0
 11
1.707552
 21
-8.88224
 31
0.0
  0
LINE
  5
215
330
4F2
100
AcDbEntity
  8
LEGEND
  6
Continuous
 62
     7
370
    30
100
AcDbLine
 10
1.46451
 20
-8.64274
 30
0.0
 11
1.698865
 21
-8.877094
 31
0.0
  0
LINE
  5
216
330
4F2
100
AcDbEntity
  8
LEGEND
  6
Continuous
 62
     7
370
    30
100
AcDbLine
 10
1.461365
 20
-8.643125
 30
0.0
 11
1.690177
 21
-8.871937
 31
0.0
  0
LINE
  5
217
330
4F2
100
AcDbEntity
  8
LEGEND
  6
Continuous
 62
     7
370
    30
100
AcDbLine
 10
1.458229
 20
-8.643521
 30
0.0
 11
1.6815
 21
-8.866792
 31
0.0
  0
LINE
  5
218
330
4F2
100
AcDbEntity
  8
LEGEND
  6
Continuous
 62
     7
370
    30
100
AcDbLine
 10
1.455083
 20
-8.643917
 30
0.0
 11
1.672813
 21
-8.861646
 31
0.0
  0
LINE
  5
219
330
4F2
100
AcDbEntity
  8
LEGEND
  6
Continuous
 62
     7
370
    30
100
AcDbLine
 10
1.451948
 20
-8.644312
 30
0.0
 11
1.664125
 21
-8.8565
 31
0.0
  0
LINE
  5
21A
330
4F2
100
AcDbEntity
  8
LEGEND
  6
Continuous
 62
     7
370
    30
100
AcDbLine
 10
1.448802
 20
-8.644708
 30
0.0
 11
1.655448
 21
-8.851344
 31
0.0
  0
LINE
  5
21B
330
4F2
100
AcDbEntity
  8
LEGEND
  6
Continuous
 62
     7
370
    30
100
AcDbLine
 10
1.445667
 20
-8.645104
 30
0.0
 11
1.64676
 21
-8.846198
 31
0.0
  0
LINE
  5
21C
330
4F2
100
AcDbEntity
  8
LEGEND
  6
Continuous
 62
     7
370
    30
100
AcDbLine
 10
1.442521
 20
-8.6455
 30
0.0
 11
1.638073
 21
-8.841052
 31
0.0
  0
LINE
  5
21D
330
4F2
100
AcDbEntity
  8
LEGEND
  6
Continuous
 62
     7
370
    30
100
AcDbLine
 10
1.439385
 20
-8.645885
 30
0.0
 11
1.629396
 21
-8.835906
 31
0.0
  0
LINE
  5
21E
330
4F2
100
AcDbEntity
  8
LEGEND
  6
Continuous
 62
     7
370
    30
100
AcDbLine
 10
1.43624
 20
-8.646281
 30
0.0
 11
1.620708
 21
-8.83076
 31
0.0
  0
LINE
  5
21F
330
4F2
100
AcDbEntity
  8
LEGEND
  6
Continuous
 62
     7
370
    30
100
AcDbLine
 10
1.433094
 20
-8.646677
 30
0.0
 11
1.612021
 21
-8.825604
 31
0.0
  0
LINE
  5
220
330
4F2
100
AcDbEntity
  8
LEGEND
  6
Continuous
 62
     7
370
    30
100
AcDbLine
 10
1.429958
 20
-8.647073
 30
0.0
 11
1.603344
 21
-8.820458
 31
0.0
  0
LINE
  5
221
330
4F2
100
AcDbEntity
  8
LEGEND
  6
Continuous
 62
     7
370
    30
100
AcDbLine
 10
1.426813
 20
-8.647469
 30
0.0
 11
1.594656
 21
-8.815312
 31
0.0
  0
LINE
  5
222
330
4F2
100
AcDbEntity
  8
LEGEND
  6
Continuous
 62
     7
370
    30
100
AcDbLine
 10
1.423677
 20
-8.647865
 30
0.0
 11
1.585979
 21
-8.810167
 31
0.0
  0
LINE
  5
223
330
4F2
100
AcDbEntity
  8
LEGEND
  6
Continuous
 62
     7
370
    30
100
AcDbLine
 10
1.420531
 20
-8.64826
 30
0.0
 11
1.577292
 21
-8.80501
 31
0.0
  0
LINE
  5
224
330
4F2
100
AcDbEntity
  8
LEGEND
  6
Continuous
 62
     7
370
    30
100
AcDbLine
 10
1.417396
 20
-8.648656
 30
0.0
 11
1.568604
 21
-8.799865
 31
0.0
  0
LINE
  5
225
330
4F2
100
AcDbEntity
  8
LEGEND
  6
Continuous
 62
     7
370
    30
100
AcDbLine
 10
1.41425
 20
-8.649042
 30
0.0
 11
1.559927
 21
-8.794719
 31
0.0
  0
LINE
  5
226
330
4F2
100
AcDbEntity
  8
LEGEND
  6
Continuous
 62
     7
370
    30
100
AcDbLine
 10
1.411115
 20
-8.649437
 30
0.0
 11
1.55124
 21
-8.789573
 31
0.0
  0
LINE
  5
227
330
4F2
100
AcDbEntity
  8
LEGEND
  6
Continuous
 62
     7
370
    30
100
AcDbLine
 10
1.407969
 20
-8.649833
 30
0.0
 11
1.542552
 21
-8.784417
 31
0.0
  0
LINE
  5
228
330
4F2
100
AcDbEntity
  8
LEGEND
  6
Continuous
 62
     7
370
    30
100
AcDbLine
 10
1.404823
 20
-8.650229
 30
0.0
 11
1.533875
 21
-8.779271
 31
0.0
  0
LINE
  5
229
330
4F2
100
AcDbEntity
  8
LEGEND
  6
Continuous
 62
     7
370
    30
100
AcDbLine
 10
1.401687
 20
-8.650625
 30
0.0
 11
1.525187
 21
-8.774125
 31
0.0
  0
LINE
  5
22A
330
4F2
100
AcDbEntity
  8
LEGEND
  6
Continuous
 62
     7
370
    30
100
AcDbLine
 10
1.398542
 20
-8.651021
 30
0.0
 11
1.5165
 21
-8.768979
 31
0.0
  0
LINE
  5
22B
330
4F2
100
AcDbEntity
  8
LEGEND
  6
Continuous
 62
     7
370
    30
100
AcDbLine
 10
1.395406
 20
-8.651417
 30
0.0
 11
1.507823
 21
-8.763823
 31
0.0
  0
LINE
  5
22C
330
4F2
100
AcDbEntity
  8
LEGEND
  6
Continuous
 62
     7
370
    30
100
AcDbLine
 10
1.39226
 20
-8.651802
 30
0.0
 11
1.499135
 21
-8.758677
 31
0.0
  0
LINE
  5
22D
330
4F2
100
AcDbEntity
  8
LEGEND
  6
Continuous
 62
     7
370
    30
100
AcDbLine
 10
1.389125
 20
-8.652198
 30
0.0
 11
1.490448
 21
-8.753531
 31
0.0
  0
LINE
  5
22E
330
4F2
100
AcDbEntity
  8
LEGEND
  6
Continuous
 62
     7
370
    30
100
AcDbLine
 10
1.385979
 20
-8.652594
 30
0.0
 11
1.481771
 21
-8.748385
 31
0.0
  0
LINE
  5
22F
330
4F2
100
AcDbEntity
  8
LEGEND
  6
Continuous
 62
     7
370
    30
100
AcDbLine
 10
1.382844
 20
-8.65299
 30
0.0
 11
1.473083
 21
-8.743229
 31
0.0
  0
LINE
  5
230
330
4F2
100
AcDbEntity
  8
LEGEND
  6
Continuous
 62
     7
370
    30
100
AcDbLine
 10
1.379698
 20
-8.653385
 30
0.0
 11
1.464396
 21
-8.738083
 31
0.0
  0
LINE
  5
231
330
4F2
100
AcDbEntity
  8
LEGEND
  6
Continuous
 62
     7
370
    30
100
AcDbLine
 10
1.376562
 20
-8.653781
 30
0.0
 11
1.455719
 21
-8.732938
 31
0.0
  0
LINE
  5
232
330
4F2
100
AcDbEntity
  8
LEGEND
  6
Continuous
 62
     7
370
    30
100
AcDbLine
 10
1.373417
 20
-8.654177
 30
0.0
 11
1.447031
 21
-8.727792
 31
0.0
  0
LINE
  5
233
330
4F2
100
AcDbEntity
  8
LEGEND
  6
Continuous
 62
     7
370
    30
100
AcDbLine
 10
1.370271
 20
-8.654562
 30
0.0
 11
1.438344
 21
-8.722635
 31
0.0
  0
LINE
  5
234
330
4F2
100
AcDbEntity
  8
LEGEND
  6
Continuous
 62
     7
370
    30
100
AcDbLine
 10
1.367135
 20
-8.654958
 30
0.0
 11
1.429667
 21
-8.71749
 31
0.0
  0
LINE
  5
235
330
4F2
100
AcDbEntity
  8
LEGEND
  6
Continuous
 62
     7
370
    30
100
AcDbLine
 10
1.36399
 20
-8.655354
 30
0.0
 11
1.420979
 21
-8.712344
 31
0.0
  0
LINE
  5
236
330
4F2
100
AcDbEntity
  8
LEGEND
  6
Continuous
 62
     7
370
    30
100
AcDbLine
 10
1.360854
 20
-8.65575
 30
0.0
 11
1.412302
 21
-8.707198
 31
0.0
  0
LINE
  5
237
330
4F2
100
AcDbEntity
  8
LEGEND
  6
Continuous
 62
     7
370
    30
100
AcDbLine
 10
1.357708
 20
-8.656146
 30
0.0
 11
1.403615
 21
-8.702052
 31
0.0
  0
LINE
  5
238
330
4F2
100
AcDbEntity
  8
LEGEND
  6
Continuous
 62
     7
370
    30
100
AcDbLine
 10
1.354573
 20
-8.656542
 30
0.0
 11
1.394927
 21
-8.696896
 31
0.0
  0
LINE
  5
239
330
4F2
100
AcDbEntity
  8
LEGEND
  6
Continuous
 62
     7
370
    30
100
AcDbLine
 10
1.351427
 20
-8.656937
 30
0.0
 11
1.38625
 21
-8.69175
 31
0.0
  0
LINE
  5
23A
330
4F2
100
AcDbEntity
  8
LEGEND
  6
Continuous
 62
     7
370
    30
100
AcDbLine
 10
1.348292
 20
-8.657333
 30
0.0
 11
1.377563
 21
-8.686604
 31
0.0
  0
LINE
  5
23B
330
4F2
100
AcDbEntity
  8
LEGEND
  6
Continuous
 62
     7
370
    30
100
AcDbLine
 10
1.345146
 20
-8.657719
 30
0.0
 11
1.368875
 21
-8.681458
 31
0.0
  0
LINE
  5
23C
330
4F2
100
AcDbEntity
  8
LEGEND
  6
Continuous
 62
     7
370
    30
100
AcDbLine
 10
1.34201
 20
-8.658115
 30
0.0
 11
1.360198
 21
-8.676302
 31
0.0
  0
LINE
  5
23D
330
4F2
100
AcDbEntity
  8
LEGEND
  6
Continuous
 62
     7
370
    30
100
AcDbLine
 10
1.338865
 20
-8.65851
 30
0.0
 11
1.35151
 21
-8.671156
 31
0.0
  0
LINE
  5
23E
330
4F2
100
AcDbEntity
  8
LEGEND
  6
Continuous
 62
     7
370
    30
100
AcDbLine
 10
1.335719
 20
-8.658906
 30
0.0
 11
1.342823
 21
-8.66601
 31
0.0
  0
LINE
  5
23F
330
4F2
100
AcDbEntity
  8
LEGEND
  6
Continuous
 62
     7
370
    30
100
AcDbLine
 10
1.332583
 20
-8.659302
 30
0.0
 11
1.334146
 21
-8.660865
 31
0.0
  0
LINE
  5
240
330
4F2
100
AcDbEntity
  8
_0
  6
Continuous
 62
     7
370
    30
100
AcDbLine
 10
3.472708
 20
-9.210031
 30
0.0
 11
3.527323
 21
-9.210031
 31
0.0
  0
LINE
  5
241
330
4F2
100
AcDbEntity
  8
_0
  6
Continuous
 62
     7
370
    30
100
AcDbLine
 10
3.330698
 20
-9.210031
 30
0.0
 11
3.39624
 21
-9.210031
 31
0.0
  0
LINE
  5
242
330
4F2
100
AcDbEntity
  8
_0
  6
Continuous
 62
     7
370
    30
100
AcDbLine
 10
3.172312
 20
-9.171802
 30
0.0
 11
3.631094
 21
-9.171802
 31
0.0
  0
LINE
  5
243
330
4F2
100
AcDbEntity
  8
_0
  6
Continuous
 62
     7
370
    30
100
AcDbLine
 10
3.237854
 20
-9.155417
 30
0.0
 11
3.636552
 21
-9.155417
 31
0.0
  0
LINE
  5
244
330
4F2
100
AcDbEntity
  8
_0
  6
Continuous
 62
     7
370
    30
100
AcDbLine
 10
3.177781
 20
-9.122646
 30
0.0
 11
3.603781
 21
-9.122646
 31
0.0
  0
LINE
  5
245
330
4F2
100
AcDbEntity
  8
_0
  6
Continuous
 62
     7
370
    30
100
AcDbLine
 10
3.221469
 20
-9.100802
 30
0.0
 11
3.576479
 21
-9.100802
 31
0.0
  0
LINE
  5
246
330
4F2
100
AcDbEntity
  8
_0
  6
Continuous
 62
     7
370
    30
100
AcDbLine
 10
3.172312
 20
-9.078948
 30
0.0
 11
3.620167
 21
-9.078948
 31
0.0
  0
LINE
  5
247
330
4F2
100
AcDbEntity
  8
_0
  6
Continuous
 62
     7
370
    30
100
AcDbLine
 10
3.226927
 20
-9.057104
 30
0.0
 11
3.543708
 21
-9.057104
 31
0.0
  0
LINE
  5
248
330
4F2
100
AcDbEntity
  8
_0
  6
Continuous
 62
     7
370
    30
100
AcDbLine
 10
3.166854
 20
-9.040719
 30
0.0
 11
3.57101
 21
-9.040719
 31
0.0
  0
LINE
  5
249
330
4F2
100
AcDbEntity
  8
_0
  6
Continuous
 62
     7
370
    30
100
AcDbLine
 10
3.194167
 20
-9.013406
 30
0.0
 11
3.631094
 21
-9.013406
 31
0.0
  0
LINE
  5
24A
330
4F2
100
AcDbEntity
  8
_0
  6
Continuous
 62
     7
370
    30
100
AcDbLine
 10
3.166854
 20
-8.991563
 30
0.0
 11
3.620167
 21
-8.991563
 31
0.0
  0
LINE
  5
24B
330
4F2
100
AcDbEntity
  8
_0
  6
Continuous
 62
     7
370
    30
100
AcDbLine
 10
2.735385
 20
-9.084417
 30
0.0
 11
3.068542
 21
-9.193646
 31
0.0
  0
LINE
  5
24C
330
4F2
100
AcDbEntity
  8
_0
  6
Continuous
 62
     7
370
    30
100
AcDbLine
 10
2.746312
 20
-9.100802
 30
0.0
 11
3.106771
 21
-9.226417
 31
0.0
  0
LINE
  5
24D
330
4F2
100
AcDbEntity
  8
_0
  6
Continuous
 62
     7
370
    30
100
AcDbLine
 10
2.746312
 20
-9.117188
 30
0.0
 11
3.139542
 21
-9.253729
 31
0.0
  0
LINE
  5
24E
330
4F2
100
AcDbEntity
  8
_0
  6
Continuous
 62
     7
370
    30
100
AcDbLine
 10
2.724458
 20
-9.117188
 30
0.0
 11
3.177781
 21
-9.2865
 31
0.0
  0
LINE
  5
24F
330
4F2
100
AcDbEntity
  8
_0
  6
Continuous
 62
     7
370
    30
100
AcDbLine
 10
2.768156
 20
-8.833167
 30
0.0
 11
3.11224
 21
-8.920552
 31
0.0
  0
LINE
  5
250
330
4F2
100
AcDbEntity
  8
_0
  6
Continuous
 62
     7
370
    30
100
AcDbLine
 10
2.79
 20
-8.849552
 30
0.0
 11
3.046698
 21
-8.926021
 31
0.0
  0
LINE
  5
251
330
4F2
100
AcDbEntity
  8
_0
  6
Continuous
 62
     7
370
    30
100
AcDbLine
 10
2.740844
 20
-8.800396
 30
0.0
 11
3.07401
 21
-8.876865
 31
0.0
  0
LINE
  5
252
330
4F2
100
AcDbEntity
  8
_0
  6
Continuous
 62
     7
370
    30
100
AcDbLine
 10
2.768156
 20
-8.78401
 30
0.0
 11
2.997542
 21
-8.827708
 31
0.0
  0
LINE
  5
253
330
4F2
100
AcDbEntity
  8
_0
  6
Continuous
 62
     7
370
    30
100
AcDbLine
 10
2.719
 20
-8.734854
 30
0.0
 11
3.079469
 21
-8.827708
 31
0.0
  0
LINE
  5
254
330
4F2
100
AcDbEntity
  8
_0
  6
Continuous
 62
     7
370
    30
100
AcDbLine
 10
3.079469
 20
-8.71301
 30
0.0
 11
3.079469
 21
-8.647458
 31
0.0
  0
LINE
  5
255
330
4F2
100
AcDbEntity
  8
_0
  6
Continuous
 62
     7
370
    30
100
AcDbLine
 10
3.095854
 20
-8.734854
 30
0.0
 11
3.095854
 21
-8.674771
 31
0.0
  0
LINE
  5
256
330
4F2
100
AcDbEntity
  8
_0
  6
Continuous
 62
     7
370
    30
100
AcDbLine
 10
3.04124
 20
-8.707542
 30
0.0
 11
3.04124
 21
-8.642
 31
0.0
  0
LINE
  5
257
330
4F2
100
AcDbEntity
  8
_0
  6
Continuous
 62
     7
370
    30
100
AcDbLine
 10
3.057625
 20
-8.734854
 30
0.0
 11
3.057625
 21
-8.636542
 31
0.0
  0
LINE
  5
258
330
4F2
100
AcDbEntity
  8
_0
  6
Continuous
 62
     7
370
    30
100
AcDbLine
 10
3.019385
 20
-8.718469
 30
0.0
 11
3.019385
 21
-8.631073
 31
0.0
  0
LINE
  5
259
330
4F2
100
AcDbEntity
  8
_0
  6
Continuous
 62
     7
370
    30
100
AcDbLine
 10
2.997542
 20
-8.723927
 30
0.0
 11
2.997542
 21
-8.631073
 31
0.0
  0
LINE
  5
25A
330
4F2
100
AcDbEntity
  8
_0
  6
Continuous
 62
     7
370
    30
100
AcDbLine
 10
2.97024
 20
-8.696615
 30
0.0
 11
2.97024
 21
-8.636542
 31
0.0
  0
LINE
  5
25B
330
4F2
100
AcDbEntity
  8
_0
  6
Continuous
 62
     7
370
    30
100
AcDbLine
 10
2.953854
 20
-8.691156
 30
0.0
 11
2.953854
 21
-8.592844
 31
0.0
  0
LINE
  5
25C
330
4F2
100
AcDbEntity
  8
_0
  6
Continuous
 62
     7
370
    30
100
AcDbLine
 10
2.926542
 20
-8.691156
 30
0.0
 11
2.926542
 21
-8.631073
 31
0.0
  0
LINE
  5
25D
330
4F2
100
AcDbEntity
  8
_0
  6
Continuous
 62
     7
370
    30
100
AcDbLine
 10
2.915615
 20
-8.685698
 30
0.0
 11
2.915615
 21
-8.592844
 31
0.0
  0
LINE
  5
25E
330
4F2
100
AcDbEntity
  8
_0
  6
Continuous
 62
     7
370
    30
100
AcDbLine
 10
2.893771
 20
-8.674771
 30
0.0
 11
2.893771
 21
-8.647458
 31
0.0
  0
LINE
  5
25F
330
4F2
100
AcDbEntity
  8
_0
  6
Continuous
 62
     7
370
    30
100
AcDbLine
 10
2.866469
 20
-8.669313
 30
0.0
 11
2.866469
 21
-8.592844
 31
0.0
  0
LINE
  5
260
330
4F2
100
AcDbEntity
  8
_0
  6
Continuous
 62
     7
370
    30
100
AcDbLine
 10
2.844615
 20
-8.658385
 30
0.0
 11
2.844615
 21
-8.592844
 31
0.0
  0
LINE
  5
261
330
4F2
100
AcDbEntity
  8
_0
  6
Continuous
 62
     7
370
    30
100
AcDbLine
 10
2.828229
 20
-8.663844
 30
0.0
 11
2.828229
 21
-8.625615
 31
0.0
  0
LINE
  5
262
330
4F2
100
AcDbEntity
  8
_0
  6
Continuous
 62
     7
370
    30
100
AcDbLine
 10
2.811844
 20
-8.652927
 30
0.0
 11
2.811844
 21
-8.592844
 31
0.0
  0
LINE
  5
263
330
4F2
100
AcDbEntity
  8
_0
  6
Continuous
 62
     7
370
    30
100
AcDbLine
 10
2.795469
 20
-8.647458
 30
0.0
 11
2.795469
 21
-8.609229
 31
0.0
  0
LINE
  5
264
330
4F2
100
AcDbEntity
  8
_0
  6
Continuous
 62
     7
370
    30
100
AcDbLine
 10
2.768156
 20
-8.642
 30
0.0
 11
2.768156
 21
-8.581917
 31
0.0
  0
LINE
  5
265
330
4F2
100
AcDbEntity
  8
_0
  6
Continuous
 62
     7
370
    30
100
AcDbLine
 10
2.746312
 20
-8.631073
 30
0.0
 11
2.746312
 21
-8.587385
 31
0.0
  0
LINE
  5
266
330
4F2
100
AcDbEntity
  8
_0
  6
Continuous
 62
     7
370
    30
100
AcDbLine
 10
2.735385
 20
-8.642
 30
0.0
 11
2.735385
 21
-8.581917
 31
0.0
  0
LINE
  5
267
330
4F2
100
AcDbEntity
  8
_0
  6
Continuous
 62
     7
370
    30
100
AcDbLine
 10
2.620687
 20
-8.647448
 30
0.0
 11
2.620687
 21
-8.510896
 31
0.0
  0
LINE
  5
268
330
4F2
100
AcDbEntity
  8
_0
  6
Continuous
 62
     7
370
    30
100
AcDbLine
 10
2.642531
 20
-8.636521
 30
0.0
 11
2.637073
 21
-8.538208
 31
0.0
  0
LINE
  5
269
330
4F2
100
AcDbEntity
  8
_0
  6
Continuous
 62
     7
370
    30
100
AcDbLine
 10
2.658917
 20
-8.652906
 30
0.0
 11
2.658917
 21
-8.53274
 31
0.0
  0
LWPOLYLINE
  5
26A
330
4F2
100
AcDbEntity
  8
_0
  6
Continuous
 62
     7
370
    30
100
AcDbPolyline
 90
       16
 70
   128
 43
0.0
 10
2.269958
 20
-8.541604
 10
1.331698
 20
-8.659406
 10
2.826729
 20
-9.54575
 10
3.380729
 20
-9.418437
 10
3.292469
 20
-9.401198
 10
3.25424
 20
-9.379354
 10
2.737469
 20
-9.173615
 10
2.724458
 20
-9.117188
 10
2.708073
 20
-9.051646
 10
2.702615
 20
-8.986094
 10
2.713542
 20
-8.898708
 10
2.719
 20
-8.860479
 10
2.697156
 20
-8.794937
 10
2.691698
 20
-8.745781
 10
2.691698
 20
-8.71301
 10
2.269958
 20
-8.541604
  0
ARC
  5
26B
330
4F2
100
AcDbEntity
  8
_0
  6
Continuous
 62
     7
370
    30
100
AcDbCircle
 10
3.402871
 20
-9.163734
 30
0.0
 40
0.2556637185301969
100
AcDbArc
 50
175.850122
 51
13.591911
  0
LINE
  5
26C
330
4F2
100
AcDbEntity
  8
_0
  6
Continuous
 62
     7
370
    30
100
AcDbLine
 10
3.674073
 20
-8.848781
 30
0.0
 11
3.673052
 21
-8.7535
 31
0.0
  0
LINE
  5
26D
330
4F2
100
AcDbEntity
  8
_0
  6
Continuous
 62
     7
370
    30
100
AcDbLine
 10
3.66875
 20
-8.890812
 30
0.0
 11
3.674073
 21
-8.848781
 31
0.0
  0
LINE
  5
26E
330
4F2
100
AcDbEntity
  8
_0
  6
Continuous
 62
     7
370
    30
100
AcDbLine
 10
3.66124
 20
-8.931958
 30
0.0
 11
3.66875
 21
-8.890812
 31
0.0
  0
LINE
  5
26F
330
4F2
100
AcDbEntity
  8
_0
  6
Continuous
 62
     7
370
    30
100
AcDbLine
 10
3.651375
 20
-8.971802
 30
0.0
 11
3.66124
 21
-8.931958
 31
0.0
  0
LINE
  5
270
330
4F2
100
AcDbEntity
  8
_0
  6
Continuous
 62
     7
370
    30
100
AcDbLine
 10
3.125177
 20
-8.848781
 30
0.0
 11
3.126958
 21
-8.68275
 31
0.0
  0
LINE
  5
271
330
4F2
100
AcDbEntity
  8
_0
  6
Continuous
 62
     7
370
    30
100
AcDbLine
 10
3.147875
 20
-8.971802
 30
0.0
 11
3.138021
 21
-8.931958
 31
0.0
  0
LINE
  5
272
330
4F2
100
AcDbEntity
  8
_0
  6
Continuous
 62
     7
370
    30
100
AcDbLine
 10
3.1305
 20
-8.890812
 30
0.0
 11
3.125177
 21
-8.848781
 31
0.0
  0
LINE
  5
273
330
4F2
100
AcDbEntity
  8
_0
  6
Continuous
 62
     7
370
    30
100
AcDbLine
 10
3.138021
 20
-8.931958
 30
0.0
 11
3.1305
 21
-8.890812
 31
0.0
  0
LINE
  5
274
330
4F2
100
AcDbEntity
  8
_0
  6
Continuous
 62
     7
370
    30
100
AcDbLine
 10
2.696906
 20
-8.731417
 30
0.0
 11
2.698698
 21
-8.565375
 31
0.0
  0
LINE
  5
275
330
4F2
100
AcDbEntity
  8
_0
  6
Continuous
 62
     7
370
    30
100
AcDbLine
 10
2.70224
 20
-8.773438
 30
0.0
 11
2.696906
 21
-8.731417
 31
0.0
  0
LINE
  5
276
330
4F2
100
AcDbEntity
  8
_0
  6
Continuous
 62
     7
370
    30
100
AcDbLine
 10
2.70975
 20
-8.814594
 30
0.0
 11
2.70224
 21
-8.773438
 31
0.0
  0
LINE
  5
277
330
4F2
100
AcDbEntity
  8
_0
  6
Continuous
 62
     7
370
    30
100
AcDbLine
 10
2.719615
 20
-8.854437
 30
0.0
 11
2.70975
 21
-8.814594
 31
0.0
  0
LINE
  5
278
330
4F2
100
AcDbEntity
  8
_0
  6
Continuous
 62
     7
370
    30
100
AcDbLine
 10
2.70324
 20
-8.936094
 30
0.0
 11
2.719615
 21
-8.854437
 31
0.0
  0
LINE
  5
279
330
4F2
100
AcDbEntity
  8
_0
  6
Continuous
 62
     7
370
    30
100
AcDbLine
 10
2.703552
 20
-9.021271
 30
0.0
 11
2.70324
 21
-8.936094
 31
0.0
  0
LINE
  5
27A
330
4F2
100
AcDbEntity
  8
_0
  6
Continuous
 62
     7
370
    30
100
AcDbLine
 10
2.726521
 20
-9.112906
 30
0.0
 11
2.703552
 21
-9.021271
 31
0.0
  0
LINE
  5
27B
330
4F2
100
AcDbEntity
  8
_0
  6
Continuous
 62
     7
370
    30
100
AcDbLine
 10
2.737469
 20
-9.173615
 30
0.0
 11
2.726521
 21
-9.112906
 31
0.0
  0
LINE
  5
27C
330
4F2
100
AcDbEntity
  8
_0
  6
Continuous
 62
     7
370
    30
100
AcDbLine
 10
3.355417
 20
-9.414958
 30
0.0
 11
2.737469
 21
-9.173615
 31
0.0
  0
LINE
  5
27D
330
4F2
100
AcDbEntity
  8
_0
  6
Continuous
 62
     7
370
    30
100
AcDbLine
 10
1.331698
 20
-8.659406
 30
0.0
 11
3.436437
 21
-9.907229
 31
0.0
  0
LINE
  5
27E
330
4F2
100
AcDbEntity
  8
_0
  6
Continuous
 62
     7
370
    30
100
AcDbLine
 10
2.269958
 20
-8.541604
 30
0.0
 11
1.331698
 21
-8.659406
 31
0.0
  0
LINE
  5
27F
330
4F2
100
AcDbEntity
  8
_0
  6
Continuous
 62
     7
370
    30
100
AcDbLine
 10
2.695198
 20
-8.709302
 30
0.0
 11
2.269958
 21
-8.541604
 31
0.0
  0
LINE
  5
280
330
4F2
100
AcDbEntity
  8
_0
  6
Continuous
 62
     7
370
    30
100
AcDbLine
 10
1.429833
 20
-4.73451
 30
0.0
 11
3.534573
 21
-5.982333
 31
0.0
  0
LINE
  5
281
330
4F2
100
AcDbEntity
  8
_0
  6
Continuous
 62
     7
370
    30
100
AcDbLine
 10
2.368094
 20
-4.616708
 30
0.0
 11
1.429833
 21
-4.73451
 31
0.0
  0
LINE
  5
282
330
4F2
100
AcDbEntity
  8
_0
  6
Continuous
 62
     7
370
    30
100
AcDbLine
 10
4.792208
 20
-5.572687
 30
0.0
 11
2.368094
 21
-4.616708
 31
0.0
  0
LINE
  5
283
330
4F2
100
AcDbEntity
  8
_0
  6
Continuous
 62
     7
370
    30
100
AcDbLine
 10
2.368094
 20
-4.741562
 30
0.0
 11
4.530448
 21
-5.657958
 31
0.0
  0
LINE
  5
284
330
4F2
100
AcDbEntity
  8
_0
  6
Continuous
 62
     7
370
    30
100
AcDbLine
 10
1.603615
 20
-4.837552
 30
0.0
 11
2.368094
 21
-4.741562
 31
0.0
  0
POINT
  5
285
330
4F2
100
AcDbEntity
  8
LEGEND
  6
Continuous
 62
     7
370
    30
100
AcDbPoint
 10
1.478125
 20
-4.756844
 30
0.0
  0
POINT
  5
286
330
4F2
100
AcDbEntity
  8
LEGEND
  6
Continuous
 62
     7
370
    30
100
AcDbPoint
 10
1.496875
 20
-4.756844
 30
0.0
  0
POINT
  5
287
330
4F2
100
AcDbEntity
  8
LEGEND
  6
Continuous
 62
     7
370
    30
100
AcDbPoint
 10
1.515625
 20
-4.756844
 30
0.0
  0
POINT
  5
288
330
4F2
100
AcDbEntity
  8
LEGEND
  6
Continuous
 62
     7
370
    30
100
AcDbPoint
 10
1.534375
 20
-4.756844
 30
0.0
  0
POINT
  5
289
330
4F2
100
AcDbEntity
  8
LEGEND
  6
Continuous
 62
     7
370
    30
100
AcDbPoint
 10
1.553125
 20
-4.756844
 30
0.0
  0
POINT
  5
28A
330
4F2
100
AcDbEntity
  8
LEGEND
  6
Continuous
 62
     7
370
    30
100
AcDbPoint
 10
1.571875
 20
-4.756844
 30
0.0
  0
POINT
  5
28B
330
4F2
100
AcDbEntity
  8
LEGEND
  6
Continuous
 62
     7
370
    30
100
AcDbPoint
 10
1.590625
 20
-4.756844
 30
0.0
  0
POINT
  5
28C
330
4F2
100
AcDbEntity
  8
LEGEND
  6
Continuous
 62
     7
370
    30
100
AcDbPoint
 10
1.609375
 20
-4.756844
 30
0.0
  0
POINT
  5
28D
330
4F2
100
AcDbEntity
  8
LEGEND
  6
Continuous
 62
     7
370
    30
100
AcDbPoint
 10
1.628125
 20
-4.756844
 30
0.0
  0
POINT
  5
28E
330
4F2
100
AcDbEntity
  8
LEGEND
  6
Continuous
 62
     7
370
    30
100
AcDbPoint
 10
1.646875
 20
-4.756844
 30
0.0
  0
POINT
  5
28F
330
4F2
100
AcDbEntity
  8
LEGEND
  6
Continuous
 62
     7
370
    30
100
AcDbPoint
 10
1.665625
 20
-4.756844
 30
0.0
  0
POINT
  5
290
330
4F2
100
AcDbEntity
  8
LEGEND
  6
Continuous
 62
     7
370
    30
100
AcDbPoint
 10
1.684375
 20
-4.756844
 30
0.0
  0
POINT
  5
291
330
4F2
100
AcDbEntity
  8
LEGEND
  6
Continuous
 62
     7
370
    30
100
AcDbPoint
 10
1.703125
 20
-4.756844
 30
0.0
  0
POINT
  5
292
330
4F2
100
AcDbEntity
  8
LEGEND
  6
Continuous
 62
     7
370
    30
100
AcDbPoint
 10
1.721875
 20
-4.756844
 30
0.0
  0
POINT
  5
293
330
4F2
100
AcDbEntity
  8
LEGEND
  6
Continuous
 62
     7
370
    30
100
AcDbPoint
 10
1.740625
 20
-4.756844
 30
0.0
  0
POINT
  5
294
330
4F2
100
AcDbEntity
  8
LEGEND
  6
Continuous
 62
     7
370
    30
100
AcDbPoint
 10
1.759375
 20
-4.756844
 30
0.0
  0
POINT
  5
295
330
4F2
100
AcDbEntity
  8
LEGEND
  6
Continuous
 62
     7
370
    30
100
AcDbPoint
 10
1.778125
 20
-4.756844
 30
0.0
  0
POINT
  5
296
330
4F2
100
AcDbEntity
  8
LEGEND
  6
Continuous
 62
     7
370
    30
100
AcDbPoint
 10
1.796875
 20
-4.756844
 30
0.0
  0
POINT
  5
297
330
4F2
100
AcDbEntity
  8
LEGEND
  6
Continuous
 62
     7
370
    30
100
AcDbPoint
 10
1.815625
 20
-4.756844
 30
0.0
  0
POINT
  5
298
330
4F2
100
AcDbEntity
  8
LEGEND
  6
Continuous
 62
     7
370
    30
100
AcDbPoint
 10
1.834375
 20
-4.756844
 30
0.0
  0
POINT
  5
299
330
4F2
100
AcDbEntity
  8
LEGEND
  6
Continuous
 62
     7
370
    30
100
AcDbPoint
 10
1.853125
 20
-4.756844
 30
0.0
  0
POINT
  5
29A
330
4F2
100
AcDbEntity
  8
LEGEND
  6
Continuous
 62
     7
370
    30
100
AcDbPoint
 10
1.871875
 20
-4.756844
 30
0.0
  0
POINT
  5
29B
330
4F2
100
AcDbEntity
  8
LEGEND
  6
Continuous
 62
     7
370
    30
100
AcDbPoint
 10
1.890625
 20
-4.756844
 30
0.0
  0
POINT
  5
29C
330
4F2
100
AcDbEntity
  8
LEGEND
  6
Continuous
 62
     7
370
    30
100
AcDbPoint
 10
1.909375
 20
-4.756844
 30
0.0
  0
POINT
  5
29D
330
4F2
100
AcDbEntity
  8
LEGEND
  6
Continuous
 62
     7
370
    30
100
AcDbPoint
 10
1.928125
 20
-4.756844
 30
0.0
  0
POINT
  5
29E
330
4F2
100
AcDbEntity
  8
LEGEND
  6
Continuous
 62
     7
370
    30
100
AcDbPoint
 10
1.946875
 20
-4.756844
 30
0.0
  0
POINT
  5
29F
330
4F2
100
AcDbEntity
  8
LEGEND
  6
Continuous
 62
     7
370
    30
100
AcDbPoint
 10
1.965625
 20
-4.756844
 30
0.0
  0
POINT
  5
2A0
330
4F2
100
AcDbEntity
  8
LEGEND
  6
Continuous
 62
     7
370
    30
100
AcDbPoint
 10
1.984375
 20
-4.756844
 30
0.0
  0
POINT
  5
2A1
330
4F2
100
AcDbEntity
  8
LEGEND
  6
Continuous
 62
     7
370
    30
100
AcDbPoint
 10
2.003125
 20
-4.756844
 30
0.0
  0
POINT
  5
2A2
330
4F2
100
AcDbEntity
  8
LEGEND
  6
Continuous
 62
     7
370
    30
100
AcDbPoint
 10
2.021875
 20
-4.756844
 30
0.0
  0
POINT
  5
2A3
330
4F2
100
AcDbEntity
  8
LEGEND
  6
Continuous
 62
     7
370
    30
100
AcDbPoint
 10
2.040625
 20
-4.756844
 30
0.0
  0
POINT
  5
2A4
330
4F2
100
AcDbEntity
  8
LEGEND
  6
Continuous
 62
     7
370
    30
100
AcDbPoint
 10
2.059375
 20
-4.756844
 30
0.0
  0
POINT
  5
2A5
330
4F2
100
AcDbEntity
  8
LEGEND
  6
Continuous
 62
     7
370
    30
100
AcDbPoint
 10
2.078125
 20
-4.756844
 30
0.0
  0
POINT
  5
2A6
330
4F2
100
AcDbEntity
  8
LEGEND
  6
Continuous
 62
     7
370
    30
100
AcDbPoint
 10
2.096875
 20
-4.756844
 30
0.0
  0
POINT
  5
2A7
330
4F2
100
AcDbEntity
  8
LEGEND
  6
Continuous
 62
     7
370
    30
100
AcDbPoint
 10
2.115625
 20
-4.756844
 30
0.0
  0
POINT
  5
2A8
330
4F2
100
AcDbEntity
  8
LEGEND
  6
Continuous
 62
     7
370
    30
100
AcDbPoint
 10
2.134375
 20
-4.756844
 30
0.0
  0
POINT
  5
2A9
330
4F2
100
AcDbEntity
  8
LEGEND
  6
Continuous
 62
     7
370
    30
100
AcDbPoint
 10
2.153125
 20
-4.756844
 30
0.0
  0
POINT
  5
2AA
330
4F2
100
AcDbEntity
  8
LEGEND
  6
Continuous
 62
     7
370
    30
100
AcDbPoint
 10
2.171875
 20
-4.756844
 30
0.0
  0
POINT
  5
2AB
330
4F2
100
AcDbEntity
  8
LEGEND
  6
Continuous
 62
     7
370
    30
100
AcDbPoint
 10
2.190625
 20
-4.756844
 30
0.0
  0
POINT
  5
2AC
330
4F2
100
AcDbEntity
  8
LEGEND
  6
Continuous
 62
     7
370
    30
100
AcDbPoint
 10
2.209375
 20
-4.756844
 30
0.0
  0
POINT
  5
2AD
330
4F2
100
AcDbEntity
  8
LEGEND
  6
Continuous
 62
     7
370
    30
100
AcDbPoint
 10
2.228125
 20
-4.756844
 30
0.0
  0
POINT
  5
2AE
330
4F2
100
AcDbEntity
  8
LEGEND
  6
Continuous
 62
     7
370
    30
100
AcDbPoint
 10
2.415625
 20
-4.756844
 30
0.0
  0
POINT
  5
2AF
330
4F2
100
AcDbEntity
  8
LEGEND
  6
Continuous
 62
     7
370
    30
100
AcDbPoint
 10
2.434375
 20
-4.756844
 30
0.0
  0
POINT
  5
2B0
330
4F2
100
AcDbEntity
  8
LEGEND
  6
Continuous
 62
     7
370
    30
100
AcDbPoint
 10
2.453125
 20
-4.756844
 30
0.0
  0
POINT
  5
2B1
330
4F2
100
AcDbEntity
  8
LEGEND
  6
Continuous
 62
     7
370
    30
100
AcDbPoint
 10
2.471875
 20
-4.756844
 30
0.0
  0
POINT
  5
2B2
330
4F2
100
AcDbEntity
  8
LEGEND
  6
Continuous
 62
     7
370
    30
100
AcDbPoint
 10
2.490625
 20
-4.756844
 30
0.0
  0
POINT
  5
2B3
330
4F2
100
AcDbEntity
  8
LEGEND
  6
Continuous
 62
     7
370
    30
100
AcDbPoint
 10
2.509375
 20
-4.756844
 30
0.0
  0
POINT
  5
2B4
330
4F2
100
AcDbEntity
  8
LEGEND
  6
Continuous
 62
     7
370
    30
100
AcDbPoint
 10
2.528125
 20
-4.756844
 30
0.0
  0
POINT
  5
2B5
330
4F2
100
AcDbEntity
  8
LEGEND
  6
Continuous
 62
     7
370
    30
100
AcDbPoint
 10
2.546875
 20
-4.756844
 30
0.0
  0
POINT
  5
2B6
330
4F2
100
AcDbEntity
  8
LEGEND
  6
Continuous
 62
     7
370
    30
100
AcDbPoint
 10
2.565625
 20
-4.756844
 30
0.0
  0
POINT
  5
2B7
330
4F2
100
AcDbEntity
  8
LEGEND
  6
Continuous
 62
     7
370
    30
100
AcDbPoint
 10
2.584375
 20
-4.756844
 30
0.0
  0
POINT
  5
2B8
330
4F2
100
AcDbEntity
  8
LEGEND
  6
Continuous
 62
     7
370
    30
100
AcDbPoint
 10
2.603125
 20
-4.756844
 30
0.0
  0
POINT
  5
2B9
330
4F2
100
AcDbEntity
  8
LEGEND
  6
Continuous
 62
     7
370
    30
100
AcDbPoint
 10
2.621875
 20
-4.756844
 30
0.0
  0
POINT
  5
2BA
330
4F2
100
AcDbEntity
  8
LEGEND
  6
Continuous
 62
     7
370
    30
100
AcDbPoint
 10
2.640625
 20
-4.756844
 30
0.0
  0
POINT
  5
2BB
330
4F2
100
AcDbEntity
  8
LEGEND
  6
Continuous
 62
     7
370
    30
100
AcDbPoint
 10
2.659375
 20
-4.756844
 30
0.0
  0
POINT
  5
2BC
330
4F2
100
AcDbEntity
  8
LEGEND
  6
Continuous
 62
     7
370
    30
100
AcDbPoint
 10
1.45
 20
-4.738094
 30
0.0
  0
POINT
  5
2BD
330
4F2
100
AcDbEntity
  8
LEGEND
  6
Continuous
 62
     7
370
    30
100
AcDbPoint
 10
1.46875
 20
-4.738094
 30
0.0
  0
POINT
  5
2BE
330
4F2
100
AcDbEntity
  8
LEGEND
  6
Continuous
 62
     7
370
    30
100
AcDbPoint
 10
1.4875
 20
-4.738094
 30
0.0
  0
POINT
  5
2BF
330
4F2
100
AcDbEntity
  8
LEGEND
  6
Continuous
 62
     7
370
    30
100
AcDbPoint
 10
1.50625
 20
-4.738094
 30
0.0
  0
POINT
  5
2C0
330
4F2
100
AcDbEntity
  8
LEGEND
  6
Continuous
 62
     7
370
    30
100
AcDbPoint
 10
1.525
 20
-4.738094
 30
0.0
  0
POINT
  5
2C1
330
4F2
100
AcDbEntity
  8
LEGEND
  6
Continuous
 62
     7
370
    30
100
AcDbPoint
 10
1.54375
 20
-4.738094
 30
0.0
  0
POINT
  5
2C2
330
4F2
100
AcDbEntity
  8
LEGEND
  6
Continuous
 62
     7
370
    30
100
AcDbPoint
 10
1.5625
 20
-4.738094
 30
0.0
  0
POINT
  5
2C3
330
4F2
100
AcDbEntity
  8
LEGEND
  6
Continuous
 62
     7
370
    30
100
AcDbPoint
 10
1.58125
 20
-4.738094
 30
0.0
  0
POINT
  5
2C4
330
4F2
100
AcDbEntity
  8
LEGEND
  6
Continuous
 62
     7
370
    30
100
AcDbPoint
 10
1.6
 20
-4.738094
 30
0.0
  0
POINT
  5
2C5
330
4F2
100
AcDbEntity
  8
LEGEND
  6
Continuous
 62
     7
370
    30
100
AcDbPoint
 10
1.61875
 20
-4.738094
 30
0.0
  0
POINT
  5
2C6
330
4F2
100
AcDbEntity
  8
LEGEND
  6
Continuous
 62
     7
370
    30
100
AcDbPoint
 10
1.6375
 20
-4.738094
 30
0.0
  0
POINT
  5
2C7
330
4F2
100
AcDbEntity
  8
LEGEND
  6
Continuous
 62
     7
370
    30
100
AcDbPoint
 10
1.65625
 20
-4.738094
 30
0.0
  0
POINT
  5
2C8
330
4F2
100
AcDbEntity
  8
LEGEND
  6
Continuous
 62
     7
370
    30
100
AcDbPoint
 10
1.675
 20
-4.738094
 30
0.0
  0
POINT
  5
2C9
330
4F2
100
AcDbEntity
  8
LEGEND
  6
Continuous
 62
     7
370
    30
100
AcDbPoint
 10
1.69375
 20
-4.738094
 30
0.0
  0
POINT
  5
2CA
330
4F2
100
AcDbEntity
  8
LEGEND
  6
Continuous
 62
     7
370
    30
100
AcDbPoint
 10
1.7125
 20
-4.738094
 30
0.0
  0
POINT
  5
2CB
330
4F2
100
AcDbEntity
  8
LEGEND
  6
Continuous
 62
     7
370
    30
100
AcDbPoint
 10
1.73125
 20
-4.738094
 30
0.0
  0
POINT
  5
2CC
330
4F2
100
AcDbEntity
  8
LEGEND
  6
Continuous
 62
     7
370
    30
100
AcDbPoint
 10
1.75
 20
-4.738094
 30
0.0
  0
POINT
  5
2CD
330
4F2
100
AcDbEntity
  8
LEGEND
  6
Continuous
 62
     7
370
    30
100
AcDbPoint
 10
1.76875
 20
-4.738094
 30
0.0
  0
POINT
  5
2CE
330
4F2
100
AcDbEntity
  8
LEGEND
  6
Continuous
 62
     7
370
    30
100
AcDbPoint
 10
1.7875
 20
-4.738094
 30
0.0
  0
POINT
  5
2CF
330
4F2
100
AcDbEntity
  8
LEGEND
  6
Continuous
 62
     7
370
    30
100
AcDbPoint
 10
1.80625
 20
-4.738094
 30
0.0
  0
POINT
  5
2D0
330
4F2
100
AcDbEntity
  8
LEGEND
  6
Continuous
 62
     7
370
    30
100
AcDbPoint
 10
1.825
 20
-4.738094
 30
0.0
  0
POINT
  5
2D1
330
4F2
100
AcDbEntity
  8
LEGEND
  6
Continuous
 62
     7
370
    30
100
AcDbPoint
 10
1.84375
 20
-4.738094
 30
0.0
  0
POINT
  5
2D2
330
4F2
100
AcDbEntity
  8
LEGEND
  6
Continuous
 62
     7
370
    30
100
AcDbPoint
 10
1.8625
 20
-4.738094
 30
0.0
  0
POINT
  5
2D3
330
4F2
100
AcDbEntity
  8
LEGEND
  6
Continuous
 62
     7
370
    30
100
AcDbPoint
 10
1.88125
 20
-4.738094
 30
0.0
  0
POINT
  5
2D4
330
4F2
100
AcDbEntity
  8
LEGEND
  6
Continuous
 62
     7
370
    30
100
AcDbPoint
 10
1.9
 20
-4.738094
 30
0.0
  0
POINT
  5
2D5
330
4F2
100
AcDbEntity
  8
LEGEND
  6
Continuous
 62
     7
370
    30
100
AcDbPoint
 10
1.91875
 20
-4.738094
 30
0.0
  0
POINT
  5
2D6
330
4F2
100
AcDbEntity
  8
LEGEND
  6
Continuous
 62
     7
370
    30
100
AcDbPoint
 10
1.9375
 20
-4.738094
 30
0.0
  0
POINT
  5
2D7
330
4F2
100
AcDbEntity
  8
LEGEND
  6
Continuous
 62
     7
370
    30
100
AcDbPoint
 10
1.95625
 20
-4.738094
 30
0.0
  0
POINT
  5
2D8
330
4F2
100
AcDbEntity
  8
LEGEND
  6
Continuous
 62
     7
370
    30
100
AcDbPoint
 10
1.975
 20
-4.738094
 30
0.0
  0
POINT
  5
2D9
330
4F2
100
AcDbEntity
  8
LEGEND
  6
Continuous
 62
     7
370
    30
100
AcDbPoint
 10
1.99375
 20
-4.738094
 30
0.0
  0
POINT
  5
2DA
330
4F2
100
AcDbEntity
  8
LEGEND
  6
Continuous
 62
     7
370
    30
100
AcDbPoint
 10
2.0125
 20
-4.738094
 30
0.0
  0
POINT
  5
2DB
330
4F2
100
AcDbEntity
  8
LEGEND
  6
Continuous
 62
     7
370
    30
100
AcDbPoint
 10
2.03125
 20
-4.738094
 30
0.0
  0
POINT
  5
2DC
330
4F2
100
AcDbEntity
  8
LEGEND
  6
Continuous
 62
     7
370
    30
100
AcDbPoint
 10
2.05
 20
-4.738094
 30
0.0
  0
POINT
  5
2DD
330
4F2
100
AcDbEntity
  8
LEGEND
  6
Continuous
 62
     7
370
    30
100
AcDbPoint
 10
2.06875
 20
-4.738094
 30
0.0
  0
POINT
  5
2DE
330
4F2
100
AcDbEntity
  8
LEGEND
  6
Continuous
 62
     7
370
    30
100
AcDbPoint
 10
2.0875
 20
-4.738094
 30
0.0
  0
POINT
  5
2DF
330
4F2
100
AcDbEntity
  8
LEGEND
  6
Continuous
 62
     7
370
    30
100
AcDbPoint
 10
2.10625
 20
-4.738094
 30
0.0
  0
POINT
  5
2E0
330
4F2
100
AcDbEntity
  8
LEGEND
  6
Continuous
 62
     7
370
    30
100
AcDbPoint
 10
2.125
 20
-4.738094
 30
0.0
  0
POINT
  5
2E1
330
4F2
100
AcDbEntity
  8
LEGEND
  6
Continuous
 62
     7
370
    30
100
AcDbPoint
 10
2.14375
 20
-4.738094
 30
0.0
  0
POINT
  5
2E2
330
4F2
100
AcDbEntity
  8
LEGEND
  6
Continuous
 62
     7
370
    30
100
AcDbPoint
 10
2.1625
 20
-4.738094
 30
0.0
  0
POINT
  5
2E3
330
4F2
100
AcDbEntity
  8
LEGEND
  6
Continuous
 62
     7
370
    30
100
AcDbPoint
 10
2.18125
 20
-4.738094
 30
0.0
  0
POINT
  5
2E4
330
4F2
100
AcDbEntity
  8
LEGEND
  6
Continuous
 62
     7
370
    30
100
AcDbPoint
 10
2.2
 20
-4.738094
 30
0.0
  0
POINT
  5
2E5
330
4F2
100
AcDbEntity
  8
LEGEND
  6
Continuous
 62
     7
370
    30
100
AcDbPoint
 10
2.21875
 20
-4.738094
 30
0.0
  0
POINT
  5
2E6
330
4F2
100
AcDbEntity
  8
LEGEND
  6
Continuous
 62
     7
370
    30
100
AcDbPoint
 10
2.2375
 20
-4.738094
 30
0.0
  0
POINT
  5
2E7
330
4F2
100
AcDbEntity
  8
LEGEND
  6
Continuous
 62
     7
370
    30
100
AcDbPoint
 10
2.25625
 20
-4.738094
 30
0.0
  0
POINT
  5
2E8
330
4F2
100
AcDbEntity
  8
LEGEND
  6
Continuous
 62
     7
370
    30
100
AcDbPoint
 10
2.275
 20
-4.738094
 30
0.0
  0
POINT
  5
2E9
330
4F2
100
AcDbEntity
  8
LEGEND
  6
Continuous
 62
     7
370
    30
100
AcDbPoint
 10
2.29375
 20
-4.738094
 30
0.0
  0
POINT
  5
2EA
330
4F2
100
AcDbEntity
  8
LEGEND
  6
Continuous
 62
     7
370
    30
100
AcDbPoint
 10
2.3125
 20
-4.738094
 30
0.0
  0
POINT
  5
2EB
330
4F2
100
AcDbEntity
  8
LEGEND
  6
Continuous
 62
     7
370
    30
100
AcDbPoint
 10
2.33125
 20
-4.738094
 30
0.0
  0
POINT
  5
2EC
330
4F2
100
AcDbEntity
  8
LEGEND
  6
Continuous
 62
     7
370
    30
100
AcDbPoint
 10
2.35
 20
-4.738094
 30
0.0
  0
POINT
  5
2ED
330
4F2
100
AcDbEntity
  8
LEGEND
  6
Continuous
 62
     7
370
    30
100
AcDbPoint
 10
2.36875
 20
-4.738094
 30
0.0
  0
POINT
  5
2EE
330
4F2
100
AcDbEntity
  8
LEGEND
  6
Continuous
 62
     7
370
    30
100
AcDbPoint
 10
2.3875
 20
-4.738094
 30
0.0
  0
POINT
  5
2EF
330
4F2
100
AcDbEntity
  8
LEGEND
  6
Continuous
 62
     7
370
    30
100
AcDbPoint
 10
2.40625
 20
-4.738094
 30
0.0
  0
POINT
  5
2F0
330
4F2
100
AcDbEntity
  8
LEGEND
  6
Continuous
 62
     7
370
    30
100
AcDbPoint
 10
2.425
 20
-4.738094
 30
0.0
  0
POINT
  5
2F1
330
4F2
100
AcDbEntity
  8
LEGEND
  6
Continuous
 62
     7
370
    30
100
AcDbPoint
 10
2.44375
 20
-4.738094
 30
0.0
  0
POINT
  5
2F2
330
4F2
100
AcDbEntity
  8
LEGEND
  6
Continuous
 62
     7
370
    30
100
AcDbPoint
 10
2.4625
 20
-4.738094
 30
0.0
  0
POINT
  5
2F3
330
4F2
100
AcDbEntity
  8
LEGEND
  6
Continuous
 62
     7
370
    30
100
AcDbPoint
 10
2.48125
 20
-4.738094
 30
0.0
  0
POINT
  5
2F4
330
4F2
100
AcDbEntity
  8
LEGEND
  6
Continuous
 62
     7
370
    30
100
AcDbPoint
 10
2.5
 20
-4.738094
 30
0.0
  0
POINT
  5
2F5
330
4F2
100
AcDbEntity
  8
LEGEND
  6
Continuous
 62
     7
370
    30
100
AcDbPoint
 10
2.51875
 20
-4.738094
 30
0.0
  0
POINT
  5
2F6
330
4F2
100
AcDbEntity
  8
LEGEND
  6
Continuous
 62
     7
370
    30
100
AcDbPoint
 10
2.5375
 20
-4.738094
 30
0.0
  0
POINT
  5
2F7
330
4F2
100
AcDbEntity
  8
LEGEND
  6
Continuous
 62
     7
370
    30
100
AcDbPoint
 10
2.55625
 20
-4.738094
 30
0.0
  0
POINT
  5
2F8
330
4F2
100
AcDbEntity
  8
LEGEND
  6
Continuous
 62
     7
370
    30
100
AcDbPoint
 10
2.575
 20
-4.738094
 30
0.0
  0
POINT
  5
2F9
330
4F2
100
AcDbEntity
  8
LEGEND
  6
Continuous
 62
     7
370
    30
100
AcDbPoint
 10
2.59375
 20
-4.738094
 30
0.0
  0
POINT
  5
2FA
330
4F2
100
AcDbEntity
  8
LEGEND
  6
Continuous
 62
     7
370
    30
100
AcDbPoint
 10
2.6125
 20
-4.738094
 30
0.0
  0
POINT
  5
2FB
330
4F2
100
AcDbEntity
  8
LEGEND
  6
Continuous
 62
     7
370
    30
100
AcDbPoint
 10
2.63125
 20
-4.738094
 30
0.0
  0
POINT
  5
2FC
330
4F2
100
AcDbEntity
  8
LEGEND
  6
Continuous
 62
     7
370
    30
100
AcDbPoint
 10
2.65
 20
-4.738094
 30
0.0
  0
POINT
  5
2FD
330
4F2
100
AcDbEntity
  8
LEGEND
  6
Continuous
 62
     7
370
    30
100
AcDbPoint
 10
1.553125
 20
-4.719344
 30
0.0
  0
POINT
  5
2FE
330
4F2
100
AcDbEntity
  8
LEGEND
  6
Continuous
 62
     7
370
    30
100
AcDbPoint
 10
1.571875
 20
-4.719344
 30
0.0
  0
POINT
  5
2FF
330
4F2
100
AcDbEntity
  8
LEGEND
  6
Continuous
 62
     7
370
    30
100
AcDbPoint
 10
1.590625
 20
-4.719344
 30
0.0
  0
POINT
  5
300
330
4F2
100
AcDbEntity
  8
LEGEND
  6
Continuous
 62
     7
370
    30
100
AcDbPoint
 10
1.609375
 20
-4.719344
 30
0.0
  0
POINT
  5
301
330
4F2
100
AcDbEntity
  8
LEGEND
  6
Continuous
 62
     7
370
    30
100
AcDbPoint
 10
1.628125
 20
-4.719344
 30
0.0
  0
POINT
  5
302
330
4F2
100
AcDbEntity
  8
LEGEND
  6
Continuous
 62
     7
370
    30
100
AcDbPoint
 10
1.646875
 20
-4.719344
 30
0.0
  0
POINT
  5
303
330
4F2
100
AcDbEntity
  8
LEGEND
  6
Continuous
 62
     7
370
    30
100
AcDbPoint
 10
1.665625
 20
-4.719344
 30
0.0
  0
POINT
  5
304
330
4F2
100
AcDbEntity
  8
LEGEND
  6
Continuous
 62
     7
370
    30
100
AcDbPoint
 10
1.684375
 20
-4.719344
 30
0.0
  0
POINT
  5
305
330
4F2
100
AcDbEntity
  8
LEGEND
  6
Continuous
 62
     7
370
    30
100
AcDbPoint
 10
1.703125
 20
-4.719344
 30
0.0
  0
POINT
  5
306
330
4F2
100
AcDbEntity
  8
LEGEND
  6
Continuous
 62
     7
370
    30
100
AcDbPoint
 10
1.721875
 20
-4.719344
 30
0.0
  0
POINT
  5
307
330
4F2
100
AcDbEntity
  8
LEGEND
  6
Continuous
 62
     7
370
    30
100
AcDbPoint
 10
1.740625
 20
-4.719344
 30
0.0
  0
POINT
  5
308
330
4F2
100
AcDbEntity
  8
LEGEND
  6
Continuous
 62
     7
370
    30
100
AcDbPoint
 10
1.759375
 20
-4.719344
 30
0.0
  0
POINT
  5
309
330
4F2
100
AcDbEntity
  8
LEGEND
  6
Continuous
 62
     7
370
    30
100
AcDbPoint
 10
1.778125
 20
-4.719344
 30
0.0
  0
POINT
  5
30A
330
4F2
100
AcDbEntity
  8
LEGEND
  6
Continuous
 62
     7
370
    30
100
AcDbPoint
 10
1.796875
 20
-4.719344
 30
0.0
  0
POINT
  5
30B
330
4F2
100
AcDbEntity
  8
LEGEND
  6
Continuous
 62
     7
370
    30
100
AcDbPoint
 10
1.815625
 20
-4.719344
 30
0.0
  0
POINT
  5
30C
330
4F2
100
AcDbEntity
  8
LEGEND
  6
Continuous
 62
     7
370
    30
100
AcDbPoint
 10
1.834375
 20
-4.719344
 30
0.0
  0
POINT
  5
30D
330
4F2
100
AcDbEntity
  8
LEGEND
  6
Continuous
 62
     7
370
    30
100
AcDbPoint
 10
1.853125
 20
-4.719344
 30
0.0
  0
POINT
  5
30E
330
4F2
100
AcDbEntity
  8
LEGEND
  6
Continuous
 62
     7
370
    30
100
AcDbPoint
 10
1.871875
 20
-4.719344
 30
0.0
  0
POINT
  5
30F
330
4F2
100
AcDbEntity
  8
LEGEND
  6
Continuous
 62
     7
370
    30
100
AcDbPoint
 10
1.890625
 20
-4.719344
 30
0.0
  0
POINT
  5
310
330
4F2
100
AcDbEntity
  8
LEGEND
  6
Continuous
 62
     7
370
    30
100
AcDbPoint
 10
1.909375
 20
-4.719344
 30
0.0
  0
POINT
  5
311
330
4F2
100
AcDbEntity
  8
LEGEND
  6
Continuous
 62
     7
370
    30
100
AcDbPoint
 10
1.928125
 20
-4.719344
 30
0.0
  0
POINT
  5
312
330
4F2
100
AcDbEntity
  8
LEGEND
  6
Continuous
 62
     7
370
    30
100
AcDbPoint
 10
1.946875
 20
-4.719344
 30
0.0
  0
POINT
  5
313
330
4F2
100
AcDbEntity
  8
LEGEND
  6
Continuous
 62
     7
370
    30
100
AcDbPoint
 10
1.965625
 20
-4.719344
 30
0.0
  0
POINT
  5
314
330
4F2
100
AcDbEntity
  8
LEGEND
  6
Continuous
 62
     7
370
    30
100
AcDbPoint
 10
1.984375
 20
-4.719344
 30
0.0
  0
POINT
  5
315
330
4F2
100
AcDbEntity
  8
LEGEND
  6
Continuous
 62
     7
370
    30
100
AcDbPoint
 10
2.003125
 20
-4.719344
 30
0.0
  0
POINT
  5
316
330
4F2
100
AcDbEntity
  8
LEGEND
  6
Continuous
 62
     7
370
    30
100
AcDbPoint
 10
2.021875
 20
-4.719344
 30
0.0
  0
POINT
  5
317
330
4F2
100
AcDbEntity
  8
LEGEND
  6
Continuous
 62
     7
370
    30
100
AcDbPoint
 10
2.040625
 20
-4.719344
 30
0.0
  0
POINT
  5
318
330
4F2
100
AcDbEntity
  8
LEGEND
  6
Continuous
 62
     7
370
    30
100
AcDbPoint
 10
2.059375
 20
-4.719344
 30
0.0
  0
POINT
  5
319
330
4F2
100
AcDbEntity
  8
LEGEND
  6
Continuous
 62
     7
370
    30
100
AcDbPoint
 10
2.078125
 20
-4.719344
 30
0.0
  0
POINT
  5
31A
330
4F2
100
AcDbEntity
  8
LEGEND
  6
Continuous
 62
     7
370
    30
100
AcDbPoint
 10
2.096875
 20
-4.719344
 30
0.0
  0
POINT
  5
31B
330
4F2
100
AcDbEntity
  8
LEGEND
  6
Continuous
 62
     7
370
    30
100
AcDbPoint
 10
2.115625
 20
-4.719344
 30
0.0
  0
POINT
  5
31C
330
4F2
100
AcDbEntity
  8
LEGEND
  6
Continuous
 62
     7
370
    30
100
AcDbPoint
 10
2.134375
 20
-4.719344
 30
0.0
  0
POINT
  5
31D
330
4F2
100
AcDbEntity
  8
LEGEND
  6
Continuous
 62
     7
370
    30
100
AcDbPoint
 10
2.153125
 20
-4.719344
 30
0.0
  0
POINT
  5
31E
330
4F2
100
AcDbEntity
  8
LEGEND
  6
Continuous
 62
     7
370
    30
100
AcDbPoint
 10
2.171875
 20
-4.719344
 30
0.0
  0
POINT
  5
31F
330
4F2
100
AcDbEntity
  8
LEGEND
  6
Continuous
 62
     7
370
    30
100
AcDbPoint
 10
2.190625
 20
-4.719344
 30
0.0
  0
POINT
  5
320
330
4F2
100
AcDbEntity
  8
LEGEND
  6
Continuous
 62
     7
370
    30
100
AcDbPoint
 10
2.209375
 20
-4.719344
 30
0.0
  0
POINT
  5
321
330
4F2
100
AcDbEntity
  8
LEGEND
  6
Continuous
 62
     7
370
    30
100
AcDbPoint
 10
2.228125
 20
-4.719344
 30
0.0
  0
POINT
  5
322
330
4F2
100
AcDbEntity
  8
LEGEND
  6
Continuous
 62
     7
370
    30
100
AcDbPoint
 10
2.246875
 20
-4.719344
 30
0.0
  0
POINT
  5
323
330
4F2
100
AcDbEntity
  8
LEGEND
  6
Continuous
 62
     7
370
    30
100
AcDbPoint
 10
2.265625
 20
-4.719344
 30
0.0
  0
POINT
  5
324
330
4F2
100
AcDbEntity
  8
LEGEND
  6
Continuous
 62
     7
370
    30
100
AcDbPoint
 10
2.284375
 20
-4.719344
 30
0.0
  0
POINT
  5
325
330
4F2
100
AcDbEntity
  8
LEGEND
  6
Continuous
 62
     7
370
    30
100
AcDbPoint
 10
2.303125
 20
-4.719344
 30
0.0
  0
POINT
  5
326
330
4F2
100
AcDbEntity
  8
LEGEND
  6
Continuous
 62
     7
370
    30
100
AcDbPoint
 10
2.321875
 20
-4.719344
 30
0.0
  0
POINT
  5
327
330
4F2
100
AcDbEntity
  8
LEGEND
  6
Continuous
 62
     7
370
    30
100
AcDbPoint
 10
2.340625
 20
-4.719344
 30
0.0
  0
POINT
  5
328
330
4F2
100
AcDbEntity
  8
LEGEND
  6
Continuous
 62
     7
370
    30
100
AcDbPoint
 10
2.359375
 20
-4.719344
 30
0.0
  0
POINT
  5
329
330
4F2
100
AcDbEntity
  8
LEGEND
  6
Continuous
 62
     7
370
    30
100
AcDbPoint
 10
2.378125
 20
-4.719344
 30
0.0
  0
POINT
  5
32A
330
4F2
100
AcDbEntity
  8
LEGEND
  6
Continuous
 62
     7
370
    30
100
AcDbPoint
 10
2.396875
 20
-4.719344
 30
0.0
  0
POINT
  5
32B
330
4F2
100
AcDbEntity
  8
LEGEND
  6
Continuous
 62
     7
370
    30
100
AcDbPoint
 10
2.415625
 20
-4.719344
 30
0.0
  0
POINT
  5
32C
330
4F2
100
AcDbEntity
  8
LEGEND
  6
Continuous
 62
     7
370
    30
100
AcDbPoint
 10
2.434375
 20
-4.719344
 30
0.0
  0
POINT
  5
32D
330
4F2
100
AcDbEntity
  8
LEGEND
  6
Continuous
 62
     7
370
    30
100
AcDbPoint
 10
2.453125
 20
-4.719344
 30
0.0
  0
POINT
  5
32E
330
4F2
100
AcDbEntity
  8
LEGEND
  6
Continuous
 62
     7
370
    30
100
AcDbPoint
 10
2.471875
 20
-4.719344
 30
0.0
  0
POINT
  5
32F
330
4F2
100
AcDbEntity
  8
LEGEND
  6
Continuous
 62
     7
370
    30
100
AcDbPoint
 10
2.490625
 20
-4.719344
 30
0.0
  0
POINT
  5
330
330
4F2
100
AcDbEntity
  8
LEGEND
  6
Continuous
 62
     7
370
    30
100
AcDbPoint
 10
2.509375
 20
-4.719344
 30
0.0
  0
POINT
  5
331
330
4F2
100
AcDbEntity
  8
LEGEND
  6
Continuous
 62
     7
370
    30
100
AcDbPoint
 10
2.528125
 20
-4.719344
 30
0.0
  0
POINT
  5
332
330
4F2
100
AcDbEntity
  8
LEGEND
  6
Continuous
 62
     7
370
    30
100
AcDbPoint
 10
2.546875
 20
-4.719344
 30
0.0
  0
POINT
  5
333
330
4F2
100
AcDbEntity
  8
LEGEND
  6
Continuous
 62
     7
370
    30
100
AcDbPoint
 10
2.565625
 20
-4.719344
 30
0.0
  0
POINT
  5
334
330
4F2
100
AcDbEntity
  8
LEGEND
  6
Continuous
 62
     7
370
    30
100
AcDbPoint
 10
2.584375
 20
-4.719344
 30
0.0
  0
POINT
  5
335
330
4F2
100
AcDbEntity
  8
LEGEND
  6
Continuous
 62
     7
370
    30
100
AcDbPoint
 10
2.603125
 20
-4.719344
 30
0.0
  0
POINT
  5
336
330
4F2
100
AcDbEntity
  8
LEGEND
  6
Continuous
 62
     7
370
    30
100
AcDbPoint
 10
2.621875
 20
-4.719344
 30
0.0
  0
POINT
  5
337
330
4F2
100
AcDbEntity
  8
LEGEND
  6
Continuous
 62
     7
370
    30
100
AcDbPoint
 10
1.7125
 20
-4.700594
 30
0.0
  0
POINT
  5
338
330
4F2
100
AcDbEntity
  8
LEGEND
  6
Continuous
 62
     7
370
    30
100
AcDbPoint
 10
1.73125
 20
-4.700594
 30
0.0
  0
POINT
  5
339
330
4F2
100
AcDbEntity
  8
LEGEND
  6
Continuous
 62
     7
370
    30
100
AcDbPoint
 10
1.75
 20
-4.700594
 30
0.0
  0
POINT
  5
33A
330
4F2
100
AcDbEntity
  8
LEGEND
  6
Continuous
 62
     7
370
    30
100
AcDbPoint
 10
1.76875
 20
-4.700594
 30
0.0
  0
POINT
  5
33B
330
4F2
100
AcDbEntity
  8
LEGEND
  6
Continuous
 62
     7
370
    30
100
AcDbPoint
 10
1.7875
 20
-4.700594
 30
0.0
  0
POINT
  5
33C
330
4F2
100
AcDbEntity
  8
LEGEND
  6
Continuous
 62
     7
370
    30
100
AcDbPoint
 10
1.80625
 20
-4.700594
 30
0.0
  0
POINT
  5
33D
330
4F2
100
AcDbEntity
  8
LEGEND
  6
Continuous
 62
     7
370
    30
100
AcDbPoint
 10
1.825
 20
-4.700594
 30
0.0
  0
POINT
  5
33E
330
4F2
100
AcDbEntity
  8
LEGEND
  6
Continuous
 62
     7
370
    30
100
AcDbPoint
 10
1.84375
 20
-4.700594
 30
0.0
  0
POINT
  5
33F
330
4F2
100
AcDbEntity
  8
LEGEND
  6
Continuous
 62
     7
370
    30
100
AcDbPoint
 10
1.8625
 20
-4.700594
 30
0.0
  0
POINT
  5
340
330
4F2
100
AcDbEntity
  8
LEGEND
  6
Continuous
 62
     7
370
    30
100
AcDbPoint
 10
1.88125
 20
-4.700594
 30
0.0
  0
POINT
  5
341
330
4F2
100
AcDbEntity
  8
LEGEND
  6
Continuous
 62
     7
370
    30
100
AcDbPoint
 10
1.9
 20
-4.700594
 30
0.0
  0
POINT
  5
342
330
4F2
100
AcDbEntity
  8
LEGEND
  6
Continuous
 62
     7
370
    30
100
AcDbPoint
 10
1.91875
 20
-4.700594
 30
0.0
  0
POINT
  5
343
330
4F2
100
AcDbEntity
  8
LEGEND
  6
Continuous
 62
     7
370
    30
100
AcDbPoint
 10
1.9375
 20
-4.700594
 30
0.0
  0
POINT
  5
344
330
4F2
100
AcDbEntity
  8
LEGEND
  6
Continuous
 62
     7
370
    30
100
AcDbPoint
 10
1.95625
 20
-4.700594
 30
0.0
  0
POINT
  5
345
330
4F2
100
AcDbEntity
  8
LEGEND
  6
Continuous
 62
     7
370
    30
100
AcDbPoint
 10
1.975
 20
-4.700594
 30
0.0
  0
POINT
  5
346
330
4F2
100
AcDbEntity
  8
LEGEND
  6
Continuous
 62
     7
370
    30
100
AcDbPoint
 10
1.99375
 20
-4.700594
 30
0.0
  0
POINT
  5
347
330
4F2
100
AcDbEntity
  8
LEGEND
  6
Continuous
 62
     7
370
    30
100
AcDbPoint
 10
2.0125
 20
-4.700594
 30
0.0
  0
POINT
  5
348
330
4F2
100
AcDbEntity
  8
LEGEND
  6
Continuous
 62
     7
370
    30
100
AcDbPoint
 10
2.03125
 20
-4.700594
 30
0.0
  0
POINT
  5
349
330
4F2
100
AcDbEntity
  8
LEGEND
  6
Continuous
 62
     7
370
    30
100
AcDbPoint
 10
2.05
 20
-4.700594
 30
0.0
  0
POINT
  5
34A
330
4F2
100
AcDbEntity
  8
LEGEND
  6
Continuous
 62
     7
370
    30
100
AcDbPoint
 10
2.06875
 20
-4.700594
 30
0.0
  0
POINT
  5
34B
330
4F2
100
AcDbEntity
  8
LEGEND
  6
Continuous
 62
     7
370
    30
100
AcDbPoint
 10
2.0875
 20
-4.700594
 30
0.0
  0
POINT
  5
34C
330
4F2
100
AcDbEntity
  8
LEGEND
  6
Continuous
 62
     7
370
    30
100
AcDbPoint
 10
2.10625
 20
-4.700594
 30
0.0
  0
POINT
  5
34D
330
4F2
100
AcDbEntity
  8
LEGEND
  6
Continuous
 62
     7
370
    30
100
AcDbPoint
 10
2.125
 20
-4.700594
 30
0.0
  0
POINT
  5
34E
330
4F2
100
AcDbEntity
  8
LEGEND
  6
Continuous
 62
     7
370
    30
100
AcDbPoint
 10
2.14375
 20
-4.700594
 30
0.0
  0
POINT
  5
34F
330
4F2
100
AcDbEntity
  8
LEGEND
  6
Continuous
 62
     7
370
    30
100
AcDbPoint
 10
2.1625
 20
-4.700594
 30
0.0
  0
POINT
  5
350
330
4F2
100
AcDbEntity
  8
LEGEND
  6
Continuous
 62
     7
370
    30
100
AcDbPoint
 10
2.18125
 20
-4.700594
 30
0.0
  0
POINT
  5
351
330
4F2
100
AcDbEntity
  8
LEGEND
  6
Continuous
 62
     7
370
    30
100
AcDbPoint
 10
2.2
 20
-4.700594
 30
0.0
  0
POINT
  5
352
330
4F2
100
AcDbEntity
  8
LEGEND
  6
Continuous
 62
     7
370
    30
100
AcDbPoint
 10
2.21875
 20
-4.700594
 30
0.0
  0
POINT
  5
353
330
4F2
100
AcDbEntity
  8
LEGEND
  6
Continuous
 62
     7
370
    30
100
AcDbPoint
 10
2.2375
 20
-4.700594
 30
0.0
  0
POINT
  5
354
330
4F2
100
AcDbEntity
  8
LEGEND
  6
Continuous
 62
     7
370
    30
100
AcDbPoint
 10
2.25625
 20
-4.700594
 30
0.0
  0
POINT
  5
355
330
4F2
100
AcDbEntity
  8
LEGEND
  6
Continuous
 62
     7
370
    30
100
AcDbPoint
 10
2.275
 20
-4.700594
 30
0.0
  0
POINT
  5
356
330
4F2
100
AcDbEntity
  8
LEGEND
  6
Continuous
 62
     7
370
    30
100
AcDbPoint
 10
2.29375
 20
-4.700594
 30
0.0
  0
POINT
  5
357
330
4F2
100
AcDbEntity
  8
LEGEND
  6
Continuous
 62
     7
370
    30
100
AcDbPoint
 10
2.3125
 20
-4.700594
 30
0.0
  0
POINT
  5
358
330
4F2
100
AcDbEntity
  8
LEGEND
  6
Continuous
 62
     7
370
    30
100
AcDbPoint
 10
2.33125
 20
-4.700594
 30
0.0
  0
POINT
  5
359
330
4F2
100
AcDbEntity
  8
LEGEND
  6
Continuous
 62
     7
370
    30
100
AcDbPoint
 10
2.35
 20
-4.700594
 30
0.0
  0
POINT
  5
35A
330
4F2
100
AcDbEntity
  8
LEGEND
  6
Continuous
 62
     7
370
    30
100
AcDbPoint
 10
2.36875
 20
-4.700594
 30
0.0
  0
POINT
  5
35B
330
4F2
100
AcDbEntity
  8
LEGEND
  6
Continuous
 62
     7
370
    30
100
AcDbPoint
 10
2.3875
 20
-4.700594
 30
0.0
  0
POINT
  5
35C
330
4F2
100
AcDbEntity
  8
LEGEND
  6
Continuous
 62
     7
370
    30
100
AcDbPoint
 10
2.40625
 20
-4.700594
 30
0.0
  0
POINT
  5
35D
330
4F2
100
AcDbEntity
  8
LEGEND
  6
Continuous
 62
     7
370
    30
100
AcDbPoint
 10
2.425
 20
-4.700594
 30
0.0
  0
POINT
  5
35E
330
4F2
100
AcDbEntity
  8
LEGEND
  6
Continuous
 62
     7
370
    30
100
AcDbPoint
 10
2.44375
 20
-4.700594
 30
0.0
  0
POINT
  5
35F
330
4F2
100
AcDbEntity
  8
LEGEND
  6
Continuous
 62
     7
370
    30
100
AcDbPoint
 10
2.4625
 20
-4.700594
 30
0.0
  0
POINT
  5
360
330
4F2
100
AcDbEntity
  8
LEGEND
  6
Continuous
 62
     7
370
    30
100
AcDbPoint
 10
2.48125
 20
-4.700594
 30
0.0
  0
POINT
  5
361
330
4F2
100
AcDbEntity
  8
LEGEND
  6
Continuous
 62
     7
370
    30
100
AcDbPoint
 10
2.5
 20
-4.700594
 30
0.0
  0
POINT
  5
362
330
4F2
100
AcDbEntity
  8
LEGEND
  6
Continuous
 62
     7
370
    30
100
AcDbPoint
 10
2.51875
 20
-4.700594
 30
0.0
  0
POINT
  5
363
330
4F2
100
AcDbEntity
  8
LEGEND
  6
Continuous
 62
     7
370
    30
100
AcDbPoint
 10
2.5375
 20
-4.700594
 30
0.0
  0
POINT
  5
364
330
4F2
100
AcDbEntity
  8
LEGEND
  6
Continuous
 62
     7
370
    30
100
AcDbPoint
 10
2.55625
 20
-4.700594
 30
0.0
  0
POINT
  5
365
330
4F2
100
AcDbEntity
  8
LEGEND
  6
Continuous
 62
     7
370
    30
100
AcDbPoint
 10
2.575
 20
-4.700594
 30
0.0
  0
POINT
  5
366
330
4F2
100
AcDbEntity
  8
LEGEND
  6
Continuous
 62
     7
370
    30
100
AcDbPoint
 10
1.853125
 20
-4.681844
 30
0.0
  0
POINT
  5
367
330
4F2
100
AcDbEntity
  8
LEGEND
  6
Continuous
 62
     7
370
    30
100
AcDbPoint
 10
1.871875
 20
-4.681844
 30
0.0
  0
POINT
  5
368
330
4F2
100
AcDbEntity
  8
LEGEND
  6
Continuous
 62
     7
370
    30
100
AcDbPoint
 10
1.890625
 20
-4.681844
 30
0.0
  0
POINT
  5
369
330
4F2
100
AcDbEntity
  8
LEGEND
  6
Continuous
 62
     7
370
    30
100
AcDbPoint
 10
1.909375
 20
-4.681844
 30
0.0
  0
POINT
  5
36A
330
4F2
100
AcDbEntity
  8
LEGEND
  6
Continuous
 62
     7
370
    30
100
AcDbPoint
 10
1.928125
 20
-4.681844
 30
0.0
  0
POINT
  5
36B
330
4F2
100
AcDbEntity
  8
LEGEND
  6
Continuous
 62
     7
370
    30
100
AcDbPoint
 10
1.946875
 20
-4.681844
 30
0.0
  0
POINT
  5
36C
330
4F2
100
AcDbEntity
  8
LEGEND
  6
Continuous
 62
     7
370
    30
100
AcDbPoint
 10
1.965625
 20
-4.681844
 30
0.0
  0
POINT
  5
36D
330
4F2
100
AcDbEntity
  8
LEGEND
  6
Continuous
 62
     7
370
    30
100
AcDbPoint
 10
1.984375
 20
-4.681844
 30
0.0
  0
POINT
  5
36E
330
4F2
100
AcDbEntity
  8
LEGEND
  6
Continuous
 62
     7
370
    30
100
AcDbPoint
 10
2.003125
 20
-4.681844
 30
0.0
  0
POINT
  5
36F
330
4F2
100
AcDbEntity
  8
LEGEND
  6
Continuous
 62
     7
370
    30
100
AcDbPoint
 10
2.021875
 20
-4.681844
 30
0.0
  0
POINT
  5
370
330
4F2
100
AcDbEntity
  8
LEGEND
  6
Continuous
 62
     7
370
    30
100
AcDbPoint
 10
2.040625
 20
-4.681844
 30
0.0
  0
POINT
  5
371
330
4F2
100
AcDbEntity
  8
LEGEND
  6
Continuous
 62
     7
370
    30
100
AcDbPoint
 10
2.059375
 20
-4.681844
 30
0.0
  0
POINT
  5
372
330
4F2
100
AcDbEntity
  8
LEGEND
  6
Continuous
 62
     7
370
    30
100
AcDbPoint
 10
2.078125
 20
-4.681844
 30
0.0
  0
POINT
  5
373
330
4F2
100
AcDbEntity
  8
LEGEND
  6
Continuous
 62
     7
370
    30
100
AcDbPoint
 10
2.096875
 20
-4.681844
 30
0.0
  0
POINT
  5
374
330
4F2
100
AcDbEntity
  8
LEGEND
  6
Continuous
 62
     7
370
    30
100
AcDbPoint
 10
2.115625
 20
-4.681844
 30
0.0
  0
POINT
  5
375
330
4F2
100
AcDbEntity
  8
LEGEND
  6
Continuous
 62
     7
370
    30
100
AcDbPoint
 10
2.134375
 20
-4.681844
 30
0.0
  0
POINT
  5
376
330
4F2
100
AcDbEntity
  8
LEGEND
  6
Continuous
 62
     7
370
    30
100
AcDbPoint
 10
2.153125
 20
-4.681844
 30
0.0
  0
POINT
  5
377
330
4F2
100
AcDbEntity
  8
LEGEND
  6
Continuous
 62
     7
370
    30
100
AcDbPoint
 10
2.171875
 20
-4.681844
 30
0.0
  0
POINT
  5
378
330
4F2
100
AcDbEntity
  8
LEGEND
  6
Continuous
 62
     7
370
    30
100
AcDbPoint
 10
2.190625
 20
-4.681844
 30
0.0
  0
POINT
  5
379
330
4F2
100
AcDbEntity
  8
LEGEND
  6
Continuous
 62
     7
370
    30
100
AcDbPoint
 10
2.209375
 20
-4.681844
 30
0.0
  0
POINT
  5
37A
330
4F2
100
AcDbEntity
  8
LEGEND
  6
Continuous
 62
     7
370
    30
100
AcDbPoint
 10
2.228125
 20
-4.681844
 30
0.0
  0
POINT
  5
37B
330
4F2
100
AcDbEntity
  8
LEGEND
  6
Continuous
 62
     7
370
    30
100
AcDbPoint
 10
2.246875
 20
-4.681844
 30
0.0
  0
POINT
  5
37C
330
4F2
100
AcDbEntity
  8
LEGEND
  6
Continuous
 62
     7
370
    30
100
AcDbPoint
 10
2.265625
 20
-4.681844
 30
0.0
  0
POINT
  5
37D
330
4F2
100
AcDbEntity
  8
LEGEND
  6
Continuous
 62
     7
370
    30
100
AcDbPoint
 10
2.284375
 20
-4.681844
 30
0.0
  0
POINT
  5
37E
330
4F2
100
AcDbEntity
  8
LEGEND
  6
Continuous
 62
     7
370
    30
100
AcDbPoint
 10
2.303125
 20
-4.681844
 30
0.0
  0
POINT
  5
37F
330
4F2
100
AcDbEntity
  8
LEGEND
  6
Continuous
 62
     7
370
    30
100
AcDbPoint
 10
2.321875
 20
-4.681844
 30
0.0
  0
POINT
  5
380
330
4F2
100
AcDbEntity
  8
LEGEND
  6
Continuous
 62
     7
370
    30
100
AcDbPoint
 10
2.340625
 20
-4.681844
 30
0.0
  0
POINT
  5
381
330
4F2
100
AcDbEntity
  8
LEGEND
  6
Continuous
 62
     7
370
    30
100
AcDbPoint
 10
2.359375
 20
-4.681844
 30
0.0
  0
POINT
  5
382
330
4F2
100
AcDbEntity
  8
LEGEND
  6
Continuous
 62
     7
370
    30
100
AcDbPoint
 10
2.378125
 20
-4.681844
 30
0.0
  0
POINT
  5
383
330
4F2
100
AcDbEntity
  8
LEGEND
  6
Continuous
 62
     7
370
    30
100
AcDbPoint
 10
2.396875
 20
-4.681844
 30
0.0
  0
POINT
  5
384
330
4F2
100
AcDbEntity
  8
LEGEND
  6
Continuous
 62
     7
370
    30
100
AcDbPoint
 10
2.415625
 20
-4.681844
 30
0.0
  0
POINT
  5
385
330
4F2
100
AcDbEntity
  8
LEGEND
  6
Continuous
 62
     7
370
    30
100
AcDbPoint
 10
2.434375
 20
-4.681844
 30
0.0
  0
POINT
  5
386
330
4F2
100
AcDbEntity
  8
LEGEND
  6
Continuous
 62
     7
370
    30
100
AcDbPoint
 10
2.453125
 20
-4.681844
 30
0.0
  0
POINT
  5
387
330
4F2
100
AcDbEntity
  8
LEGEND
  6
Continuous
 62
     7
370
    30
100
AcDbPoint
 10
2.471875
 20
-4.681844
 30
0.0
  0
POINT
  5
388
330
4F2
100
AcDbEntity
  8
LEGEND
  6
Continuous
 62
     7
370
    30
100
AcDbPoint
 10
2.490625
 20
-4.681844
 30
0.0
  0
POINT
  5
389
330
4F2
100
AcDbEntity
  8
LEGEND
  6
Continuous
 62
     7
370
    30
100
AcDbPoint
 10
2.509375
 20
-4.681844
 30
0.0
  0
POINT
  5
38A
330
4F2
100
AcDbEntity
  8
LEGEND
  6
Continuous
 62
     7
370
    30
100
AcDbPoint
 10
2.528125
 20
-4.681844
 30
0.0
  0
POINT
  5
38B
330
4F2
100
AcDbEntity
  8
LEGEND
  6
Continuous
 62
     7
370
    30
100
AcDbPoint
 10
2.0125
 20
-4.663094
 30
0.0
  0
POINT
  5
38C
330
4F2
100
AcDbEntity
  8
LEGEND
  6
Continuous
 62
     7
370
    30
100
AcDbPoint
 10
2.03125
 20
-4.663094
 30
0.0
  0
POINT
  5
38D
330
4F2
100
AcDbEntity
  8
LEGEND
  6
Continuous
 62
     7
370
    30
100
AcDbPoint
 10
2.05
 20
-4.663094
 30
0.0
  0
POINT
  5
38E
330
4F2
100
AcDbEntity
  8
LEGEND
  6
Continuous
 62
     7
370
    30
100
AcDbPoint
 10
2.06875
 20
-4.663094
 30
0.0
  0
POINT
  5
38F
330
4F2
100
AcDbEntity
  8
LEGEND
  6
Continuous
 62
     7
370
    30
100
AcDbPoint
 10
2.0875
 20
-4.663094
 30
0.0
  0
POINT
  5
390
330
4F2
100
AcDbEntity
  8
LEGEND
  6
Continuous
 62
     7
370
    30
100
AcDbPoint
 10
2.10625
 20
-4.663094
 30
0.0
  0
POINT
  5
391
330
4F2
100
AcDbEntity
  8
LEGEND
  6
Continuous
 62
     7
370
    30
100
AcDbPoint
 10
2.125
 20
-4.663094
 30
0.0
  0
POINT
  5
392
330
4F2
100
AcDbEntity
  8
LEGEND
  6
Continuous
 62
     7
370
    30
100
AcDbPoint
 10
2.14375
 20
-4.663094
 30
0.0
  0
POINT
  5
393
330
4F2
100
AcDbEntity
  8
LEGEND
  6
Continuous
 62
     7
370
    30
100
AcDbPoint
 10
2.1625
 20
-4.663094
 30
0.0
  0
POINT
  5
394
330
4F2
100
AcDbEntity
  8
LEGEND
  6
Continuous
 62
     7
370
    30
100
AcDbPoint
 10
2.18125
 20
-4.663094
 30
0.0
  0
POINT
  5
395
330
4F2
100
AcDbEntity
  8
LEGEND
  6
Continuous
 62
     7
370
    30
100
AcDbPoint
 10
2.2
 20
-4.663094
 30
0.0
  0
POINT
  5
396
330
4F2
100
AcDbEntity
  8
LEGEND
  6
Continuous
 62
     7
370
    30
100
AcDbPoint
 10
2.21875
 20
-4.663094
 30
0.0
  0
POINT
  5
397
330
4F2
100
AcDbEntity
  8
LEGEND
  6
Continuous
 62
     7
370
    30
100
AcDbPoint
 10
2.2375
 20
-4.663094
 30
0.0
  0
POINT
  5
398
330
4F2
100
AcDbEntity
  8
LEGEND
  6
Continuous
 62
     7
370
    30
100
AcDbPoint
 10
2.25625
 20
-4.663094
 30
0.0
  0
POINT
  5
399
330
4F2
100
AcDbEntity
  8
LEGEND
  6
Continuous
 62
     7
370
    30
100
AcDbPoint
 10
2.275
 20
-4.663094
 30
0.0
  0
POINT
  5
39A
330
4F2
100
AcDbEntity
  8
LEGEND
  6
Continuous
 62
     7
370
    30
100
AcDbPoint
 10
2.29375
 20
-4.663094
 30
0.0
  0
POINT
  5
39B
330
4F2
100
AcDbEntity
  8
LEGEND
  6
Continuous
 62
     7
370
    30
100
AcDbPoint
 10
2.3125
 20
-4.663094
 30
0.0
  0
POINT
  5
39C
330
4F2
100
AcDbEntity
  8
LEGEND
  6
Continuous
 62
     7
370
    30
100
AcDbPoint
 10
2.33125
 20
-4.663094
 30
0.0
  0
POINT
  5
39D
330
4F2
100
AcDbEntity
  8
LEGEND
  6
Continuous
 62
     7
370
    30
100
AcDbPoint
 10
2.35
 20
-4.663094
 30
0.0
  0
POINT
  5
39E
330
4F2
100
AcDbEntity
  8
LEGEND
  6
Continuous
 62
     7
370
    30
100
AcDbPoint
 10
2.36875
 20
-4.663094
 30
0.0
  0
POINT
  5
39F
330
4F2
100
AcDbEntity
  8
LEGEND
  6
Continuous
 62
     7
370
    30
100
AcDbPoint
 10
2.3875
 20
-4.663094
 30
0.0
  0
POINT
  5
3A0
330
4F2
100
AcDbEntity
  8
LEGEND
  6
Continuous
 62
     7
370
    30
100
AcDbPoint
 10
2.40625
 20
-4.663094
 30
0.0
  0
POINT
  5
3A1
330
4F2
100
AcDbEntity
  8
LEGEND
  6
Continuous
 62
     7
370
    30
100
AcDbPoint
 10
2.425
 20
-4.663094
 30
0.0
  0
POINT
  5
3A2
330
4F2
100
AcDbEntity
  8
LEGEND
  6
Continuous
 62
     7
370
    30
100
AcDbPoint
 10
2.44375
 20
-4.663094
 30
0.0
  0
POINT
  5
3A3
330
4F2
100
AcDbEntity
  8
LEGEND
  6
Continuous
 62
     7
370
    30
100
AcDbPoint
 10
2.4625
 20
-4.663094
 30
0.0
  0
POINT
  5
3A4
330
4F2
100
AcDbEntity
  8
LEGEND
  6
Continuous
 62
     7
370
    30
100
AcDbPoint
 10
2.48125
 20
-4.663094
 30
0.0
  0
POINT
  5
3A5
330
4F2
100
AcDbEntity
  8
LEGEND
  6
Continuous
 62
     7
370
    30
100
AcDbPoint
 10
2.153125
 20
-4.644344
 30
0.0
  0
POINT
  5
3A6
330
4F2
100
AcDbEntity
  8
LEGEND
  6
Continuous
 62
     7
370
    30
100
AcDbPoint
 10
2.171875
 20
-4.644344
 30
0.0
  0
POINT
  5
3A7
330
4F2
100
AcDbEntity
  8
LEGEND
  6
Continuous
 62
     7
370
    30
100
AcDbPoint
 10
2.190625
 20
-4.644344
 30
0.0
  0
POINT
  5
3A8
330
4F2
100
AcDbEntity
  8
LEGEND
  6
Continuous
 62
     7
370
    30
100
AcDbPoint
 10
2.209375
 20
-4.644344
 30
0.0
  0
POINT
  5
3A9
330
4F2
100
AcDbEntity
  8
LEGEND
  6
Continuous
 62
     7
370
    30
100
AcDbPoint
 10
2.228125
 20
-4.644344
 30
0.0
  0
POINT
  5
3AA
330
4F2
100
AcDbEntity
  8
LEGEND
  6
Continuous
 62
     7
370
    30
100
AcDbPoint
 10
2.246875
 20
-4.644344
 30
0.0
  0
POINT
  5
3AB
330
4F2
100
AcDbEntity
  8
LEGEND
  6
Continuous
 62
     7
370
    30
100
AcDbPoint
 10
2.265625
 20
-4.644344
 30
0.0
  0
POINT
  5
3AC
330
4F2
100
AcDbEntity
  8
LEGEND
  6
Continuous
 62
     7
370
    30
100
AcDbPoint
 10
2.284375
 20
-4.644344
 30
0.0
  0
POINT
  5
3AD
330
4F2
100
AcDbEntity
  8
LEGEND
  6
Continuous
 62
     7
370
    30
100
AcDbPoint
 10
2.303125
 20
-4.644344
 30
0.0
  0
POINT
  5
3AE
330
4F2
100
AcDbEntity
  8
LEGEND
  6
Continuous
 62
     7
370
    30
100
AcDbPoint
 10
2.321875
 20
-4.644344
 30
0.0
  0
POINT
  5
3AF
330
4F2
100
AcDbEntity
  8
LEGEND
  6
Continuous
 62
     7
370
    30
100
AcDbPoint
 10
2.340625
 20
-4.644344
 30
0.0
  0
POINT
  5
3B0
330
4F2
100
AcDbEntity
  8
LEGEND
  6
Continuous
 62
     7
370
    30
100
AcDbPoint
 10
2.359375
 20
-4.644344
 30
0.0
  0
POINT
  5
3B1
330
4F2
100
AcDbEntity
  8
LEGEND
  6
Continuous
 62
     7
370
    30
100
AcDbPoint
 10
2.378125
 20
-4.644344
 30
0.0
  0
POINT
  5
3B2
330
4F2
100
AcDbEntity
  8
LEGEND
  6
Continuous
 62
     7
370
    30
100
AcDbPoint
 10
2.396875
 20
-4.644344
 30
0.0
  0
POINT
  5
3B3
330
4F2
100
AcDbEntity
  8
LEGEND
  6
Continuous
 62
     7
370
    30
100
AcDbPoint
 10
2.415625
 20
-4.644344
 30
0.0
  0
POINT
  5
3B4
330
4F2
100
AcDbEntity
  8
LEGEND
  6
Continuous
 62
     7
370
    30
100
AcDbPoint
 10
2.434375
 20
-4.644344
 30
0.0
  0
POINT
  5
3B5
330
4F2
100
AcDbEntity
  8
LEGEND
  6
Continuous
 62
     7
370
    30
100
AcDbPoint
 10
2.3125
 20
-4.625594
 30
0.0
  0
POINT
  5
3B6
330
4F2
100
AcDbEntity
  8
LEGEND
  6
Continuous
 62
     7
370
    30
100
AcDbPoint
 10
2.33125
 20
-4.625594
 30
0.0
  0
POINT
  5
3B7
330
4F2
100
AcDbEntity
  8
LEGEND
  6
Continuous
 62
     7
370
    30
100
AcDbPoint
 10
2.35
 20
-4.625594
 30
0.0
  0
POINT
  5
3B8
330
4F2
100
AcDbEntity
  8
LEGEND
  6
Continuous
 62
     7
370
    30
100
AcDbPoint
 10
2.36875
 20
-4.625594
 30
0.0
  0
POINT
  5
3B9
330
4F2
100
AcDbEntity
  8
LEGEND
  6
Continuous
 62
     7
370
    30
100
AcDbPoint
 10
2.3875
 20
-4.625594
 30
0.0
  0
POINT
  5
3BA
330
4F2
100
AcDbEntity
  8
LEGEND
  6
Continuous
 62
     7
370
    30
100
AcDbPoint
 10
1.50625
 20
-4.775594
 30
0.0
  0
POINT
  5
3BB
330
4F2
100
AcDbEntity
  8
LEGEND
  6
Continuous
 62
     7
370
    30
100
AcDbPoint
 10
1.525
 20
-4.775594
 30
0.0
  0
POINT
  5
3BC
330
4F2
100
AcDbEntity
  8
LEGEND
  6
Continuous
 62
     7
370
    30
100
AcDbPoint
 10
1.54375
 20
-4.775594
 30
0.0
  0
POINT
  5
3BD
330
4F2
100
AcDbEntity
  8
LEGEND
  6
Continuous
 62
     7
370
    30
100
AcDbPoint
 10
1.5625
 20
-4.775594
 30
0.0
  0
POINT
  5
3BE
330
4F2
100
AcDbEntity
  8
LEGEND
  6
Continuous
 62
     7
370
    30
100
AcDbPoint
 10
1.58125
 20
-4.775594
 30
0.0
  0
POINT
  5
3BF
330
4F2
100
AcDbEntity
  8
LEGEND
  6
Continuous
 62
     7
370
    30
100
AcDbPoint
 10
1.6
 20
-4.775594
 30
0.0
  0
POINT
  5
3C0
330
4F2
100
AcDbEntity
  8
LEGEND
  6
Continuous
 62
     7
370
    30
100
AcDbPoint
 10
1.61875
 20
-4.775594
 30
0.0
  0
POINT
  5
3C1
330
4F2
100
AcDbEntity
  8
LEGEND
  6
Continuous
 62
     7
370
    30
100
AcDbPoint
 10
1.6375
 20
-4.775594
 30
0.0
  0
POINT
  5
3C2
330
4F2
100
AcDbEntity
  8
LEGEND
  6
Continuous
 62
     7
370
    30
100
AcDbPoint
 10
1.65625
 20
-4.775594
 30
0.0
  0
POINT
  5
3C3
330
4F2
100
AcDbEntity
  8
LEGEND
  6
Continuous
 62
     7
370
    30
100
AcDbPoint
 10
1.675
 20
-4.775594
 30
0.0
  0
POINT
  5
3C4
330
4F2
100
AcDbEntity
  8
LEGEND
  6
Continuous
 62
     7
370
    30
100
AcDbPoint
 10
1.69375
 20
-4.775594
 30
0.0
  0
POINT
  5
3C5
330
4F2
100
AcDbEntity
  8
LEGEND
  6
Continuous
 62
     7
370
    30
100
AcDbPoint
 10
1.7125
 20
-4.775594
 30
0.0
  0
POINT
  5
3C6
330
4F2
100
AcDbEntity
  8
LEGEND
  6
Continuous
 62
     7
370
    30
100
AcDbPoint
 10
1.73125
 20
-4.775594
 30
0.0
  0
POINT
  5
3C7
330
4F2
100
AcDbEntity
  8
LEGEND
  6
Continuous
 62
     7
370
    30
100
AcDbPoint
 10
1.75
 20
-4.775594
 30
0.0
  0
POINT
  5
3C8
330
4F2
100
AcDbEntity
  8
LEGEND
  6
Continuous
 62
     7
370
    30
100
AcDbPoint
 10
1.76875
 20
-4.775594
 30
0.0
  0
POINT
  5
3C9
330
4F2
100
AcDbEntity
  8
LEGEND
  6
Continuous
 62
     7
370
    30
100
AcDbPoint
 10
1.7875
 20
-4.775594
 30
0.0
  0
POINT
  5
3CA
330
4F2
100
AcDbEntity
  8
LEGEND
  6
Continuous
 62
     7
370
    30
100
AcDbPoint
 10
1.80625
 20
-4.775594
 30
0.0
  0
POINT
  5
3CB
330
4F2
100
AcDbEntity
  8
LEGEND
  6
Continuous
 62
     7
370
    30
100
AcDbPoint
 10
1.825
 20
-4.775594
 30
0.0
  0
POINT
  5
3CC
330
4F2
100
AcDbEntity
  8
LEGEND
  6
Continuous
 62
     7
370
    30
100
AcDbPoint
 10
1.84375
 20
-4.775594
 30
0.0
  0
POINT
  5
3CD
330
4F2
100
AcDbEntity
  8
LEGEND
  6
Continuous
 62
     7
370
    30
100
AcDbPoint
 10
1.8625
 20
-4.775594
 30
0.0
  0
POINT
  5
3CE
330
4F2
100
AcDbEntity
  8
LEGEND
  6
Continuous
 62
     7
370
    30
100
AcDbPoint
 10
1.88125
 20
-4.775594
 30
0.0
  0
POINT
  5
3CF
330
4F2
100
AcDbEntity
  8
LEGEND
  6
Continuous
 62
     7
370
    30
100
AcDbPoint
 10
1.9
 20
-4.775594
 30
0.0
  0
POINT
  5
3D0
330
4F2
100
AcDbEntity
  8
LEGEND
  6
Continuous
 62
     7
370
    30
100
AcDbPoint
 10
1.91875
 20
-4.775594
 30
0.0
  0
POINT
  5
3D1
330
4F2
100
AcDbEntity
  8
LEGEND
  6
Continuous
 62
     7
370
    30
100
AcDbPoint
 10
1.9375
 20
-4.775594
 30
0.0
  0
POINT
  5
3D2
330
4F2
100
AcDbEntity
  8
LEGEND
  6
Continuous
 62
     7
370
    30
100
AcDbPoint
 10
1.95625
 20
-4.775594
 30
0.0
  0
POINT
  5
3D3
330
4F2
100
AcDbEntity
  8
LEGEND
  6
Continuous
 62
     7
370
    30
100
AcDbPoint
 10
1.975
 20
-4.775594
 30
0.0
  0
POINT
  5
3D4
330
4F2
100
AcDbEntity
  8
LEGEND
  6
Continuous
 62
     7
370
    30
100
AcDbPoint
 10
1.99375
 20
-4.775594
 30
0.0
  0
POINT
  5
3D5
330
4F2
100
AcDbEntity
  8
LEGEND
  6
Continuous
 62
     7
370
    30
100
AcDbPoint
 10
2.0125
 20
-4.775594
 30
0.0
  0
POINT
  5
3D6
330
4F2
100
AcDbEntity
  8
LEGEND
  6
Continuous
 62
     7
370
    30
100
AcDbPoint
 10
2.03125
 20
-4.775594
 30
0.0
  0
POINT
  5
3D7
330
4F2
100
AcDbEntity
  8
LEGEND
  6
Continuous
 62
     7
370
    30
100
AcDbPoint
 10
2.05
 20
-4.775594
 30
0.0
  0
POINT
  5
3D8
330
4F2
100
AcDbEntity
  8
LEGEND
  6
Continuous
 62
     7
370
    30
100
AcDbPoint
 10
2.06875
 20
-4.775594
 30
0.0
  0
POINT
  5
3D9
330
4F2
100
AcDbEntity
  8
LEGEND
  6
Continuous
 62
     7
370
    30
100
AcDbPoint
 10
2.0875
 20
-4.775594
 30
0.0
  0
POINT
  5
3DA
330
4F2
100
AcDbEntity
  8
LEGEND
  6
Continuous
 62
     7
370
    30
100
AcDbPoint
 10
2.4625
 20
-4.775594
 30
0.0
  0
POINT
  5
3DB
330
4F2
100
AcDbEntity
  8
LEGEND
  6
Continuous
 62
     7
370
    30
100
AcDbPoint
 10
2.48125
 20
-4.775594
 30
0.0
  0
POINT
  5
3DC
330
4F2
100
AcDbEntity
  8
LEGEND
  6
Continuous
 62
     7
370
    30
100
AcDbPoint
 10
2.5
 20
-4.775594
 30
0.0
  0
POINT
  5
3DD
330
4F2
100
AcDbEntity
  8
LEGEND
  6
Continuous
 62
     7
370
    30
100
AcDbPoint
 10
2.51875
 20
-4.775594
 30
0.0
  0
POINT
  5
3DE
330
4F2
100
AcDbEntity
  8
LEGEND
  6
Continuous
 62
     7
370
    30
100
AcDbPoint
 10
2.5375
 20
-4.775594
 30
0.0
  0
POINT
  5
3DF
330
4F2
100
AcDbEntity
  8
LEGEND
  6
Continuous
 62
     7
370
    30
100
AcDbPoint
 10
2.55625
 20
-4.775594
 30
0.0
  0
POINT
  5
3E0
330
4F2
100
AcDbEntity
  8
LEGEND
  6
Continuous
 62
     7
370
    30
100
AcDbPoint
 10
2.575
 20
-4.775594
 30
0.0
  0
POINT
  5
3E1
330
4F2
100
AcDbEntity
  8
LEGEND
  6
Continuous
 62
     7
370
    30
100
AcDbPoint
 10
2.59375
 20
-4.775594
 30
0.0
  0
POINT
  5
3E2
330
4F2
100
AcDbEntity
  8
LEGEND
  6
Continuous
 62
     7
370
    30
100
AcDbPoint
 10
2.6125
 20
-4.775594
 30
0.0
  0
POINT
  5
3E3
330
4F2
100
AcDbEntity
  8
LEGEND
  6
Continuous
 62
     7
370
    30
100
AcDbPoint
 10
2.63125
 20
-4.775594
 30
0.0
  0
POINT
  5
3E4
330
4F2
100
AcDbEntity
  8
LEGEND
  6
Continuous
 62
     7
370
    30
100
AcDbPoint
 10
2.65
 20
-4.775594
 30
0.0
  0
POINT
  5
3E5
330
4F2
100
AcDbEntity
  8
LEGEND
  6
Continuous
 62
     7
370
    30
100
AcDbPoint
 10
2.66875
 20
-4.775594
 30
0.0
  0
POINT
  5
3E6
330
4F2
100
AcDbEntity
  8
LEGEND
  6
Continuous
 62
     7
370
    30
100
AcDbPoint
 10
1.534375
 20
-4.794344
 30
0.0
  0
POINT
  5
3E7
330
4F2
100
AcDbEntity
  8
LEGEND
  6
Continuous
 62
     7
370
    30
100
AcDbPoint
 10
1.553125
 20
-4.794344
 30
0.0
  0
POINT
  5
3E8
330
4F2
100
AcDbEntity
  8
LEGEND
  6
Continuous
 62
     7
370
    30
100
AcDbPoint
 10
1.571875
 20
-4.794344
 30
0.0
  0
POINT
  5
3E9
330
4F2
100
AcDbEntity
  8
LEGEND
  6
Continuous
 62
     7
370
    30
100
AcDbPoint
 10
1.590625
 20
-4.794344
 30
0.0
  0
POINT
  5
3EA
330
4F2
100
AcDbEntity
  8
LEGEND
  6
Continuous
 62
     7
370
    30
100
AcDbPoint
 10
1.609375
 20
-4.794344
 30
0.0
  0
POINT
  5
3EB
330
4F2
100
AcDbEntity
  8
LEGEND
  6
Continuous
 62
     7
370
    30
100
AcDbPoint
 10
1.628125
 20
-4.794344
 30
0.0
  0
POINT
  5
3EC
330
4F2
100
AcDbEntity
  8
LEGEND
  6
Continuous
 62
     7
370
    30
100
AcDbPoint
 10
1.646875
 20
-4.794344
 30
0.0
  0
POINT
  5
3ED
330
4F2
100
AcDbEntity
  8
LEGEND
  6
Continuous
 62
     7
370
    30
100
AcDbPoint
 10
1.665625
 20
-4.794344
 30
0.0
  0
POINT
  5
3EE
330
4F2
100
AcDbEntity
  8
LEGEND
  6
Continuous
 62
     7
370
    30
100
AcDbPoint
 10
1.684375
 20
-4.794344
 30
0.0
  0
POINT
  5
3EF
330
4F2
100
AcDbEntity
  8
LEGEND
  6
Continuous
 62
     7
370
    30
100
AcDbPoint
 10
1.703125
 20
-4.794344
 30
0.0
  0
POINT
  5
3F0
330
4F2
100
AcDbEntity
  8
LEGEND
  6
Continuous
 62
     7
370
    30
100
AcDbPoint
 10
1.721875
 20
-4.794344
 30
0.0
  0
POINT
  5
3F1
330
4F2
100
AcDbEntity
  8
LEGEND
  6
Continuous
 62
     7
370
    30
100
AcDbPoint
 10
1.740625
 20
-4.794344
 30
0.0
  0
POINT
  5
3F2
330
4F2
100
AcDbEntity
  8
LEGEND
  6
Continuous
 62
     7
370
    30
100
AcDbPoint
 10
1.759375
 20
-4.794344
 30
0.0
  0
POINT
  5
3F3
330
4F2
100
AcDbEntity
  8
LEGEND
  6
Continuous
 62
     7
370
    30
100
AcDbPoint
 10
1.778125
 20
-4.794344
 30
0.0
  0
POINT
  5
3F4
330
4F2
100
AcDbEntity
  8
LEGEND
  6
Continuous
 62
     7
370
    30
100
AcDbPoint
 10
1.796875
 20
-4.794344
 30
0.0
  0
POINT
  5
3F5
330
4F2
100
AcDbEntity
  8
LEGEND
  6
Continuous
 62
     7
370
    30
100
AcDbPoint
 10
1.815625
 20
-4.794344
 30
0.0
  0
POINT
  5
3F6
330
4F2
100
AcDbEntity
  8
LEGEND
  6
Continuous
 62
     7
370
    30
100
AcDbPoint
 10
1.834375
 20
-4.794344
 30
0.0
  0
POINT
  5
3F7
330
4F2
100
AcDbEntity
  8
LEGEND
  6
Continuous
 62
     7
370
    30
100
AcDbPoint
 10
1.853125
 20
-4.794344
 30
0.0
  0
POINT
  5
3F8
330
4F2
100
AcDbEntity
  8
LEGEND
  6
Continuous
 62
     7
370
    30
100
AcDbPoint
 10
1.871875
 20
-4.794344
 30
0.0
  0
POINT
  5
3F9
330
4F2
100
AcDbEntity
  8
LEGEND
  6
Continuous
 62
     7
370
    30
100
AcDbPoint
 10
1.890625
 20
-4.794344
 30
0.0
  0
POINT
  5
3FA
330
4F2
100
AcDbEntity
  8
LEGEND
  6
Continuous
 62
     7
370
    30
100
AcDbPoint
 10
1.909375
 20
-4.794344
 30
0.0
  0
POINT
  5
3FB
330
4F2
100
AcDbEntity
  8
LEGEND
  6
Continuous
 62
     7
370
    30
100
AcDbPoint
 10
1.928125
 20
-4.794344
 30
0.0
  0
POINT
  5
3FC
330
4F2
100
AcDbEntity
  8
LEGEND
  6
Continuous
 62
     7
370
    30
100
AcDbPoint
 10
1.946875
 20
-4.794344
 30
0.0
  0
POINT
  5
3FD
330
4F2
100
AcDbEntity
  8
LEGEND
  6
Continuous
 62
     7
370
    30
100
AcDbPoint
 10
2.509375
 20
-4.794344
 30
0.0
  0
POINT
  5
3FE
330
4F2
100
AcDbEntity
  8
LEGEND
  6
Continuous
 62
     7
370
    30
100
AcDbPoint
 10
2.528125
 20
-4.794344
 30
0.0
  0
POINT
  5
3FF
330
4F2
100
AcDbEntity
  8
LEGEND
  6
Continuous
 62
     7
370
    30
100
AcDbPoint
 10
2.546875
 20
-4.794344
 30
0.0
  0
POINT
  5
400
330
4F2
100
AcDbEntity
  8
LEGEND
  6
Continuous
 62
     7
370
    30
100
AcDbPoint
 10
2.565625
 20
-4.794344
 30
0.0
  0
POINT
  5
401
330
4F2
100
AcDbEntity
  8
LEGEND
  6
Continuous
 62
     7
370
    30
100
AcDbPoint
 10
2.584375
 20
-4.794344
 30
0.0
  0
POINT
  5
402
330
4F2
100
AcDbEntity
  8
LEGEND
  6
Continuous
 62
     7
370
    30
100
AcDbPoint
 10
2.603125
 20
-4.794344
 30
0.0
  0
POINT
  5
403
330
4F2
100
AcDbEntity
  8
LEGEND
  6
Continuous
 62
     7
370
    30
100
AcDbPoint
 10
2.621875
 20
-4.794344
 30
0.0
  0
POINT
  5
404
330
4F2
100
AcDbEntity
  8
LEGEND
  6
Continuous
 62
     7
370
    30
100
AcDbPoint
 10
2.640625
 20
-4.794344
 30
0.0
  0
POINT
  5
405
330
4F2
100
AcDbEntity
  8
LEGEND
  6
Continuous
 62
     7
370
    30
100
AcDbPoint
 10
2.659375
 20
-4.794344
 30
0.0
  0
POINT
  5
406
330
4F2
100
AcDbEntity
  8
LEGEND
  6
Continuous
 62
     7
370
    30
100
AcDbPoint
 10
1.5625
 20
-4.813094
 30
0.0
  0
POINT
  5
407
330
4F2
100
AcDbEntity
  8
LEGEND
  6
Continuous
 62
     7
370
    30
100
AcDbPoint
 10
1.58125
 20
-4.813094
 30
0.0
  0
POINT
  5
408
330
4F2
100
AcDbEntity
  8
LEGEND
  6
Continuous
 62
     7
370
    30
100
AcDbPoint
 10
1.6
 20
-4.813094
 30
0.0
  0
POINT
  5
409
330
4F2
100
AcDbEntity
  8
LEGEND
  6
Continuous
 62
     7
370
    30
100
AcDbPoint
 10
1.61875
 20
-4.813094
 30
0.0
  0
POINT
  5
40A
330
4F2
100
AcDbEntity
  8
LEGEND
  6
Continuous
 62
     7
370
    30
100
AcDbPoint
 10
1.6375
 20
-4.813094
 30
0.0
  0
POINT
  5
40B
330
4F2
100
AcDbEntity
  8
LEGEND
  6
Continuous
 62
     7
370
    30
100
AcDbPoint
 10
1.65625
 20
-4.813094
 30
0.0
  0
POINT
  5
40C
330
4F2
100
AcDbEntity
  8
LEGEND
  6
Continuous
 62
     7
370
    30
100
AcDbPoint
 10
1.675
 20
-4.813094
 30
0.0
  0
POINT
  5
40D
330
4F2
100
AcDbEntity
  8
LEGEND
  6
Continuous
 62
     7
370
    30
100
AcDbPoint
 10
1.69375
 20
-4.813094
 30
0.0
  0
POINT
  5
40E
330
4F2
100
AcDbEntity
  8
LEGEND
  6
Continuous
 62
     7
370
    30
100
AcDbPoint
 10
1.7125
 20
-4.813094
 30
0.0
  0
POINT
  5
40F
330
4F2
100
AcDbEntity
  8
LEGEND
  6
Continuous
 62
     7
370
    30
100
AcDbPoint
 10
1.73125
 20
-4.813094
 30
0.0
  0
POINT
  5
410
330
4F2
100
AcDbEntity
  8
LEGEND
  6
Continuous
 62
     7
370
    30
100
AcDbPoint
 10
1.75
 20
-4.813094
 30
0.0
  0
POINT
  5
411
330
4F2
100
AcDbEntity
  8
LEGEND
  6
Continuous
 62
     7
370
    30
100
AcDbPoint
 10
1.76875
 20
-4.813094
 30
0.0
  0
POINT
  5
412
330
4F2
100
AcDbEntity
  8
LEGEND
  6
Continuous
 62
     7
370
    30
100
AcDbPoint
 10
1.7875
 20
-4.813094
 30
0.0
  0
POINT
  5
413
330
4F2
100
AcDbEntity
  8
LEGEND
  6
Continuous
 62
     7
370
    30
100
AcDbPoint
 10
2.5375
 20
-4.813094
 30
0.0
  0
POINT
  5
414
330
4F2
100
AcDbEntity
  8
LEGEND
  6
Continuous
 62
     7
370
    30
100
AcDbPoint
 10
2.55625
 20
-4.813094
 30
0.0
  0
POINT
  5
415
330
4F2
100
AcDbEntity
  8
LEGEND
  6
Continuous
 62
     7
370
    30
100
AcDbPoint
 10
2.575
 20
-4.813094
 30
0.0
  0
POINT
  5
416
330
4F2
100
AcDbEntity
  8
LEGEND
  6
Continuous
 62
     7
370
    30
100
AcDbPoint
 10
2.59375
 20
-4.813094
 30
0.0
  0
POINT
  5
417
330
4F2
100
AcDbEntity
  8
LEGEND
  6
Continuous
 62
     7
370
    30
100
AcDbPoint
 10
2.6125
 20
-4.813094
 30
0.0
  0
POINT
  5
418
330
4F2
100
AcDbEntity
  8
LEGEND
  6
Continuous
 62
     7
370
    30
100
AcDbPoint
 10
2.63125
 20
-4.813094
 30
0.0
  0
POINT
  5
419
330
4F2
100
AcDbEntity
  8
LEGEND
  6
Continuous
 62
     7
370
    30
100
AcDbPoint
 10
2.65
 20
-4.813094
 30
0.0
  0
POINT
  5
41A
330
4F2
100
AcDbEntity
  8
LEGEND
  6
Continuous
 62
     7
370
    30
100
AcDbPoint
 10
2.66875
 20
-4.813094
 30
0.0
  0
POINT
  5
41B
330
4F2
100
AcDbEntity
  8
LEGEND
  6
Continuous
 62
     7
370
    30
100
AcDbPoint
 10
1.609375
 20
-4.831844
 30
0.0
  0
POINT
  5
41C
330
4F2
100
AcDbEntity
  8
LEGEND
  6
Continuous
 62
     7
370
    30
100
AcDbPoint
 10
1.628125
 20
-4.831844
 30
0.0
  0
POINT
  5
41D
330
4F2
100
AcDbEntity
  8
LEGEND
  6
Continuous
 62
     7
370
    30
100
AcDbPoint
 10
1.646875
 20
-4.831844
 30
0.0
  0
POINT
  5
41E
330
4F2
100
AcDbEntity
  8
LEGEND
  6
Continuous
 62
     7
370
    30
100
AcDbPoint
 10
2.584375
 20
-4.831844
 30
0.0
  0
POINT
  5
41F
330
4F2
100
AcDbEntity
  8
LEGEND
  6
Continuous
 62
     7
370
    30
100
AcDbPoint
 10
2.603125
 20
-4.831844
 30
0.0
  0
POINT
  5
420
330
4F2
100
AcDbEntity
  8
LEGEND
  6
Continuous
 62
     7
370
    30
100
AcDbPoint
 10
2.621875
 20
-4.831844
 30
0.0
  0
POINT
  5
421
330
4F2
100
AcDbEntity
  8
LEGEND
  6
Continuous
 62
     7
370
    30
100
AcDbPoint
 10
2.640625
 20
-4.831844
 30
0.0
  0
POINT
  5
422
330
4F2
100
AcDbEntity
  8
LEGEND
  6
Continuous
 62
     7
370
    30
100
AcDbPoint
 10
2.659375
 20
-4.831844
 30
0.0
  0
POINT
  5
423
330
4F2
100
AcDbEntity
  8
LEGEND
  6
Continuous
 62
     7
370
    30
100
AcDbPoint
 10
2.678125
 20
-4.831844
 30
0.0
  0
POINT
  5
424
330
4F2
100
AcDbEntity
  8
LEGEND
  6
Continuous
 62
     7
370
    30
100
AcDbPoint
 10
2.63125
 20
-4.850594
 30
0.0
  0
POINT
  5
425
330
4F2
100
AcDbEntity
  8
LEGEND
  6
Continuous
 62
     7
370
    30
100
AcDbPoint
 10
2.65
 20
-4.850594
 30
0.0
  0
POINT
  5
426
330
4F2
100
AcDbEntity
  8
LEGEND
  6
Continuous
 62
     7
370
    30
100
AcDbPoint
 10
2.66875
 20
-4.850594
 30
0.0
  0
POINT
  5
427
330
4F2
100
AcDbEntity
  8
LEGEND
  6
Continuous
 62
     7
370
    30
100
AcDbPoint
 10
2.6875
 20
-4.850594
 30
0.0
  0
POINT
  5
428
330
4F2
100
AcDbEntity
  8
LEGEND
  6
Continuous
 62
     7
370
    30
100
AcDbPoint
 10
2.678125
 20
-4.869344
 30
0.0
  0
POINT
  5
429
330
4F2
100
AcDbEntity
  8
LEGEND
  6
Continuous
 62
     7
370
    30
100
AcDbPoint
 10
2.696875
 20
-4.869344
 30
0.0
  0
SPLINE
  5
42B
330
4F2
100
AcDbEntity
  8
LEGEND
  6
Continuous
 62
     7
370
    30
100
AcDbSpline
210
0.0
220
0.0
230
1.0
 70
     8
 71
     3
 72
    10
 73
     6
 74
     0
 42
0.0000000001
 43
0.00000001
 40
0.0
 40
0.0
 40
0.0
 40
0.0
 40
0.3333333333333333
 40
0.6666666666666666
 40
1.0
 40
1.0
 40
1.0
 40
1.0
 10
1.970083333333333
 20
-4.85346875
 30
0.0
 10
1.924177083333333
 20
-4.843270833333333
 30
0.0
 10
1.898677083333333
 20
-4.873875
 30
0.0
 10
1.873177083333333
 20
-4.868770833333333
 30
0.0
 10
1.857875
 20
-4.89428125
 30
0.0
 10
1.817083333333333
 20
-4.909583333333333
 30
0.0
  0
SPLINE
  5
42D
330
4F2
100
AcDbEntity
  8
LEGEND
  6
Continuous
 62
     7
370
    30
100
AcDbSpline
210
0.0
220
0.0
230
1.0
 70
     8
 71
     3
 72
    10
 73
     6
 74
     0
 42
0.0000000001
 43
0.00000001
 40
0.0
 40
0.0
 40
0.0
 40
0.0
 40
0.3333333333333333
 40
0.6666666666666666
 40
1.0
 40
1.0
 40
1.0
 40
1.0
 10
3.525614583333333
 20
-5.593135416666667
 30
0.0
 10
3.47971875
 20
-5.5829375
 30
0.0
 10
3.45421875
 20
-5.613541666666666
 30
0.0
 10
3.428708333333333
 20
-5.6084375
 30
0.0
 10
3.413416666666667
 20
-5.633947916666666
 30
0.0
 10
3.372614583333333
 20
-5.649249999999999
 30
0.0
  0
SPLINE
  5
42F
330
4F2
100
AcDbEntity
  8
LEGEND
  6
Continuous
 62
     7
370
    30
100
AcDbSpline
210
0.0
220
0.0
230
1.0
 70
     8
 71
     3
 72
    10
 73
     6
 74
     0
 42
0.0000000001
 43
0.00000001
 40
0.0
 40
0.0
 40
0.0
 40
0.0
 40
0.3333333333333333
 40
0.6666666666666666
 40
1.0
 40
1.0
 40
1.0
 40
1.0
 10
3.2043125
 20
-5.3941875
 30
0.0
 10
3.15840625
 20
-5.383989583333333
 30
0.0
 10
3.13290625
 20
-5.41459375
 30
0.0
 10
3.10740625
 20
-5.4095
 30
0.0
 10
3.092104166666667
 20
-5.435
 30
0.0
 10
3.051302083333333
 20
-5.450302083333333
 30
0.0
  0
SPLINE
  5
431
330
4F2
100
AcDbEntity
  8
LEGEND
  6
Continuous
 62
     7
370
    30
100
AcDbSpline
210
0.0
220
0.0
230
1.0
 70
     8
 71
     3
 72
    10
 73
     6
 74
     0
 42
0.0000000001
 43
0.00000001
 40
0.0
 40
0.0
 40
0.0
 40
0.0
 40
0.3333333333333333
 40
0.6666666666666666
 40
1.0
 40
1.0
 40
1.0
 40
1.0
 10
2.7045
 20
-5.2615625
 30
0.0
 10
2.65859375
 20
-5.251364583333333
 30
0.0
 10
2.63309375
 20
-5.28196875
 30
0.0
 10
2.60759375
 20
-5.276864583333333
 30
0.0
 10
2.592291666666667
 20
-5.302375
 30
0.0
 10
2.551489583333333
 20
-5.317677083333333
 30
0.0
  0
SPLINE
  5
433
330
4F2
100
AcDbEntity
  8
LEGEND
  6
Continuous
 62
     7
370
    30
100
AcDbSpline
210
0.0
220
0.0
230
1.0
 70
     8
 71
     3
 72
    10
 73
     6
 74
     0
 42
0.0000000001
 43
0.00000001
 40
0.0
 40
0.0
 40
0.0
 40
0.0
 40
0.3333333333333333
 40
0.6666666666666666
 40
1.0
 40
1.0
 40
1.0
 40
1.0
 10
2.474989583333333
 20
-5.128927083333333
 30
0.0
 10
2.42909375
 20
-5.118729166666666
 30
0.0
 10
2.40359375
 20
-5.149333333333333
 30
0.0
 10
2.37809375
 20
-5.144239583333333
 30
0.0
 10
2.362791666666666
 20
-5.169739583333333
 30
0.0
 10
2.321989583333333
 20
-5.185041666666667
 30
0.0
  0
SPLINE
  5
435
330
4F2
100
AcDbEntity
  8
LEGEND
  6
Continuous
 62
     7
370
    30
100
AcDbSpline
210
0.0
220
0.0
230
1.0
 70
     8
 71
     3
 72
    10
 73
     6
 74
     0
 42
0.0000000001
 43
0.00000001
 40
0.0
 40
0.0
 40
0.0
 40
0.0
 40
0.3333333333333333
 40
0.6666666666666666
 40
1.0
 40
1.0
 40
1.0
 40
1.0
 10
2.296489583333333
 20
-5.0065
 30
0.0
 10
2.250583333333333
 20
-4.996302083333333
 30
0.0
 10
2.225083333333333
 20
-5.02690625
 30
0.0
 10
2.199583333333333
 20
-5.0218125
 30
0.0
 10
2.184291666666667
 20
-5.047312499999999
 30
0.0
 10
2.143489583333333
 20
-5.062614583333334
 30
0.0
  0
SPLINE
  5
437
330
4F2
100
AcDbEntity
  8
LEGEND
  6
Continuous
 62
     7
370
    30
100
AcDbSpline
210
0.0
220
0.0
230
1.0
 70
     8
 71
     3
 72
    10
 73
     6
 74
     0
 42
0.0000000001
 43
0.00000001
 40
0.0
 40
0.0
 40
0.0
 40
0.0
 40
0.3333333333333333
 40
0.6666666666666666
 40
1.0
 40
1.0
 40
1.0
 40
1.0
 10
2.485197916666666
 20
-4.878979166666666
 30
0.0
 10
2.439291666666667
 20
-4.868770833333333
 30
0.0
 10
2.413791666666667
 20
-4.899385416666666
 30
0.0
 10
2.388291666666666
 20
-4.89428125
 30
0.0
 10
2.372989583333333
 20
-4.91978125
 30
0.0
 10
2.3321875
 20
-4.93509375
 30
0.0
  0
SPLINE
  5
439
330
4F2
100
AcDbEntity
  8
LEGEND
  6
Continuous
 62
     7
370
    30
100
AcDbSpline
210
0.0
220
0.0
230
1.0
 70
     8
 71
     3
 72
    10
 73
     6
 74
     0
 42
0.0000000001
 43
0.00000001
 40
0.0
 40
0.0
 40
0.0
 40
0.0
 40
0.3333333333333333
 40
0.6666666666666666
 40
1.0
 40
1.0
 40
1.0
 40
1.0
 10
2.8575
 20
-5.011604166666666
 30
0.0
 10
2.811604166666667
 20
-5.00140625
 30
0.0
 10
2.786104166666667
 20
-5.032010416666666
 30
0.0
 10
2.760604166666667
 20
-5.02690625
 30
0.0
 10
2.745302083333333
 20
-5.052416666666667
 30
0.0
 10
2.7045
 20
-5.06771875
 30
0.0
  0
SPLINE
  5
43B
330
4F2
100
AcDbEntity
  8
LEGEND
  6
Continuous
 62
     7
370
    30
100
AcDbSpline
210
0.0
220
0.0
230
1.0
 70
     8
 71
     3
 72
    10
 73
     6
 74
     0
 42
0.0000000001
 43
0.00000001
 40
0.0
 40
0.0
 40
0.0
 40
0.0
 40
0.3333333333333333
 40
0.6666666666666666
 40
1.0
 40
1.0
 40
1.0
 40
1.0
 10
3.102302083333333
 20
-5.10853125
 30
0.0
 10
3.05640625
 20
-5.098322916666667
 30
0.0
 10
3.03090625
 20
-5.128927083333333
 30
0.0
 10
3.00540625
 20
-5.123833333333333
 30
0.0
 10
2.990104166666667
 20
-5.149333333333333
 30
0.0
 10
2.949302083333333
 20
-5.164635416666666
 30
0.0
  0
SPLINE
  5
43D
330
4F2
100
AcDbEntity
  8
LEGEND
  6
Continuous
 62
     7
370
    30
100
AcDbSpline
210
0.0
220
0.0
230
1.0
 70
     8
 71
     3
 72
    10
 73
     6
 74
     0
 42
0.0000000001
 43
0.00000001
 40
0.0
 40
0.0
 40
0.0
 40
0.0
 40
0.3333333333333333
 40
0.6666666666666666
 40
1.0
 40
1.0
 40
1.0
 40
1.0
 10
3.275708333333333
 20
-5.205447916666667
 30
0.0
 10
3.2298125
 20
-5.19525
 30
0.0
 10
3.2043125
 20
-5.225854166666666
 30
0.0
 10
3.1788125
 20
-5.22075
 30
0.0
 10
3.163510416666667
 20
-5.246260416666667
 30
0.0
 10
3.122708333333333
 20
-5.2615625
 30
0.0
  0
SPLINE
  5
43F
330
4F2
100
AcDbEntity
  8
LEGEND
  6
Continuous
 62
     7
370
    30
100
AcDbSpline
210
0.0
220
0.0
230
1.0
 70
     8
 71
     3
 72
    10
 73
     6
 74
     0
 42
0.0000000001
 43
0.00000001
 40
0.0
 40
0.0
 40
0.0
 40
0.0
 40
0.3333333333333333
 40
0.6666666666666666
 40
1.0
 40
1.0
 40
1.0
 40
1.0
 10
3.566416666666667
 20
-5.327875
 30
0.0
 10
3.520510416666667
 20
-5.317677083333333
 30
0.0
 10
3.495010416666667
 20
-5.348281249999999
 30
0.0
 10
3.469510416666667
 20
-5.343177083333333
 30
0.0
 10
3.45421875
 20
-5.3686875
 30
0.0
 10
3.413416666666667
 20
-5.383989583333333
 30
0.0
  0
SPLINE
  5
441
330
4F2
100
AcDbEntity
  8
LEGEND
  6
Continuous
 62
     7
370
    30
100
AcDbSpline
210
0.0
220
0.0
230
1.0
 70
     8
 71
     3
 72
    10
 73
     6
 74
     0
 42
0.0000000001
 43
0.00000001
 40
0.0
 40
0.0
 40
0.0
 40
0.0
 40
0.3333333333333333
 40
0.6666666666666666
 40
1.0
 40
1.0
 40
1.0
 40
1.0
 10
3.897927083333333
 20
-5.470708333333334
 30
0.0
 10
3.852020833333333
 20
-5.460510416666667
 30
0.0
 10
3.826520833333333
 20
-5.491114583333333
 30
0.0
 10
3.801020833333333
 20
-5.486010416666667
 30
0.0
 10
3.78571875
 20
-5.511520833333333
 30
0.0
 10
3.744916666666667
 20
-5.526822916666666
 30
0.0
  0
SPLINE
  5
443
330
4F2
100
AcDbEntity
  8
LEGEND
  6
Continuous
 62
     7
370
    30
100
AcDbSpline
210
0.0
220
0.0
230
1.0
 70
     8
 71
     3
 72
    10
 73
     6
 74
     0
 42
0.0000000001
 43
0.00000001
 40
0.0
 40
0.0
 40
0.0
 40
0.0
 40
0.3333333333333333
 40
0.6666666666666666
 40
1.0
 40
1.0
 40
1.0
 40
1.0
 10
3.984625
 20
-5.746166666666666
 30
0.0
 10
3.938729166666667
 20
-5.73596875
 30
0.0
 10
3.91321875
 20
-5.766572916666666
 30
0.0
 10
3.88771875
 20
-5.76146875
 30
0.0
 10
3.872427083333333
 20
-5.786979166666667
 30
0.0
 10
3.831625
 20
-5.80228125
 30
0.0
  0
SPLINE
  5
445
330
4F2
100
AcDbEntity
  8
LEGEND
  6
Continuous
 62
     7
370
    30
100
AcDbSpline
210
0.0
220
0.0
230
1.0
 70
     8
 71
     3
 72
    10
 73
     6
 74
     0
 42
0.0000000001
 43
0.00000001
 40
0.0
 40
0.0
 40
0.0
 40
0.0
 40
0.3333333333333333
 40
0.6666666666666666
 40
1.0
 40
1.0
 40
1.0
 40
1.0
 10
4.229427083333333
 20
-5.618645833333333
 30
0.0
 10
4.18353125
 20
-5.6084375
 30
0.0
 10
4.15803125
 20
-5.639041666666667
 30
0.0
 10
4.13253125
 20
-5.633947916666666
 30
0.0
 10
4.117229166666666
 20
-5.659447916666666
 30
0.0
 10
4.076427083333333
 20
-5.67475
 30
0.0
  0
LINE
  5
45C
330
4F2
100
AcDbEntity
  8
_0
  6
Continuous
 62
     7
370
    30
100
AcDbLine
 10
3.651375
 20
-9.086385
 30
0.0
 11
4.694073
 21
-9.497583
 31
0.0
  0
LINE
  5
45D
330
4F2
100
AcDbEntity
  8
_0
  6
Continuous
 62
     7
370
    30
100
AcDbLine
 10
2.368094
 20
-4.616708
 30
0.0
 11
2.368094
 21
-4.741562
 31
0.0
  0
LINE
  5
45E
330
4F2
100
AcDbEntity
  8
_0
  6
Continuous
 62
     7
370
    30
100
AcDbLine
 10
4.792208
 20
-5.572687
 30
0.0
 11
3.534573
 21
-5.982333
 31
0.0
  0
LINE
  5
45F
330
4F2
100
AcDbEntity
  8
_0
  6
Continuous
 62
     7
370
    30
100
AcDbLine
 10
4.777698
 20
-5.028948
 30
0.0
 11
1.787031
 21
-4.201313
 31
0.0
  0
LINE
  5
460
330
4F2
100
AcDbEntity
  8
_0
  6
Continuous
 62
     7
370
    30
100
AcDbLine
 10
1.605323
 20
-4.189479
 30
0.0
 11
4.844833
 21
-5.145437
 31
0.0
  0
LINE
  5
461
330
4F2
100
AcDbEntity
  8
_0
  6
Continuous
 62
     7
370
    30
100
AcDbLine
 10
2.697823
 20
-8.646958
 30
0.0
 11
3.126094
 21
-8.763833
 31
0.0
  0
LINE
  5
462
330
4F2
100
AcDbEntity
  8
_0
  6
Continuous
 62
     7
370
    30
100
AcDbLine
 10
2.697281
 20
-8.696854
 30
0.0
 11
3.125552
 21
-8.81376
 31
0.0
  0
LINE
  5
463
330
4F2
100
AcDbEntity
  8
_0
  6
Continuous
 62
     7
370
    30
100
AcDbLine
 10
3.148865
 20
-9.192771
 30
0.0
 11
2.713271
 21
-9.049083
 31
0.0
  0
LINE
  5
467
330
4F2
100
AcDbEntity
  8
_0
  6
Continuous
 62
     7
370
    30
100
AcDbLine
 10
3.297146
 20
-9.192771
 30
0.0
 11
3.148865
 21
-9.192771
 31
0.0
  0
ARC
  5
468
330
4F2
100
AcDbEntity
  8
_0
  6
Continuous
 62
     7
370
    30
100
AcDbCircle
 10
3.421925
 20
-9.148959
 30
0.0
 40
0.1322471381079278
100
AcDbArc
 50
199.346847
 51
340.653156
  0
LINE
  5
469
330
4F2
100
AcDbEntity
  8
_0
  6
Continuous
 62
     7
370
    30
100
AcDbLine
 10
2.719615
 20
-8.854437
 30
0.0
 11
3.147875
 21
-8.971802
 31
0.0
  0
LINE
  5
46A
330
4F2
100
AcDbEntity
  8
_0
  6
Continuous
 62
     7
370
    30
100
AcDbLine
 10
3.147875
 20
-8.971802
 30
0.0
 11
3.651375
 21
-8.971802
 31
0.0
  0
LINE
  5
46B
330
4F2
100
AcDbEntity
  8
_0
  6
Continuous
 62
     7
370
    30
100
AcDbLine
 10
3.147875
 20
-9.18224
 30
0.0
 11
3.147875
 21
-8.971802
 31
0.0
  0
LINE
  5
46C
330
4F2
100
AcDbEntity
  8
_0
  6
Continuous
 62
     7
370
    30
100
AcDbLine
 10
3.656875
 20
-9.192771
 30
0.0
 11
3.546708
 21
-9.192771
 31
0.0
  0
LINE
  5
46D
330
4F2
100
AcDbEntity
  8
_0
  6
Continuous
 62
     7
370
    30
100
AcDbLine
 10
3.651375
 20
-9.103656
 30
0.0
 11
3.651375
 21
-8.971802
 31
0.0
  0
LINE
  5
46E
330
4F2
100
AcDbEntity
  8
_0
  6
Continuous
 62
     7
370
    30
100
AcDbLine
 10
4.679562
 20
-8.953833
 30
0.0
 11
1.688896
 21
-8.126208
 31
0.0
  0
LINE
  5
46F
330
4F2
100
AcDbEntity
  8
_0
  6
Continuous
 62
     7
370
    30
100
AcDbLine
 10
1.507187
 20
-8.114365
 30
0.0
 11
4.746698
 21
-9.070333
 31
0.0
  0
LINE
  5
470
330
4F2
100
AcDbEntity
  8
_0
  6
Continuous
 62
     7
370
    30
100
AcDbLine
 10
4.694073
 20
-9.497583
 30
0.0
 11
3.436437
 21
-9.907229
 31
0.0
  0
LINE
  5
471
330
4F2
100
AcDbEntity
  8
BORDER
  6
Continuous
 62
     7
370
    30
100
AcDbLine
 10
7.875
 20
-12.013094
 30
0.0
 11
7.875
 21
-2.913094
 31
0.0
  0
LINE
  5
472
330
4F2
100
AcDbEntity
  8
BORDER
  6
Continuous
 62
     7
370
    30
100
AcDbLine
 10
0.625
 20
-2.913094
 30
0.0
 11
7.875
 21
-2.913094
 31
0.0
  0
LINE
  5
473
330
4F2
100
AcDbEntity
  8
BORDER
  6
Continuous
 62
     7
370
    30
100
AcDbLine
 10
0.625
 20
-12.013094
 30
0.0
 11
0.625
 21
-2.913094
 31
0.0
  0
LINE
  5
474
330
4F2
100
AcDbEntity
  8
BORDER
  6
Continuous
 62
     7
370
    30
100
AcDbLine
 10
0.625
 20
-11.513094
 30
0.0
 11
7.875
 21
-11.513094
 31
0.0
  0
LINE
  5
475
330
4F2
100
AcDbEntity
  8
BORDER
  6
Continuous
 62
     7
370
    30
100
AcDbLine
 10
6.775
 20
-12.013094
 30
0.0
 11
6.775
 21
-11.513094
 31
0.0
  0
LINE
  5
476
330
4F2
100
AcDbEntity
  8
BORDER
  6
Continuous
 62
     7
370
    30
100
AcDbLine
 10
5.675
 20
-12.013094
 30
0.0
 11
5.675
 21
-11.513094
 31
0.0
  0
LINE
  5
480
330
4F2
100
AcDbEntity
  8
NOTES
  6
Continuous
 62
     7
370
    13
100
AcDbLine
 10
2.617646
 20
-4.715125
 30
0.0
 11
3.010385
 21
-4.38776
 31
0.0
  0
LINE
  5
481
330
4F2
100
AcDbEntity
  8
NOTES
  6
Continuous
 62
     7
370
    13
100
AcDbLine
 10
3.010385
 20
-4.38776
 30
0.0
 11
3.190385
 21
-4.38776
 31
0.0
  0
LINE
  5
482
330
4F2
100
AcDbEntity
  8
BORDER
  6
Continuous
 62
     7
370
    30
100
AcDbLine
 10
8.25
 20
-1.918458
 30
0.0
 11
8.25
 21
-2.125
 31
0.0
  0
LINE
  5
483
330
4F2
100
AcDbEntity
  8
BORDER
  6
Continuous
 62
     7
370
    30
100
AcDbLine
 10
0.25
 20
-1.918458
 30
0.0
 11
0.25
 21
-2.125
 31
0.0
  0
LINE
  5
484
330
4F2
100
AcDbEntity
  8
BORDER
  6
Continuous
 62
     7
370
    30
100
AcDbLine
 10
8.456542
 20
-2.125
 30
0.0
 11
8.25
 21
-2.125
 31
0.0
  0
LINE
  5
485
330
4F2
100
AcDbEntity
  8
BORDER
  6
Continuous
 62
     7
370
    30
100
AcDbLine
 10
8.456542
 20
-12.875
 30
0.0
 11
8.25
 21
-12.875
 31
0.0
  0
LINE
  5
486
330
4F2
100
AcDbEntity
  8
BORDER
  6
Continuous
 62
     7
370
    30
100
AcDbLine
 10
0.25
 20
-2.125
 30
0.0
 11
0.043458
 21
-2.125
 31
0.0
  0
LINE
  5
487
330
4F2
100
AcDbEntity
  8
BORDER
  6
Continuous
 62
     7
370
    30
100
AcDbLine
 10
8.25
 20
-12.875
 30
0.0
 11
8.25
 21
-13.081542
 31
0.0
  0
LINE
  5
488
330
4F2
100
AcDbEntity
  8
BORDER
  6
Continuous
 62
     7
370
    30
100
AcDbLine
 10
0.25
 20
-12.875
 30
0.0
 11
0.25
 21
-13.081542
 31
0.0
  0
LINE
  5
489
330
4F2
100
AcDbEntity
  8
BORDER
  6
Continuous
 62
     7
370
    30
100
AcDbLine
 10
0.25
 20
-12.875
 30
0.0
 11
0.043458
 21
-12.875
 31
0.0
  0
LINE
  5
48B
330
4F2
100
AcDbEntity
  8
DIM
  6
Continuous
 62
     7
370
    30
100
AcDbLine
 10
3.285757
 20
-3.663479
 30
0.0
 11
5.209036
 21
-3.663479
 31
0.0
  0
INSERT
  5
48C
330
4F2
100
AcDbEntity
  8
DIM
  6
Continuous
 62
     7
370
    13
100
AcDbBlockReference
  2
LARROW
 10
2.617646
 20
-4.715125
 30
0.0
 41
12.0
 42
12.0
 43
12.0
 50
219.81258
  0
TEXT
  5
42A
330
4F2
100
AcDbEntity
  8
NOTES
  6
Continuous
 62
     7
370
    30
100
AcDbText
 10
3.261595
 20
-4.442073
 30
0.0
 40
0.140396
  1
TACK COAT
 41
0.925953
  7
Style-Arial
 72
     1
 11
3.779564
 21
-4.442073
 31
0.0
100
AcDbText
  0
TEXT
  5
447
330
4F2
100
AcDbEntity
  8
DIM
  6
Continuous
 62
     7
370
    30
100
AcDbText
 10
4.97145
 20
-4.268156
 30
0.0
 40
0.140396
  1
REMOVE SURFACE AND
 41
0.925953
  7
Style-Arial
 72
     1
 11
6.036518
 21
-4.268156
 31
0.0
100
AcDbText
  0
TEXT
  5
448
330
4F2
100
AcDbEntity
  8
DIM
  6
Continuous
 62
     7
370
    30
100
AcDbText
 10
4.972215
 20
-4.466031
 30
0.0
 40
0.140396
  1
BASE AS NECESSARY TO
 41
0.925953
  7
Style-Arial
 72
     1
 11
6.093812
 21
-4.466031
 31
0.0
100
AcDbText
  0
TEXT
  5
449
330
4F2
100
AcDbEntity
  8
DIM
  6
Continuous
 62
     7
370
    30
100
AcDbText
 10
4.970818
 20
-4.652594
 30
0.0
 40
0.140396
  1
FIRM MATERIAL AND COMPACT.
 41
0.925953
  7
Style-Arial
 72
     1
 11
6.385856
 21
-4.652594
 31
0.0
100
AcDbText
  0
TEXT
  5
44A
330
4F2
100
AcDbEntity
  8
DIM
  6
Continuous
 62
     7
370
    30
100
AcDbText
 10
4.976973
 20
-5.008917
 30
0.0
 40
0.140396
  1
CUT STRAIGHT & VERTICAL
 41
0.925953
  7
Style-Arial
 72
     1
 11
6.200033
 21
-5.008917
 31
0.0
100
AcDbText
  0
TEXT
  5
44B
330
4F2
100
AcDbEntity
  8
DIM
  6
Continuous
 62
     7
370
    30
100
AcDbText
 10
4.970966
 20
-5.203531
 30
0.0
 40
0.140396
  1
FACES (PAVEMENT SAW)
 41
0.925953
  7
Style-Arial
 72
     1
 11
6.088005
 21
-5.203531
 31
0.0
100
AcDbText
  0
TEXT
  5
44C
330
4F2
100
AcDbEntity
  8
DIM
  6
Continuous
 62
     7
370
    30
100
AcDbText
 10
4.985917
 20
-5.567917
 30
0.0
 40
0.140396
  1
APPY TACK COAT
 41
0.925953
  7
Style-Arial
 72
     1
 11
5.771466
 21
-5.567917
 31
0.0
100
AcDbText
  0
TEXT
  5
44D
330
4F2
100
AcDbEntity
  8
DIM
  6
Continuous
 62
     7
370
    30
100
AcDbText
 10
4.985105
 20
-5.762198
 30
0.0
 40
0.140396
  1
VERTICAL FACES
 41
0.925953
  7
Style-Arial
 72
     1
 11
5.75257
 21
-5.762198
 31
0.0
100
AcDbText
  0
TEXT
  5
44E
330
4F2
100
AcDbEntity
  8
DIM
  6
Continuous
 62
     7
370
    30
100
AcDbText
 10
4.971096
 20
-6.159479
 30
0.0
 40
0.140396
  1
HOT ASPHALT MIX PLACED
 41
0.925953
  7
Style-Arial
 72
     1
 11
6.172456
 21
-6.159479
 31
0.0
100
AcDbText
  0
TEXT
  5
44F
330
4F2
100
AcDbEntity
  8
DIM
  6
Continuous
 62
     7
370
    30
100
AcDbText
 10
4.972031
 20
-6.361823
 30
0.0
 40
0.140396
  1
DIRECTLY ON SUBGRADE
 41
0.925953
  7
Style-Arial
 72
     1
 11
6.112801
 21
-6.361823
 31
0.0
100
AcDbText
  0
TEXT
  5
450
330
4F2
100
AcDbEntity
  8
DIM
  6
Continuous
 62
     7
370
    30
100
AcDbText
 10
4.971761
 20
-6.556094
 30
0.0
 40
0.140396
  1
NEEDS NO PRIME; PLACE
 41
0.925953
  7
Style-Arial
 72
     1
 11
6.102473
 21
-6.556094
 31
0.0
100
AcDbText
  0
TEXT
  5
451
330
4F2
100
AcDbEntity
  8
DIM
  6
Continuous
 62
     7
370
    30
100
AcDbText
 10
4.969145
 20
-6.750708
 30
0.0
 40
0.140396
  1
IN LAYERS NOT TO EXCEED
 41
0.925953
  7
Style-Arial
 72
     1
 11
6.20583
 21
-6.750708
 31
0.0
100
AcDbText
  0
TEXT
  5
452
330
4F2
100
AcDbEntity
  8
DIM
  6
Continuous
 62
     7
370
    30
100
AcDbText
 10
4.971995
 20
-10.566119
 30
0.0
 40
0.140396
  1
DENSITY REQUIREMENTS
 41
0.925953
  7
Style-Arial
 72
     1
 11
6.117867
 21
-10.566119
 31
0.0
100
AcDbText
  0
TEXT
  5
453
330
4F2
100
AcDbEntity
  8
DIM
  6
Continuous
 62
     7
370
    30
100
AcDbText
 10
4.971918
 20
-10.371187
 30
0.0
 40
0.140396
  1
PAVEMENT AND MEET
 41
0.925953
  7
Style-Arial
 72
     1
 11
5.964308
 21
-10.371187
 31
0.0
100
AcDbText
  0
TEXT
  5
454
330
4F2
100
AcDbEntity
  8
DIM
  6
Continuous
 62
     7
370
    30
100
AcDbText
 10
4.976187
 20
-10.166844
 30
0.0
 40
0.140396
  1
GRADE AS SURROUNDING
 41
0.925953
  7
Style-Arial
 72
     1
 11
6.151389
 21
-10.166844
 31
0.0
100
AcDbText
  0
TEXT
  5
455
330
4F2
100
AcDbEntity
  8
DIM
  6
Continuous
 62
     7
370
    30
100
AcDbText
 10
4.977257
 20
-9.970552
 30
0.0
 40
0.140396
  1
COMPACT TO SAME
 41
0.925953
  7
Style-Arial
 72
     1
 11
5.860553
 21
-9.970552
 31
0.0
100
AcDbText
  0
TEXT
  5
456
330
4F2
100
AcDbEntity
  8
DIM
  6
Continuous
 62
     7
370
    30
100
AcDbText
 10
4.975338
 20
-9.669615
 30
0.0
 40
0.140396
  1
(LARGE PATCHES)
 41
0.925953
  7
Style-Arial
 72
     1
 11
5.794675
 21
-9.669615
 31
0.0
100
AcDbText
  0
TEXT
  5
457
330
4F2
100
AcDbEntity
  8
DIM
  6
Continuous
 62
     7
370
    30
100
AcDbText
 10
4.971928
 20
-9.481719
 30
0.0
 40
0.140396
  1
ROLLER COMPACTOR
 41
0.925953
  7
Style-Arial
 72
     1
 11
5.949703
 21
-9.481719
 31
0.0
100
AcDbText
  0
TEXT
  5
458
330
4F2
100
AcDbEntity
  8
DIM
  6
Continuous
 62
     7
370
    30
100
AcDbText
 10
4.972233
 20
-9.189167
 30
0.0
 40
0.140396
  1
PACTOR (SM PATCHES)
 41
0.925953
  7
Style-Arial
 72
     1
 11
6.023628
 21
-9.189167
 31
0.0
100
AcDbText
  0
TEXT
  5
459
330
4F2
100
AcDbEntity
  8
DIM
  6
Continuous
 62
     7
370
    30
100
AcDbText
 10
4.985384
 20
-8.993219
 30
0.0
 40
0.140396
  1
VIBRATORY PLATE COM-
 41
0.925953
  7
Style-Arial
 72
     1
 11
6.087759
 21
-8.993219
 31
0.0
100
AcDbText
  0
TEXT
  5
45A
330
4F2
100
AcDbEntity
  8
DIM
  6
Continuous
 62
     7
370
    30
100
AcDbText
 10
4.971822
 20
-8.7
 30
0.0
 40
0.140396
  1
USING HOT ASPHALT MIX
 41
0.925953
  7
Style-Arial
 72
     1
 11
6.101643
 21
-8.7
 31
0.0
100
AcDbText
  0
TEXT
  5
45B
330
4F2
100
AcDbEntity
  8
DIM
  6
Continuous
 62
     7
370
    30
100
AcDbText
 10
4.973198
 20
-8.512437
 30
0.0
 40
0.140396
  1
BACKFILL AND COMPACT
 41
0.925953
  7
Style-Arial
 72
     1
 11
6.096777
 21
-8.512437
 31
0.0
100
AcDbText
  0
TEXT
  5
477
330
4F2
100
AcDbEntity
  8
BORDER
  6
Continuous
 62
     7
370
    30
100
AcDbText
 10
5.79444
 20
-11.906051
 30
0.0
 40
0.140396
  1
AUG 1992
 41
0.925953
  7
Style-Arial
 72
     1
 11
6.213621
 21
-11.906051
 31
0.0
100
AcDbText
  0
TEXT
  5
478
330
4F2
100
AcDbEntity
  8
BORDER
  6
Continuous
 62
     7
370
    30
100
AcDbText
 10
5.991563
 20
-11.704388
 30
0.0
 40
0.140396
  1
DATE
 41
0.925953
  7
Style-Arial
 72
     1
 11
6.228971
 21
-11.704388
 31
0.0
100
AcDbText
  0
TEXT
  5
479
330
4F2
100
AcDbEntity
  8
BORDER
  6
Continuous
 62
     7
370
    30
100
AcDbText
 10
7.119509
 20
-11.909939
 30
0.0
 40
0.140396
  1
2-34a
 41
0.925953
  7
Style-Arial
 72
     1
 11
7.347801
 21
-11.909939
 31
0.0
100
AcDbText
  0
TEXT
  5
47A
330
4F2
100
AcDbEntity
  8
BORDER
  6
Continuous
 62
     7
370
    30
100
AcDbText
 10
7.004466
 20
-11.714757
 30
0.0
 40
0.140396
  1
FIGURE
 41
0.925953
  7
Style-Arial
 72
     1
 11
7.342744
 21
-11.714757
 31
0.0
100
AcDbText
  0
TEXT
  5
47B
330
4F2
100
AcDbEntity
  8
HATCH
  6
Continuous
 62
     7
370
    30
100
AcDbText
 10
1.918328
 20
-11.238354
 30
0.0
 40
0.140396
  1
MAINTENANCE
 41
0.925953
  7
Style-Arial
 72
     1
 11
2.57457
 21
-11.238354
 31
0.0
100
AcDbText
  0
TEXT
  5
47C
330
4F2
100
AcDbEntity
  8
HATCH
  6
Continuous
 62
     7
370
    30
100
AcDbText
 10
0.692341
 20
-10.891187
 30
0.0
 40
0.140396
  1
REFERENCE: THE ASPHLAT INSTITUTE MANUAL
 41
0.925953
  7
Style-Arial
 72
     1
 11
2.818812
 21
-10.891187
 31
0.0
100
AcDbText
  0
TEXT
  5
47D
330
4F2
100
AcDbEntity
  8
HATCH
  6
Continuous
 62
     7
370
    30
100
AcDbText
 10
1.917938
 20
-11.071646
 30
0.0
 40
0.140396
  1
SERIES MS-16 ASPHALT IN PAVEMENT
 41
0.925953
  7
Style-Arial
 72
     1
 11
3.622008
 21
-11.071646
 31
0.0
100
AcDbText
  0
TEXT
  5
47E
330
4F2
100
AcDbEntity
  8
TEXT
  6
Continuous
 62
     7
370
    30
100
AcDbText
 10
0.996145
 20
-11.827385
 30
0.0
 40
0.140396
  1
REPAIR OF FLEXIBLE PAVEMENTS (DEEP PATCH)
 41
0.925953
  7
Style-Arial
 72
     1
 11
3.183257
 21
-11.827385
 31
0.0
100
AcDbText
  0
TEXT
  5
47F
330
4F2
100
AcDbEntity
  8
DIM
  6
Continuous
 62
     7
370
    30
100
AcDbText
 10
4.978325
 20
-6.929312
 30
0.0
 40
0.140396
  1
3 IN.
 41
0.925953
  7
Style-Arial
 72
     1
 11
5.162128
 21
-6.929312
 31
0.0
100
AcDbText
  0
TEXT
  5
48A
330
4F2
100
AcDbEntity
  8
NOTES
  6
Continuous
 62
     7
370
    30
100
AcDbText
 10
3.315334
 20
-3.580865
 30
0.0
 40
0.140396
  1
DEEP PATCH REPAIR
 41
0.925953
  7
Style-Arial
 72
     1
 11
4.257933
 21
-3.580865
 31
0.0
100
AcDbText
  0
HATCH
  5
4DE
330
4F2
100
AcDbEntity
  8
TITLE
  6
Continuous
 62
     7
370
     0
100
AcDbHatch
 10
0.0
 20
0.0
 30
0.0
210
0.0
220
0.0
230
1.0
  2
SOLID
 70
     1
 71
     0
 91
        1
 92
        1
 93
        1
 72
     2
 10
3.422195841686369
 20
-9.216751212255192
 40
0.0127727440065607
 50
0.0
 51
360.0
 73
     1
 97
        0
 75
     0
 76
     1
 98
        0
  0
ENDSEC
  0
SECTION
  2
OBJECTS
  0
DICTIONARY
  5
4E6
330
0
100
AcDbDictionary
281
     1
  3
ACAD_COLOR
350
505
  3
ACAD_GROUP
350
502
  3
ACAD_LAYOUT
350
4F6
  3
ACAD_MATERIAL
350
504
  3
ACAD_MLINESTYLE
350
4F0
  3
ACAD_PLOTSETTINGS
350
503
  3
ACAD_PLOTSTYLENAME
350
4E5
  3
ACAD_TABLESTYLE
350
51D
  3
AcadDim
350
512
  3
MicroStation
350
50A
  0
DICTIONARY
  5
4E2
330
4E1
100
AcDbDictionary
280
     1
281
     1
  3
ACAD_LAYERFILTERS
360
509
  3
ACAD_LAYERSTATES
360
4E3
  0
DICTIONARY
  5
519
330
4F2
100
AcDbDictionary
280
     1
281
     1
  3
ACAD_SORTENTS
360
51A
  0
DICTIONARY
  5
505
102
{ACAD_REACTORS
330
4E6
102
}
330
4E6
100
AcDbDictionary
281
     1
  0
DICTIONARY
  5
502
102
{ACAD_REACTORS
330
4E6
102
}
330
4E6
100
AcDbDictionary
281
     1
  0
DICTIONARY
  5
4F6
102
{ACAD_REACTORS
330
4E6
102
}
330
4E6
100
AcDbDictionary
281
     1
  3
Layout1
350
4FA
  3
Model
350
4F5
  0
DICTIONARY
  5
504
102
{ACAD_REACTORS
330
4E6
102
}
330
4E6
100
AcDbDictionary
281
     1
  0
DICTIONARY
  5
4F0
102
{ACAD_REACTORS
330
4E6
102
}
330
4E6
100
AcDbDictionary
281
     1
  3
Standard
350
4EF
  0
DICTIONARY
  5
503
102
{ACAD_REACTORS
330
4E6
102
}
330
4E6
100
AcDbDictionary
281
     1
  0
ACDBDICTIONARYWDFLT
  5
4E5
102
{ACAD_REACTORS
330
4E6
102
}
330
4E6
100
AcDbDictionary
281
     1
  3
Normal
350
4E4
100
AcDbDictionaryWithDefault
340
4E4
  0
DICTIONARY
  5
51D
102
{ACAD_REACTORS
330
4E6
102
}
330
4E6
100
AcDbDictionary
281
     1
  0
XRECORD
  5
512
102
{ACAD_REACTORS
330
4E6
102
}
330
4E6
100
AcDbXrecord
280
     1
 90
   990106
  3
 
 60
     0
 61
     0
 62
     1
 63
     1
 64
     0
 65
     0
 66
     0
 67
     3
 68
     1
 69
     1
 70
     0
 71
     0
 72
     0
 40
0.0
170
     0
  0
DICTIONARY
  5
50A
102
{ACAD_REACTORS
330
4E6
102
}
330
4E6
100
AcDbDictionary
281
     1
  3
ApplicationElement 1240
350
4D8
  3
ModelApplicationElement 0 1239
350
4D7
  0
DICTIONARY
  5
509
102
{ACAD_REACTORS
330
4E2
102
}
330
4E2
100
AcDbDictionary
281
     1
  0
DICTIONARY
  5
4E3
102
{ACAD_REACTORS
330
4E2
102
}
330
4E2
100
AcDbDictionary
281
     1
  0
SORTENTSTABLE
  5
51A
102
{ACAD_REACTORS
330
519
102
}
330
519
100
AcDbSortentsTable
330
4F2
331
42A
  5
46D
331
42B
  5
42A
331
42D
  5
42B
331
42F
  5
42D
331
431
  5
42F
331
433
  5
431
331
435
  5
433
331
437
  5
435
331
439
  5
437
331
43B
  5
439
331
43D
  5
43B
331
43F
  5
43D
331
441
  5
43F
331
443
  5
441
331
445
  5
443
331
447
  5
46E
331
448
  5
46F
331
449
  5
470
331
44A
  5
471
331
44B
  5
472
331
44C
  5
473
331
44D
  5
474
331
44E
  5
475
331
44F
  5
476
331
450
  5
477
331
451
  5
478
331
452
  5
479
331
453
  5
47A
331
454
  5
47B
331
455
  5
47C
331
456
  5
47D
331
457
  5
47E
331
458
  5
47F
331
459
  5
480
331
45A
  5
481
331
45B
  5
482
331
45C
  5
445
331
45D
  5
447
331
45E
  5
448
331
45F
  5
449
331
460
  5
44A
331
461
  5
44B
331
462
  5
44C
331
463
  5
44D
331
467
  5
44E
331
468
  5
44F
331
469
  5
450
331
46A
  5
451
331
46B
  5
452
331
46C
  5
453
331
46D
  5
454
331
46E
  5
455
331
46F
  5
456
331
470
  5
457
331
471
  5
458
331
472
  5
459
331
473
  5
45A
331
474
  5
45B
331
475
  5
45C
331
476
  5
45D
331
477
  5
483
331
478
  5
484
331
479
  5
485
331
47A
  5
486
331
47B
  5
487
331
47C
  5
488
331
47D
  5
489
331
47E
  5
48A
331
47F
  5
48B
331
480
  5
45E
331
481
  5
45F
331
482
  5
460
331
483
  5
461
331
484
  5
462
331
485
  5
463
331
486
  5
467
331
487
  5
468
331
488
  5
469
331
489
  5
46A
331
48A
  5
48C
331
48B
  5
46B
331
48C
  5
46C
  0
LAYOUT
  5
4FA
102
{ACAD_REACTORS
330
4F6
330
4F6
102
}
102
{ACAD_XDICTIONARY
360
4FB
102
}
330
4F6
100
AcDbPlotSettings
  1

  2
none_device
  4
Letter_(8.50_x_11.00_Inches)
  6

 40
6.35
 41
6.35
 42
6.350006
 43
6.350006
 44
215.899994
 45
279.399994
 46
0.0
 47
0.0
 48
0.0
 49
0.0
140
0.0
141
0.0
142
1.0
143
1.0
 70
   688
 72
     0
 73
     1
 74
     5
  7

 75
    16
 76
     0
 77
     2
 78
   300
147
1.0
148
0.0
149
0.0
100
AcDbLayout
  1
Layout1
 70
     1
 71
     1
 10
-0.25
 20
-0.25
 11
10.75
 21
8.25
 12
0.0
 22
0.0
 32
0.0
 14
1.049744
 24
0.799667
 34
-0.001526
 15
9.450623
 25
7.200577
 35
0.0
146
0.0
 13
0.0
 23
0.0
 33
0.0
 16
1.0
 26
0.0
 36
0.0
 17
0.0
 27
1.0
 37
0.0
 76
     0
330
4F7
1001
ACAD_PSEXT
1000
None
1000
None
1000
Not applicable
1000
The layout will not be plotted unless a new plotter configuration name is selected.
1070
     0
  0
LAYOUT
  5
4F5
102
{ACAD_REACTORS
330
4F6
330
4F6
102
}
330
4F6
100
AcDbPlotSettings
  1

  2
none_device
  4
ANSI_A_(8.50_x_11.00_Inches)
  6

 40
6.35
 41
19.049999
 42
6.350006
 43
19.049988
 44
215.899994
 45
279.399994
 46
0.0
 47
0.0
 48
0.0
 49
0.0
140
0.0
141
0.0
142
1.0
143
2.584895
 70
 11952
 72
     0
 73
     1
 74
     0
  7

 75
     0
 76
     0
 77
     2
 78
   300
147
0.386863
148
0.0
149
0.0
100
AcDbLayout
  1
Model
 70
     1
 71
     0
 10
0.0
 20
0.0
 11
12.0
 21
9.0
 12
0.0
 22
0.0
 32
0.0
 14
0.0
 24
0.0
 34
0.0
 15
0.0
 25
0.0
 35
0.0
146
0.0
 13
0.0
 23
0.0
 33
0.0
 16
1.0
 26
0.0
 36
0.0
 17
0.0
 27
1.0
 37
0.0
 76
     0
330
4F2
331
49
  0
MLINESTYLE
  5
4EF
102
{ACAD_REACTORS
330
4F0
102
}
330
4F0
100
AcDbMlineStyle
  2
STANDARD
 70
     0
  3

 62
   256
 51
90.0
 52
90.0
 71
     2
 49
0.5
 62
   256
  6
BYLAYER
 49
-0.5
 62
   256
  6
BYLAYER
  0
ACDBPLACEHOLDER
  5
4E4
102
{ACAD_REACTORS
330
4E5
102
}
330
4E5
  0
XRECORD
  5
4D8
102
{ACAD_REACTORS
330
50A
102
}
330
50A
100
AcDbXrecord
280
     1
310
3E4F020000004D6F64656C6572000000000000000000000000000000000000000000000000000000000000000000000000000000000000000000000000000000000000000000000000000000000000000000000000000000000000000000000000000000000000000000000000000000000000000000000000000000000000
310
00000000000000000000000000000000000000000000000000000000000000000000000000000000000000000000000000000000000000000000000000000000000000000000000000000000000000000000000000000000000000000000000000000000000000000000000000000000000000000000000000000000000000
310
00
310
00000000000000000000000000000000000000000000000000000000000000000000000000000000000000000000000000000000000000000000000000000000000000000000000000000000000000000000000000000000000000000000000000000000000000000000000000000000000000000000000000000000000000
310
00000000000000000000000000000000000000000000000000000000000000000000000000000000000000000000000000000000000000000000000000000000000000000000000000000000000000000000000000000000000000000000000000000000000000000000000000000000000000000000000000000000000000
310
00
310
00000000000000000000000000000000000000000000000000000000000000000000000000000000000000000000000000000000000000000000000000000000000000000000000000000000000000000000000000000000000000000000000000000000000000000000000000000000000000000000000000000000000000
310
00000000000000000000000000000000000000000000000000000000000000000000000000000000000000000000000000000000000000000000000000000000000000000000000000000000000000000000000000000000000000000000000000000000000000000000000000000000000000000000000000000000000000
310
00
310
00000000000000000000000000000000000000000000000000000000000000000000000000000000000000000000000000000000000000000000000000000000000000000000000000000000000000000000000000000000000000000000000000000000000000000000000000000000000000000000000000000000000000
310
00000000000000000000000000000000000000000000000000000000000000000000000000000000000000000000000000000000000000000000000000000000000000000000000000000000000000000000000000000000000000000000000000000000000000000000000000000000000000000000000000000000000000
310
00
310
00000000000000000000000000000000000000000000000000000000000000000000000000000000000000000000000000000000000000000000000000000000000000000000000000000000000000000000000000000000000000000000000000000000000000000000000000000000000000000000000000000000000000
310
00000000000000000000000000000000000000000000000000000000000000000000000000000000000000000000000000000000000000000000000000000000000000000000000000000000000000000000000000000000000000000000000000000000000000000000000000000000000000000000000000000000000000
310
00
310
00000000000000000000000000000000000000000000000000000000000000000000000000000000000000000000000000000000000000000000000000000000000000000000000000000000000000000000000000000000000000000000000000000000000000000000000000000000000000000000000000000000000000
310
00000000000000000000000000000000000000000000000000000000000000000000000000000000000000000000000000000000000000000000000000000000000000000000000000000000000000000000000000000000000000000000000000000000000000000000000000000000000000000000000000000000000000
310
00
310
00000000000000000000000000000000000000000000000000000000000000000000000000000000000000000000000000000000000000000000000000000000000000000000000000000000000000000000000000000000000000000000000000000000000000000000000000000000000000000000000000000000000000
310
00000000000000000000000000000000000000000000000000000000000000000000000000000000000000000000000000000000000000000000000000000000000000000000000000000000000000000000000000000000000000000000000000000000000000000000000000000000000000000000000000000000000000
310
00
310
00000000000000000000000000000000000000000000000000000000000000000000000000000000000000000000000000000000000000000000000000000000000000000000000000000000000000000000000000000000000000000000000000000000000000000000000000000000000000000000000000000000000000
310
00000000000000000000000000000000000000000000000000000000000000000000000000000000000000000000000000000000000000000000000000000000000000000000000000000000000000000000000000000000000000000000000000000000000000000000000000000000000000000000000000000000000000
310
00
310
00000000000000000000000000000000000000000000000000000000000000000000000000000000000000000000000000000000000000000000000000000000000000000000000000000000000000000000000000000000000000000000000000000000000000000000000000000000000000000000000000000000000000
310
00000000000000000000000000000000000000000000000000000000000000000000000000000000000000000000000000000000000000000000000000000000000000000000000000000000000000000000000000000000000000000000000000000000000000000000000000000000000000000000000000000000000000
310
00
310
00000000000000000000000000000000000000000000000000000000000000000000000000000000000000000000000000000000000000000000000000000000000000000000000000000000000000000000000000000000000000000000000000000000000000000000000000000000000000000000000000000000000000
310
00000000000000000000000000000000000000000000000000000000000000000000000000000000000000000000000000000000000000000000000000000000000000000000000000000000000000000000000000000000000000000000000000000000000000000000000000000000000000000000000000000000000000
310
00
310
00000000000000000000000000000000000000000000000000000000000000000000000000000000000000000000000000000000000000000000000000000000000000000000000000000000000000000000000000000000000000000000000000000000000000000000000000000000000000000000000000000000000000
310
00000000000000000000000000000000000000000000000000000000000000000000000000000000000000000000000000000000000000000000000000000000000000000000000000000000000000000000000000000000000000000000000000000000000000000000000000000000000000000000000000000000000000
310
00
310
00000000000000000000000000000000000000000000000000000000000000000000000000000000000000000000000000000000000000000000000000000000000000000000000000000000000000000000000000000000000000000000000000000000000000000000000000000000000000000000000000000000000000
310
00000000000000000000000000000000000000000000000000000000000000000000000000000000000000000000000000000000000000000000000000000000000000000000000000000000000000000000000000000000000000000000000000000000000000000000000000000000000000000000000000000000000000
310
00
310
00000000000000000000000000000000000000000000000000000000000000000000000000000000000000000000000000000000000000000000000000000000000000000000000000000000000000000000000000000000000000000000000000000000000000000000000000000000000000000000000000000000000000
310
00000000000000000000000000000000000000000000000000000000000000000000000000000000000000000000000000000000000000000000000000000000000000000000000000000000000000000000000000000000000000000000000000000000000000000000000000000000000000000000000000000000000000
310
00
310
00000000000000000000000000000000000000000000000000000000000000000000000000000000000000000000000000000000000000000000000000000000000000000000000000000000000000000000000000000000000000000000000000000000000000000000000000000000000000
  0
XRECORD
  5
4D7
102
{ACAD_REACTORS
330
50A
102
}
330
50A
100
AcDbXrecord
280
     1
310
DF56060034040701D0009A9999999999B93F000000000000000000000000000000000400000009000000000000000200000064000000640000000100000001000000190000007B14AE47E17A843F00000000004060409A9999999999B93F00000000004C2D41000000000070F7400000000000942141000000000000000000
310
0000000000000000000000000000000AD482040000000000000000000000000000F03F000000000000000000000000000030402D431CEBE2362A3F00000000000008400000000000000000009807C000000000000000007C1A61B9A711364020000000050000000A000000200000002000000020000000000000000000F03F
310
00
310
0000000000F03F000000000000F03F333333333333D33F333333333333D33F333333333333D33F000000000000F43F000000000000F43F000000000000F03F0200000064000000000000000000000000000840000000000000F83F00000000000000000000000000000000008056409A9999999999B93F0000000000000000
310
00000000000000000000000000000000000000000000000000000000000000000000000000000000000000000000000000000000000000000000000000000000000000000000000000000000000000000000000000000000000000000000000000000000000000000000000000000000000000000000000000000000000000
310
00
310
0000000000000000000000000000000000000000000000000000000000000000000000000000000000000000000000000000000000000000000000000000000000000000000000000000000000000000000000000000000000000000000000000000000000000000000000000000000000000000000000009A9999999999A9
310
3F9100000000000000000000000000000035A781D547960F40000000000000F03F000000000000F03F666666666666164000000000104068F200000000000000000000000000000000000000000000000000000000000000000000000000000000000000000000000000000000000000000000000000000000000000000000
310
00
310
00000000000000000000000000000000000000000000000000000000000000000000000000000000000000000000000000000000000000000000000000000000000000000000000000000000000000000000000000000000000000000000000000000000000000000000000000000000000000000000000000000000000000
310
000000000000000000000000000000000000000000000000000000000000000000000000000000000000000000000000000000000000000000000000FF000000000000000000000000000000000000000000000000000000000000000000000000000000000000000000000000000000000000000000000000000000000000
310
00
310
0000000000000000000000000000000000000000000000000000000000000000000000000000000000000000000000000000000000000000000000000000000000000000
  0
DICTIONARY
  5
4FB
330
4FA
100
AcDbDictionary
280
     1
281
     1
  3
ADSK_XREC_LAYOUTTHUMBNAIL
360
4FC
  0
XRECORD
  5
4FC
102
{ACAD_REACTORS
330
4FB
102
}
330
4FB
100
AcDbXrecord
280
     1
310
28000000B40000008B0000000100080000000000BC61000000000000000000000001000000000000FFFFFF0000000000FFFFFF000000000000000000000000000000000000000000000000000000000000000000330000006600000099000000CC000000FF00000000330000333300006633000099330000CC330000FF3300
310
0000660000336600006666000099660000CC660000FF66000000990000339900006699000099990000CC990000FF99000000CC000033CC000066CC000099CC0000CCCC0000FFCC000000FF000033FF000066FF000099FF0000CCFF0000FFFF000000003300330033006600330099003300CC003300FF003300003333003333
310
33006633330099333300CC333300FF33330000663300336633006666330099663300CC663300FF66330000993300339933006699330099993300CC993300FF99330000CC330033CC330066CC330099CC3300CCCC3300FFCC330000FF330033FF330066FF330099FF3300CCFF3300FFFF330000006600330066006600660099
310
006600CC006600FF00660000336600333366006633660099336600CC336600FF33660000666600336666006666660099666600CC666600FF66660000996600339966006699660099996600CC996600FF99660000CC660033CC660066CC660099CC6600CCCC6600FFCC660000FF660033FF660066FF660099FF6600CCFF6600
310
FFFF660000009900330099006600990099009900CC009900FF00990000339900333399006633990099339900CC339900FF33990000669900336699006666990099669900CC669900FF66990000999900339999006699990099999900CC999900FF99990000CC990033CC990066CC990099CC9900CCCC9900FFCC990000FF99
310
0033FF990066FF990099FF9900CCFF9900FFFF99000000CC003300CC006600CC009900CC00CC00CC00FF00CC000033CC003333CC006633CC009933CC00CC33CC00FF33CC000066CC003366CC006666CC009966CC00CC66CC00FF66CC000099CC003399CC006699CC009999CC00CC99CC00FF99CC0000CCCC0033CCCC0066CC
310
CC0099CCCC00CCCCCC00FFCCCC0000FFCC0033FFCC0066FFCC0099FFCC00CCFFCC00FFFFCC000000FF003300FF006600FF009900FF00CC00FF00FF00FF000033FF003333FF006633FF009933FF00CC33FF00FF33FF000066FF003366FF006666FF009966FF00CC66FF00FF66FF000099FF003399FF006699FF009999FF00CC
310
99FF00FF99FF0000CCFF0033CCFF0066CCFF0099CCFF00CCCCFF00FFCCFF0000FFFF0033FFFF0066FFFF0099FFFF00CCFFFF00FFFFFF00000000000D0D0D001A1A1A00282828003535350043434300505050005D5D5D006B6B6B00787878008686860093939300A1A1A100AEAEAE00BBBBBB00C9C9C900D6D6D600E4E4E400
310
F1F1F100FFFFFF0000000000000000000000000000000000000000000000000000000000000000000000000000000000E2E2E2E2E2E2E2E2E2E2E2E2E2E2E2E2E2E2E2E2E2E2E2E2E2E2E2E2E2E2E2E2E2E2E2E2E2E2E2E2E2E2E2E2E2E2E2E2E2E2E2E2E2E2E2E2E2E2E2E2E2E2E2E2E2E2E2E2E2E2E2E2E2E2E2E2E2E2E2
310
E2E2E2E2E2E2E2E2E2E2E2E2E2E2E2E2E2E2E2E2E2E2E2E2E2E2E2E2E2E2E2E2E2E2E2E2E2E2E2E2E2E2E2E2E2E2E2E2E2E2E2E2E2E2E2E2E2E2E2E2E2E2E2E2E2E2E2E2E2E2E2E2E2E2E2E2E2E2E2E2E2E2E2E2E2E2E2E2E2E2E2E2E2E2E2E2E2E2E2E2EFF5F5F5F5F5F5F5F5F5F5F5F5F5F5F5F5F5F5F5F5F5F5F5F5F5F5
310
F5F5F5F5F5F5F5F5F5F5F5F5F5F5F5F5F5F5F5F5F5F5F5F5F5F5F5F5F5F5F5F5F5F5F5F5F5F5F5F5F5F5F5F5F5F5F5F5F5F5F5F5F5F5F5F5F5F5F5F5F5F5F5F5F5F5F5F5F5F5F5F5F5F5F5F5F5F5F5F5F5F5F5F5F5F5F5F5F5F5F5F5F5F5F5F5F5F5F5F5F5F5F5F5F5F5F5F5F5F5F5F5F5F5F5F5F5F5F5F5F5F5F5F5F5F5F5
310
F5F5F5F5F5F5F5F5F5F5F5F5F5F5F5F5F5F5F5F5F5F5F5F5E2E2EFF5F5F5F5F5F5F5F5F5F5F5F5F5F5F5F5F5F5F5F5F5F5F5F5F5F5F5F5F5F5F5F5F5F5F5F5F5F5F5F5F5F5F5F5F5F5F5F5F5F5F5F5F5F5F5F5F5F5F5F5F5F5F5F5F5F5F5F5F5F5F5F5F5F5F5F5F5F5F5F5F5F5F5F5F5F5F5F5F5F5F5F5F5F5F5F5F5F5F5F5
310
F5F5F5F5F5F5F5F5F5F5F5F5F5F5F5F5F5F5F5F5F5F5F5F5F5F5F5F5F5F5F5F5F5F5F5F5F5F5F5F5F5F5F5F5F5F5F5F5F5F5F5F5F5F5F5F5F5F5F5F5F5F5F5F5F5F5F5F5F5F5F5F5F5F5F5F5F5E2E2EFF5F5F5F5F5F5F5F5F5F5F5F5F5F5F5F5F5F5F5F5F5F5F5F5F5F5F5F5F5F5F5F5F5F5F5F5F5F5F5F5F5F5F5F5F5F5F5
310
F5F5F5F5F5F5F5F5F5F5F5F5F5F5F5F5F5F5F5F5F5F5F5F5F5F5F5F5F5F5F5F5F5F5F5F5F5F5F5F5F5F5F5F5F5F5F5F5F5F5F5F5F5F5F5F5F5F5F5F5F5F5F5F5F5F5F5F5F5F5F5F5F5F5F5F5F5F5F5F5F5F5F5F5F5F5F5F5F5F5F5F5F5F5F5F5F5F5F5F5F5F5F5F5F5F5F5F5F5F5F5F5F5F5F5F5F5F5F5F5F5F5F5F5F5F5F5
310
F5F5F5E2E2EFF5F5F5E2E2E2E2E2E2E2E2F5F5F5F5F5F5F5F5F5E2E2E2E2E2E2E2E2E2E2E2E2E2E2E2E2F5F5F5F5F5F5F5F5E2E2E2E2E2E2E2E2E2E2E2E2E2E2E2E2F5F5F5F5F5F5F5F5F5E2E2E2E2E2E2E2E2E2E2E2E2E2E2E2F5F5F5F5F5F5F5F5F5E2E2E2E2E2E2E2E2E2E2E2E2E2E2E2F5F5F5F5F5F5F5F5F5E2E2E2E2
310
E2E2E2E2E2E2E2E2E2E2E2E2F5F5F5F5F5F5F5F5E2E2E2E2E2E2E2E2E2E2E2E2E2E2E2E2F5F5F5F5F5F5F5F5F5E2E2E2E2E2E2E2E2F5F5F5E2E2EFF5F5F5E2F5F5F5F5F5F5F5F5F5F5F5F5F5F5F5F5F5F5F5F5F5F5F5F5F5F5F5F5F5F5F5F5F5F5F5F5F5F5F5F5F5F5F5F5F5F5F5F5F5F5F5F5F5F5F5F5F5F5F5F5F5F5F5F5
310
F5F5F5F5F5F5F5F5F5F5F5F5F5F5F5F5F5F5F5F5F5F5F5F5F5F5F5F5F5F5F5F5F5F5F5F5F5F5F5F5F5F5F5F5F5F5F5F5F5F5F5F5F5F5F5F5F5F5F5F5F5F5F5F5F5F5F5F5F5F5F5F5F5F5F5F5F5F5F5F5F5F5F5F5F5F5F5F5F5F5F5F5F5F5F5F5F5F5F5F5F5F5F5F5F5E2F5F5F5E2E2EFF5F5F5E2F5F5F5F5F5F5F5F5F5F5F5
310
F5F5F5F5F5F5F5F5F5F5F5F5F5F5F5F5F5F5F5F5F5F5F5F5F5F5F5F5F5F5F5F5F5F5F5F5F5F5F5F5F5F5F5F5F5F5F5F5F5F5F5F5F5F5F5F5F5F5F5F5F5F5F5F5F5F5F5F5F5F5F5F5F5F5F5F5F5F5F5F5F5F5F5F5F5F5F5F5F5F5F5F5F5F5F5F5F5F5F5F5F5F5F5F5F5F5F5F5F5F5F5F5F5F5F5F5F5F5F5F5F5F5F5F5F5F5F5
310
F5F5F5F5F5F5F5F5F5F5F5F5F5F5F5F5F5F5F5F5F5F5F5F5F5F5F5F5F5F5F5E2F5F5F5E2E2EFF5F5F5E2F5F5F5F5F5F5F5F5F5F5F5F5F5F5F5F5F5F5F5F5F5F5F5F5F5F5F5F5F5F5F5F5F5F5F5F5F5F5F5F5F5F5F5F5F5F5F5F5F5F5F5F5F5F5F5F5F5F5F5F5F5F5F5F5F5F5F5F5F5F5F5F5F5F5F5F5F5F5F5F5F5F5F5F5F5
310
F5F5F5F5F5F5F5F5F5F5F5F5F5F5F5F5F5F5F5F5F5F5F5F5F5F5F5F5F5F5F5F5F5F5F5F5F5F5F5F5F5F5F5F5F5F5F5F5F5F5F5F5F5F5F5F5F5F5F5F5F5F5F5F5F5F5F5F5F5F5F5F5F5F5F5F5F5F5F5F5F5F5F5F5E2F5F5F5E2E2EFF5F5F5E2F5F5F5F5F5F5F5F5F5F5F5F5F5F5F5F5F5F5F5F5F5F5F5F5F5F5F5F5F5F5F5F5
310
F5F5F5F5F5F5F5F5F5F5F5F5F5F5F5F5F5F5F5F5F5F5F5F5F5F5F5F5F5F5F5F5F5F5F5F5F5F5F5F5F5F5F5F5F5F5F5F5F5F5F5F5F5F5F5F5F5F5F5F5F5F5F5F5F5F5F5F5F5F5F5F5F5F5F5F5F5F5F5F5F5F5F5F5F5F5F5F5F5F5F5F5F5F5F5F5F5F5F5F5F5F5F5F5F5F5F5F5F5F5F5F5F5F5F5F5F5F5F5F5F5F5F5F5F5F5F5
310
F5F5F5F5F5F5F5F5F5F5E2F5F5F5E2E2EFF5F5F5E2F5F5F5F5F5F5F5F5F5F5F5F5F5F5F5F5F5F5F5F5F5F5F5F5F5F5F5F5F5F5F5F5F5F5F5F5F5F5F5F5F5F5F5F5F5F5F5F5F5F5F5F5F5F5F5F5F5F5F5F5F5F5F5F5F5F5F5F5F5F5F5F5F5F5F5F5F5F5F5F5F5F5F5F5F5F5F5F5F5F5F5F5F5F5F5F5F5F5F5F5F5F5F5F5F5F5
310
F5F5F5F5F5F5F5F5F5F5F5F5F5F5F5F5F5F5F5F5F5F5F5F5F5F5F5F5F5F5F5F5F5F5F5F5F5F5F5F5F5F5F5F5F5F5F5F5F5F5F5F5F5F5F5F5F5F5F5F5F5F5F5E2F5F5F5E2E2EFF5F5F5E2F5F5F5F5F5F5F5F5F5F5F5F5F5F5F5F5F5F5F5F5F5F5F5F5F5F5F5F5F5F5F5F5F5F5F5F5F5F5F5F5F5F5F5F5F5F5F5F5F5F5F5F5F5
310
F5F5F5F5F5F5F5F5F5F5F5F5F5F5F5F5F5F5F5F5F5F5F5F5F5F5F5F5F5F5F5F5F5F5F5F5F5F5F5F5F5F5F5F5F5F5F5F5F5F5F5F5F5F5F5F5F5F5F5F5F5F5F5F5F5F5F5F5F5F5F5F5F5F5F5F5F5F5F5F5F5F5F5F5F5F5F5F5F5F5F5F5F5F5F5F5F5F5F5F5F5F5F5F5F5F5F5F5F5F5F5F5F5F5F5F5E2F5F5F5E2E2EFF5F5F5E2
310
F5F5F5F5F5F5F5F5F5F5F5F5F5F5F5F5F5F5F5F5F5F5F5F5F5F5F5F5F5F5F5F5F5F5F5F5F5F5F5F5F5F5F5F5F5F5F5F5F5F5F5F5F5F5F5F5F5F5F5F5F5F5F5F5F5F5F5F5F5F5F5F5F5F5F5F5F5F5F5F5F5F5F5F5F5F5F5F5F5F5F5F5F5F5F5F5F5F5F5F5F5F5F5F5F5F5F5F5F5F5F5F5F5F5F5F5F5F5F5F5F5F5F5F5F5F5F5
310
F5F5F5F5F5F5F5F5F5F5F5F5F5F5F5F5F5F5F5F5F5F5F5F5F5F5F5F5F5F5F5F5F5F5F5F5F5F5F5F5F5F5E2F5F5F5E2E2EFF5F5F5E2F5F5F5F5F5F5F5F5F5F5F5F5F5F5F5F5F5F5F5F5F5F5F5F5F5F5F5F5F5F5F5F5F5F5F5F5F5F5F5F5F5F5F5F5F5F5F5F5F5F5F5F5F5F5F5F5F5F5F5F5F5F5F5F5F5F5F5F5F5F5F5F5F5F5
310
F5F5F5F5F5F5F5F5F5F5F5F5F5F5F5F5F5F5F5F5F5F5F5F5F5F5F5F5F5F5F5F5F5F5F5F5F5F5F5F5F5F5F5F5F5F5F5F5F5F5F5F5F5F5F5F5F5F5F5F5F5F5F5F5F5F5F5F5F5F5F5F5F5F5F5F5F5F5F5F5F5F5F5F5F5F5F5F5F5F5F5F5F5F5F5E2F5F5F5E2E2EFF5F5F5F5F5F5F5F5F5F5F5F5F5F5F5F5F5F5F5F5F5F5F5F5F5
310
F5F5F5F5F5F5F5F5F5F5F5F5F5F5F5F5F5F5F5F5F5F5F5F5F5F5F5F5F5F5F5F5F5F5F5F5F5F5F5F5F5F5F5F5F5F5F5F5F5F5F5F5F5F5F5F5F5F5F5F5F5F5F5F5F5F5F5F5F5F5F5F5F5F5F5F5F5F5F5F5F5F5F5F5F5F5F5F5F5F5F5F5F5F5F5F5F5F5F5F5F5F5F5F5F5F5F5F5F5F5F5F5F5F5F5F5F5F5F5F5F5F5F5F5F5F5F5
310
F5F5F5F5F5F5F5F5F5F5F5F5F5F5F5F5F5F5F5F5F5F5F5F5F5E2E2EFF5F5F5F5F5F5F5F5F5F5F5F5F5F5F5F5F5F5F5F5F5F5F5F5F5F5F5F5F5F5F5F5F5F5F5F5F5F5F5F5F5F5F5F5F5F5F5F5F5F5F5F5F5F5F5F5F5F5F5F5F5F5F5F5F5F5F5F5F5F5F5F5F5F5F5F5F5F5F5F5F5F5F5F5F5F5F5F5F5F5F5F5F5F5F5F5F5F5F5
310
F5F5F5F5F5F5F5F5F5F5F5F5F5F5F5F5F5F5F5F5F5F5F5F5F5F5F5F5F5F5F5F5F5F5F5F5F5F5F5F5F5F5F5F5F5F5F5F5F5F5F5F5F5F5F5F5F5F5F5F5F5F5F5F5F5F5F5F5F5F5F5F5F5F5F5F5F5F5E2E2EFF5F5F5F5F5F5F5F5F5F5F5F5F5F5F5F5F5F5F5F5F5F5F5F5F5F5F5F5F5F5F5F5F5F5F5F5F5F5F5F5F5F5F5F5F5F5
310
F5F5F5F5F5F5F5F5F5F5F5F5F5F5F5F5F5F5F5F5F5F5F5F5F5F5F5F5F5F5F5F5F5F5F5F5F5F5F5F5F5F5F5F5F5F5F5F5F5F5F5F5F5F5F5F5F5F5F5F5F5F5F5F5F5F5F5F5F5F5F5F5F5F5F5F5F5F5F5F5F5F5F5F5F5F5F5F5F5F5F5F5F5F5F5F5F5F5F5F5F5F5F5F5F5F5F5F5F5F5F5F5F5F5F5F5F5F5F5F5F5F5F5F5F5F5F5
310
F5F5F5F5E2E2EFF5F5F5F5F5F5F5F5F5F5F5F5F5F5F5F5F5F5F5F5F5F5F5F5F5F5F5F5F5F5F5F5F5F5F5F5F5F5F5F5F5F5F5F5F5F5F5F5F5F5F5F5F5F5F5F5F5F5F5F5F5F5F5F5F5F5F5F5F5F5F5F5F5F5F5F5F5F5F5F5F5F5F5F5F5F5F5F5F5F5F5F5F5F5F5F5F5F5F5F5F5F5F5F5F5F5F5F5F5F5F5F5F5F5F5F5F5F5F5F5
310
F5F5F5F5F5F5F5F5F5F5F5F5F5F5F5F5F5F5F5F5F5F5F5F5F5F5F5F5F5F5F5F5F5F5F5F5F5F5F5F5F5F5F5F5F5F5F5F5F5F5F5F5F5F5F5F5F5E2E2EFF5F5F5F5F5F5F5F5F5F5F5F5F5F5F5F5F5F5F5F5E2E2E2E2E2E2E2E2E2E2E2E2E2E2E2E2E2E2E2E2E2E2E2E2E2E2E2E2E2E2E2E2E2E2E2E2E2E2E2E2E2E2E2E2E2E2E2
310
E2E2E2E2E2E2E2E2E2E2E2E2E2E2E2E2E2E2E2E2E2E2E2E2E2E2E2E2E2E2E2E2E2E2E2E2E2E2E2E2E2E2E2E2E2E2E2E2E2E2E2E2E2E2E2E2E2E2E2E2E2E2E2E2E2E2E2E2E2E2E2E2E2E2E2E2E2E2E2E2E2E2E2E2E2E2E2E2E2E2F5F5F5F5F5F5F5F5F5F5F5F5F5F5F5F5F5F5F5F5E2E2EFF5F5F5F5F5F5F5F5F5F5F5F5F5F5
310
F5F5F5F5F5F5E2F5F5F5F5F5F5F5F5F5F5F5F5F5F5F5F5F5F5F5F5F5F5F5F5F5F5F5F5F5F5F5F5F5F5F5F5F5F5F5F5F5F5F5F5F5F5F5F5F5F5F5F5F5F5F5F5F5F5F5F5F5F5F5F5F5F5F5F5F5F5F5F5F5F5F5F5F5F5F5F5F5F5F5F5F5F5F5F5F5F5F5F5F5F5F5F5F5F5F5F5F5F5F5F5F5F5F5F5F5F5F5F5F5F5F5F5F5F5F5F5
310
F5F5F5F5F5F5F5F5F5F5F5F5F5F5F5E2F5F5F5F5F5F5F5F5F5F5F5F5F5F5F5F5F5F5F5F5E2E2EFF5F5F5F5F5F5F5F5F5F5F5F5F5F5F5F5F5F5F5F5E2F5F5F5F5F5F5F5F5F5F5F5F5F5F5F5F5F5F5F5F5F5F5F5F5F5F5F5F5F5F5F5F5F5F5F5F5F5F5F5F5F5F5F5F5F5F5F5F5F5F5F5F5F5F5F5F5F5F5F5F5F5F5F5F5F5F5F5
310
F5F5F5F5F5F5F5F5F5F5F5F5F5F5F5F5F5F5F5F5F5F5F5F5F5F5F5F5F5F5F5F5F5F5F5F5F5F5F5F5F5F5F5F5F5F5F5F5F5F5F5F5F5F5F5F5F5F5F5F5F5F5F5F5F5F5F5F5E2F5F5F5F5F5F5F5F5F5F5F5F5F5F5F5F5F5F5F5F5E2E2EFF5F5F5F5F5F5F5F5F5F5F5F5F5F5F5F5F5F5F5F5E2F5F5F5F5F5F5F5F5F5F5F5F5F5F5
310
F5F5F5F5F5F5F5F5F5F5F5F5F5F5F5F5F5F5F5F5F5F5F5F5F5F5F5F5F5F5F5F5F5F5F5F5F5F5F5F5F5F5F5F5F5F5F5F5F5F5F5F5F5F5F5F5F5F5F5F5F5F5F5F5F5F5F5F5F5F5F5F5F5F5F5F5F5F5F5F5F5F5F5F5F5F5F5F5F5F5F5F5F5F5F5F5F5F5F5F5F5F5F5F5F5F5F5F5F5F5F5F5F5F5F5F5F5F5F5F5F5E2F5F5F5F5F5
310
F5F5F5F5F5F5F5F5F5F5F5F5F5F5F5E2E2EFF5F5F5F5F5F5F5F5F5F5F5F5F5F5F5F5F5F5F5F5E2F5F5F5F5F5F5F5F5F5F5F5F5F5F5F5F5F5F5F5F5F5F5F5F5F5F5F5F5F5F5F5F5F5F5F5F5F5F5F5F5F5F5F5F5F5F5F5F5F5F5F5F5F5F5F5F5F5F5F5F5F5F5F5F5F5F5F5F5F5F5F5F5F5F5F5F5F5F5F5F5F5F5F5F5F5F5F5F5
310
F5F5F5F5F5F5F5F5F5F5F5F5F5F5F5F5F5F5F5F5F5F5F5F5F5F5F5F5F5F5F5F5F5F5F5F5F5F5F5F5F5F5F5F5F5F5F5E2F5F5F5F5F5F5F5F5F5F5F5F5F5F5F5F5F5F5F5F5E2E2EFF5F5F5E2F5F5F5F5F5F5F5F5F5F5F5F5F5F5F5F5E2F5F5F5F5F5F5F5F5F5F5F5F5F5F5F5F5F5F5F5F5F5F5F5F5F5F5F5F5F5F5F5F5F5F5F5
310
F5F5F5F5F5F5F5F5F5F5F5F5F5F5F5F5F5F5F5F5F5F5F5F5F5F5F5F5F5F5F5F5F5F5F5F5F5F5F5F5F5F5F5F5F5F5F5F5F5F5F5F5F5F5F5F5F5F5F5F5F5F5F5F5F5F5F5F5F5F5F5F5F5F5F5F5F5F5F5F5F5F5F5F5F5F5F5F5F5F5F5F5F5F5F5F5F5F5F5F5E2F5F5F5F5F5F5F5F5F5F5F5F5F5F5F5F5E2F5F5F5E2E2EFF5F5F5
310
E2F5F5F5F5F5F5F5F5F5F5F5F5F5F5F5F5E2F5F5F5F5F5F5F5F5F5F5F5F5F5F5F5F5F5F5F5F5F5F5F5F5F5F5F5F5F5F5F5F5F5F5F5F5F5F5F5F5F5F5F5F5F5F5F5F5F5F5F5F5F5F5F5F5F5F5F5F5F5F5F5F5F5F5F5F5F5F5F5F5F5F5F5F5F5F5F5F5F5F5F5F5F5F5F5F5F5F5F5F5F5F5F5F5F5F5F5F5F5F5F5F5F5F5F5F5F5
310
F5F5F5F5F5F5F5F5F5F5F5F5F5F5F5F5F5F5F5F5F5F5F5F5F5F5E2F5F5F5F5F5F5F5F5F5F5F5F5F5F5F5F5E2F5F5F5E2E2EFF5F5F5E2F5F5F5F5F5F5F5F5F5F5F5F5F5F5F5F5E2F5F5F5F5F5F5F5F5F5F5F5F5F5F5F5F5F5F5F5F5F5F5F5F5F5F5F5F5F5F5F5F5F5F5F5F5F5F5F5F5F5F5F5F5F5F5F5F5F5F5F5F5F5F5F5F5
310
F5F5F5F5F5F5F5F5F5F5F5F5F5F5F5F5F5F5F5F5F5F5F5F5F5F5F5F5F5F5F5F5F5F5F5F5F5F5F5F5F5F5F5F5F5F5F5F5F5F5F5F5F5F5F5F5F5F5F5F5F5F5F5F5F5F5F5F5F5F5F5F5F5F5F5F5F5F5F5E2F5F5F5F5F5F5F5F5F5F5F5F5F5F5F5F5E2F5F5F5E2E2EFF5F5F5E2F5F5F5F5F5F5F5F5F5F5F5F5F5F5F5F5E2F5F5F5
310
F5F5F5F5F5F5F5F5F5F5F5F5F5F5F5F5F5F5F5F5F5F5F5F5F5F5F5F5F5F5F5F5F5F5F5F5F5F5F5F5F5F5F5F5F5F5F5F5F5F5F5F5F5F5F5F5F5F5F5F5F5F5F5F5F5F5F5F5F5F5F5F5F5F5F5F5F5F5F5F5F5F5F5F5F5F5F5F5F5F5F5F5F5F5F5F5F5F5F5F5F5F5F5F5F5F5F5F5F5F5F5F5F5F5F5F5F5F5F5F5F5F5F5F5F5F5F5
310
F5F5F5F5F5E2F5F5F5F5F5F5F5F5F5F5F5F5F5F5F5F5E2F5F5F5E2E2EFF5F5F5E2F5F5F5F5F5F5F5F5F5F5F5F5F5F5F5F5E2F5F5F5F5F5F5F5F5F5F5F5F5F5F5F5F5F5F5F5F5F5F5F5F5F5F5F5F5F5F5F5F5F5F5F5F5F5F5F5F5F5F5F5F5F5F5F5F5F5F5F5F5F5F5F5F5F5F5F5F5F5F5F5F5F5F5F5F5F5F5F5F5F5F5F5F5F5
310
F5F5F5F5F5F5F5F5F5F5F5F5F5F5F5F5F5F5F5F5F5F5F5F5F5F5F5F5F5F5F5F5F5F5F5F5F5F5F5F5F5F5F5F5F5F5F5F5F5F5F5F5F5F5F5F5F5F5E2F5F5F5F5F5F5F5F5F5F5F5F5F5F5F5F5E2F5F5F5E2E2EFF5F5F5E2F5F5F5F5F5F5F5F5F5F5F5F5F5F5F5F5E2F5F5F5F5F5F5F5F5F5F5F5F5F5F5F5F5F5F5F5F5F5F5F5F5
310
F5F5F5F5F5F5F5F5F5F5F5F5F5F5F5F5F5F5F5F5F5F5F5F5F5F5F5F5F5F5F5F5F5F5F5F5F5F5F5F5F5F5F5F5F5F5F5F5F5F5F5F5F5F5F5F5F5F5F5F5F5F5F5F5F5F5F5F5F5F5F5F5F5F5F5F5F5F5F5F5F5F5F5F5F5F5F5F5F5F5F5F5F5F5F5F5F5F5F5F5F5F5F5F5F5F5F5F5F5F5F5E2F5F5F5F5F5F5F5F5F5F5F5F5F5F5F5
310
F5E2F5F5F5E2E2EFF5F5F5E2F5F5F5F5F5F5F5F5F5F5F5F5F5F5F5F5E2F5F5F5F5F5F5F5F5F5F5F5F5F5F5F5F5F5F5F5F5F5F5F5F5F5F5F5F5F5F5F5F5F5F5F5F5F5F5F5F5F5F5F5F5F5F5F5F5F5F5F5F5F5F5F5F5F5F5F5F5F5F5F5F5F5F5F5F5F5F5F5F5F5F5F5F5F5F5F5F5F5F5F5F5F5F5F5F5F5F5F5F5F5F5F5F5F5F5
310
F5F5F5F5F5F5F5F5F5F5F5F5F5F5F5F5F5F5F5F5F5F5F5F5F5F5F5F5F5F5F5F5F5F5F5F5F5E2F5F5F5F5F5F5F5F5F5F5F5F5F5F5F5F5E2F5F5F5E2E2EFF5F5F5E2F5F5F5F5F5F5F5F5F5F5F5F5F5F5F5F5E2F5F5F5F5F5F5F5F5F5F5F5F5F5F5F5F5F5F5F5F5F5F5F5F5F5F5F5F5F5F5F5F5F5F5F5F5F5F5F5F5F5F5F5F5F5
310
F5F5F5F5F5F5F5F5F5F5F5F5F5F5F5F5F5F5F5F5F5F5F5F5F5F5F5F5F5F5F5F5F5F5F5F5F5F5F5F5F5F5F5F5F5F5F5F5F5F5F5F5F5F5F5F5F5F5F5F5F5F5F5F5F5F5F5F5F5F5F5F5F5F5F5F5F5F5F5F5F5F5F5F5F5F5F5F5F5F5E2F5F5F5F5F5F5F5F5F5F5F5F5F5F5F5F5E2F5F5F5E2E2EFF5F5F5E2F5F5F5F5F5F5F5F5F5
310
F5F5F5F5F5F5F5E2F5F5F5F5F5F5F5F5F5F5F5F5F5F5F5F5F5F5F5F5F5F5F5F5F5F5F5F5F5F5F5F5F5F5F5F5F5F5F5F5F5F5F5F5F5F5F5F5F5F5F5F5F5F5F5F5F5F5F5F5F5F5F5F5F5F5F5F5F5F5F5F5F5F5F5F5F5F5F5F5F5F5F5F5F5F5F5F5F5F5F5F5F5F5F5F5F5F5F5F5F5F5F5F5F5F5F5F5F5F5F5F5F5F5F5F5F5F5F5
310
F5F5F5F5F5F5F5F5F5F5F5F5F5F5F5F5E2F5F5F5F5F5F5F5F5F5F5F5F5F5F5F5F5E2F5F5F5E2E2EFF5F5F5E2F5F5F5F5F5F5F5F5F5F5F5F5F5F5F5F5E2F5F5F5F5F5F5F5F5F5F5F5F5F5F5F5F5F5F5F5F5F5F5F5F5F5F5F5F5F5F5F5F5F5F5F5F5F5F5F5F5F5F5F5F5F5F5F5F5F5F5F5F5F5F5F5F5F5F5F5F5F5F5F5F5F5F5
310
F5F5F5F5F5F5F5F5F5F5F5F5F5F5F5F5F5F5F5F5F5F5F5F5F5F5F5F5F5F5F5F5F5F5F5F5F5F5F5F5F5F5F5F5F5F5F5F5F5F5F5F5F5F5F5F5F5F5F5F5F5F5F5F5F5F5F5F5F5E2F5F5F5F5F5F5F5F5F5F5F5F5F5F5F5F5E2F5F5F5E2E2EFF5F5F5E2F5F5F5F5F5F5F5F5F5F5F5F5F5F5F5F5E2F5F5F5F5F5F5F5F5F5F5F5F5F5
310
F5F5F5F5F5F5F5F5F5F5F5F5F5F5F5F5F5F5F5F5F5F5F5F5F5F5F5F5F5F5F5F5F5F5F5F5F5F5F5F5F5F5F5F5F5F5F5F5F5F5F5F5F5F5F5F5F5F5F5F5F5F5F5F5F5F5F5F5F5F5F5F5F5F5F5F5F5F5F5F5F5F5F5F5F5F5F5F5F5F5F5F5F5F5F5F5F5F5F5F5F5F5F5F5F5F5F5F5F5F5F5F5F5F5F5F5F5F5F5F5F5F5E2F5F5F5F5
310
F5F5F5F5F5F5F5F5F5F5F5F5E2F5F5F5E2E2EFF5F5F5E2F5F5F5F5F5F5F5F5F5F5F5F5F5F5F5F5E2F5F5F5F5F5F5F5F5F5F5F5F5F5F5F5F5F5F5F5F5F5F5F5F5F5F5F5F5F5F5F5F5F5F5F5F5F5F5F5F5F5F5F5F5F5F5F5F5F5F5F5F5F5F5F5F5F5F5F5F5F5F5F5F5F5F5F5F5F5F5F5F5F5F5F5F5F5F5F5F5F5F5F5F5F5F5F5
310
F5F5F5F5F5F5F5F5F5F5F5F5F5F5F5F5F5F5F5F5F5F5F5F5F5F5F5F5F5F5F5F5F5F5F5F5F5F5F5F5F5F5F5F5F5F5F5F5E2F5F5F5F5F5F5F5F5F5F5F5F5F5F5F5F5E2F5F5F5E2E2EFF5F5F5E2F5F5F5F5F5F5F5F5F5F5F5F5F5F5F5F5E2F5F5F5F5F5F5F5F5F5F5F5F5F5F5F5F5F5F5F5F5F5F5F5F5F5F5F5F5F5F5F5F5F5F5
310
F5F5F5F5F5F5F5F5F5F5F5F5F5F5F5F5F5F5F5F5F5F5F5F5F5F5F5F5F5F5F5F5F5F5F5F5F5F5F5F5F5F5F5F5F5F5F5F5F5F5F5F5F5F5F5F5F5F5F5F5F5F5F5F5F5F5F5F5F5F5F5F5F5F5F5F5F5F5F5F5F5F5F5F5F5F5F5F5F5F5F5F5F5F5F5F5F5F5F5F5F5E2F5F5F5F5F5F5F5F5F5F5F5F5F5F5F5F5E2F5F5F5E2E2EFF5F5
310
F5E2F5F5F5F5F5F5F5F5F5F5F5F5F5F5F5F5E2F5F5F5F5F5F5F5F5F5F5F5F5F5F5F5F5F5F5F5F5F5F5F5F5F5F5F5F5F5F5F5F5F5F5F5F5F5F5F5F5F5F5F5F5F5F5F5F5F5F5F5F5F5F5F5F5F5F5F5F5F5F5F5F5F5F5F5F5F5F5F5F5F5F5F5F5F5F5F5F5F5F5F5F5F5F5F5F5F5F5F5F5F5F5F5F5F5F5F5F5F5F5F5F5F5F5F5F5
310
F5F5F5F5F5F5F5F5F5F5F5F5F5F5F5F5F5F5F5F5F5F5F5F5F5F5F5E2F5F5F5F5F5F5F5F5F5F5F5F5F5F5F5F5E2F5F5F5E2E2EFF5F5F5E2F5F5F5F5F5F5F5F5F5F5F5F5F5F5F5F5E2F5F5F5F5F5F5F5F5F5F5F5F5F5F5F5F5F5F5F5F5F5F5F5F5F5F5F5F5F5F5F5F5F5F5F5F5F5F5F5F5F5F5F5F5F5F5F5F5F5F5F5F5F5F5F5
310
F5F5F5F5F5F5F5F5F5F5F5F5F5F5F5F5F5F5F5F5F5F5F5F5F5F5F5F5F5F5F5F5F5F5F5F5F5F5F5F5F5F5F5F5F5F5F5F5F5F5F5F5F5F5F5F5F5F5F5F5F5F5F5F5F5F5F5F5F5F5F5F5F5F5F5F5F5F5F5F5E2F5F5F5F5F5F5F5F5F5F5F5F5F5F5F5F5E2F5F5F5E2E2EFF5F5F5E2F5F5F5F5F5F5F5F5F5F5F5F5F5F5F5F5E2F5F5
310
F5F5F5F5F5F5F5F5F5F5F5F5F5F5F5F5F5F5F5F5F5F5F5F5F5F5F5F5F5F5F5F5F5F5F5F5F5F5F5F5F5F5F5F5F5F5F5F5F5F5F5F5F5F5F5F5F5F5F5F5F5F5F5F5F5F5F5F5F5F5F5F5F5F5F5F5F5F5F5F5F5F5F5F5F5F5F5F5F5F5F5F5F5F5F5F5F5F5F5F5F5F5F5F5F5F5F5F5F5F5F5F5F5F5F5F5F5F5F5F5F5F5F5F5F5F5F5
310
F5F5F5F5F5F5E2F5F5F5F5F5F5F5F5F5F5F5F5F5F5F5F5E2F5F5F5E2E2EFF5F5F5E2F5F5F5F5F5F5F5F5F5F5F5F5F5F5F5F5E2F5F5F5F5F5F5F5F5F5F5F5F5F5F5F5F5F5F5F5F5F5F5F5F5F5F5F5F5F5F5F5F5F5F5F5F5F5F5F5F5F5F5F5F5F5F5F5F5F5F5F5F5F5F5F5F5F5F5F5F5F5F5F5F5F5F5F5F5F5F5F5F5F5F5F5F5
310
F5F5F5F5F5F5F5F5F5F5F5F5F5F5F5F5F5F5F5F5F5F5F5F5F5F5F5F5F5F5F5F5F5F5F5F5F5F5F5F5F5F5F5F5F5F5F5F5F5F5F5F5F5F5F5F5F5F5F5E2F5F5F5F5F5F5F5F5F5F5F5F5F5F5F5F5E2F5F5F5E2E2EFF5F5F5F5F5F5F5F5F5F5F5F5F5F5F5F5F5F5F5F5E2F5F5F5F5F5F5F5F5F5F5F5F5F5F5F5F5F5F5F5F5F5F5F5
310
F5F5F5F5F5F5F5F5F5F5F5F5F5F5F5F5F5F5F5F5F5F5F5F5F5F5F5F5F5F5F5F5F5F5F5F5F5F5F5F5F5F5F5F5F5F5F5F5F5F5F5F5F5F5F5F5F5F5F5F5F5F5F5F5F5F5F5F5F5F5F5F5F5F5F5F5F5F5F5F5F5F5F5F5F5F5F5F5F5F5F5F5F5F5F5F5F5F5F5F5F5F5F5F5F5F5F5F5F5F5F5F5E2F5F5F5F5F5F5F5F5F5F5F5F5F5F5
310
F5F5F5F5F5F5E2E2EFF5F5F5F5F5F5F5F5F5F5F5F5F5F5F5F5F5F5F5F5E2F5F5F5F5F5F5F5F5F5F5F5F5F5F5F5F5F5F5F5F5F5F5F5F5F5F5F5F5F5F5F5F5F5F5F5F5F5F5F5F5F5F5F5F5F5F5F5F5F5F5F5F5F5F5F5F5F5F5F5F5F5F5F5F5F5F5F5F5F5F5F5F5F5F5F5F5F5F5F5F5F5F5F5F5F5F5F5F5F5F5F5F5F5F5F5F5F5
310
F5F5F5F5F5F5F5F5F5F5F5F5F5F5F5F5F5F5F5F5F5F5F5F5F5F5F5F5F5F5F5F5F5F5F5F5F5F5E2F5F5F5F5F5F5F5F5F5F5F5F5F5F5F5F5F5F5F5F5E2E2EFF5F5F5F5F5F5F5F5F5F5F5F5F5F5F5F5F5F5F5F5E2F5F5F5F5F5F5F5F5F5F5F5F5F5F5F5F5F5F5F5F5F5F5F5F5F5F5F5F5F5F5F5F5F5F5F5F5F5F5F5F5F5F5F5F5
310
F5F5F5F5F5F5F5F5F5F5F5F5F5F5F5F5F5F5F5F5F5F5F5F5F5F5F5F5F5F5F5F5F5F5F5F5F5F5F5F5F5F5F5F5F5F5F5F5F5F5F5F5F5F5F5F5F5F5F5F5F5F5F5F5F5F5F5F5F5F5F5F5F5F5F5F5F5F5F5F5F5F5F5F5F5F5F5F5F5F5F5E2F5F5F5F5F5F5F5F5F5F5F5F5F5F5F5F5F5F5F5F5E2E2EFF5F5F5F5F5F5F5F5F5F5F5F5
310
F5F5F5F5F5F5F5F5E2F5F5F5F5F5F5F5F5F5F5F5F5F5F5F5F5F5F5F5F5F5F5F5F5F5F5F5F5F5F5F5F5F5F5F5F5F5F5F5F5F5F5F5F5F5F5F5F5F5F5F5F5F5F5F5F5F5F5F5F5F5F5F5F5F5F5F5F5F5F5F5F5F5F5F5F5F5F5F5F5F5F5F5F5F5F5F5F5F5F5F5F5F5F5F5F5F5F5F5F5F5F5F5F5F5F5F5F5F5F5F5F5F5F5F5F5F5F5
310
F5F5F5F5F5F5F5F5F5F5F5F5F5F5F5F5F5E2F5F5F5F5F5F5F5F5F5F5F5F5F5F5F5F5F5F5F5F5E2E2EFF5F5F5F5F5F5F5F5F5F5F5F5F5F5F5F5F5F5F5F5E2F5F5F5F5F5F5F5F5F5F5F5F5F5F5F5F5F5F5F5F5F5F5F5F5F5F5F5F5F5F5F5F5F5F5F5F5F5F5F5F5F5F5F5F5F5F5F5F5F5F5F5F5F5F5F5F5F5F5F5F5F5F5F5F5F5
310
F5F5F5F5F5F5F5F5F5F5F5F5F5F5F5F5F5F5F5F5F5F5F5F5F5F5F5F5F5F5F5F5F5F5F5F5F5F5F5F5F5F5F5F5F5F5F5F5F5F5F5F5F5F5F5F5F5F5F5F5F5F5F5F5F5F5F5F5F5F5E2F5F5F5F5F5F5F5F5F5F5F5F5F5F5F5F5F5F5F5F5E2E2EFF5F5F5F5F5F5F5F5F5F5F5F5F5F5F5F5F5F5F5F5E2F5F5F5F5F5F5F5F5F5F5F5F5
310
F5F5F5F5F5F5F5F5F5F5F5F5F5F5F5F5F5F5F5F5F5F5F5F5F5F5F5F5F5F5F5F5F5F5F5F5F5F5F5F5F5F5F5F5F5F5F5F5F5F5F5F5F5F5F5F5F5F5F5F5F5F5F5F5F5F5F5F5F5F5F5F5F5F5F5F5F5F5F5F5F5F5F5F5F5F5F5F5F5F5F5F5F5F5F5F5F5F5F5F5F5F5F5F5F5F5F5F5F5F5F5F5F5F5F5F5F5F5F5F5F5F5F5E2F5F5F5
310
F5F5F5F5F5F5F5F5F5F5F5F5F5F5F5F5F5E2E2EFF5F5F5F5F5F5F5F5F5F5F5F5F5F5F5F5F5F5F5F5E2F5F5F5F5F5F5F5F5F5F5F5F5F5F5F5F5F5F5F5F5F5F5F5F5F5F5F5F5F5F5F5F5F5F5F5F5F5F5F5F5F5F5F5F5F5F5F5F5F5F5F5F5F5F5F5F5F5F5F5F5F5F5F5F5F5F5F5F5F5F5F5F5F5F5F5F5F5F5F5F5F5F5F5F5F5F5
310
F5F5F5F5F5F5F5F5F5F5F5F5F5F5F5F5F5F5F5F5F5F5F5F5F5F5F5F5F5F5F5F5F5F5F5F5F5F5F5F5F5F5F5F5F5F5F5F5F5E2F5F5F5F5F5F5F5F5F5F5F5F5F5F5F5F5F5F5F5F5E2E2EFF5F5F5F5F5F5F5F5F5F5F5F5F5F5F5F5F5F5F5F5E2F5F5F5F5F5F5F5F5F5F5F5F5F5F5F5F5F5F5F5F5F5F5F5F5F5F5F5F5F5F5F5F5F5
310
F5F5F5F5F5F5F5F5F5F5F5F5F5F5F5F5F5F5F5F5F5F5F5F5F5F5F5F5F5F5F5F5F5F5F5F5F5F5F5F5F5F5F5F5F5F5F5F5F5F5F5F5F5F5F5F5F5F5F5F5F5F5F5F5F5F5F5F5F5F5F5F5F5F5F5F5F5F5F5F5F5F5F5F5F5F5F5F5F5F5F5F5F5F5F5F5F5F5F5F5F5F5E2F5F5F5F5F5F5F5F5F5F5F5F5F5F5F5F5F5F5F5F5E2E2EFF5
310
F5F5F5F5F5F5F5F5F5F5F5F5F5F5F5F5F5F5F5E2F5F5F5F5F5F5F5F5F5F5F5F5F5F5F5F5F5F5F5F5F5F5F5F5F5F5F5F5F5F5F5F5F5F5F5F5F5F5F5F5F5F5F5F5F5F5F5F5F5F5F5F5F5F5F5F5F5F5F5F5F5F5F5F5F5F5F5F5F5F5F5F5F5F5F5F5F5F5F5F5F5F5F5F5F5F5F5F5F5F5F5F5F5F5F5F5F5F5F5F5F5F5F5F5F5F5F5
310
F5F5F5F5F5F5F5F5F5F5F5F5F5F5F5F5F5F5F5F5F5F5F5F5F5F5F5F5E2F5F5F5F5F5F5F5F5F5F5F5F5F5F5F5F5F5F5F5F5E2E2EFF5F5F5E2F5F5F5F5F5F5F5F5F5F5F5F5F5F5F5F5E2F5F5F5F5F5F5F5F5F5F5F5F5F5F5F5F5F5F5F5F5F5F5F5F5F5F5F5F5F5F5F5F5F5F5F5F5F5F5F5F5F5F5F5F5F5F5F5F5F5F5F5F5F5F5
310
F5F5F5F5F5F5F5F5F5F5F5F5F5F5F5F5F5F5F5F5F5F5F5F5F5F5F5F5F5F5F5F5F5F5F5F5F5F5F5F5F5F5F5F5F5F5F5F5F5F5F5F5F5F5F5F5F5F5F5F5F5F5F5F5F5F5F5F5F5F5F5F5F5F5F5F5F5F5F5F5F5E2F5F5F5F5F5F5F5F5F5F5F5F5F5F5F5F5E2F5F5F5E2E2EFF5F5F5E2F5F5F5F5F5F5F5F5F5F5F5F5F5F5F5F5E2F5
310
F5F5F5F5F5F5F5F5F5F5F5F5F5F5F5F5F5F5F5F5F5F5F5F5F5F5F5F5F5F5F5F5F5F5F5F5F5F5F5F5F5F5F5F5F5F5F5F5F5F5F5F5F5F5F5F5F5F5F5F5F5F5F5F5F5F5F5F5F5F5F5F5F5F5F5F5F5F5F5F5F5F5F5F5F5F5F5F5F5F5F5F5F5F5F5F5F5F5F5F5F5F5F5F5F5F5F5F5F5F5F5F5F5F5F5F5F5F5F5F5F5F5F5F5F5F5F5
310
F5F5F5F5F5F5F5E2F5F5F5F5F5F5F5F5F5F5F5F5F5F5F5F5E2F5F5F5E2E2EFF5F5F5E2F5F5F5F5F5F5F5F5F5F5F5F5F5F5F5F5E2F5F5F5F5F5F5F5F5F5F5F5F5F5F5F5F5F5F5F5F5F5F5F5F5F5F5F5F5F5F5F5F5F5F5F5F5F5F5F5F5F5F5F5F5F5F5F5F5F5F5F5F5F5F5F5F5F5F5F5F5F5F5F5F5F5F5F5F5F5F5F5F5F5F5F5
310
F5F5F5F5F5F5F5F5F5F5F5F5F5F5F5F5F5F5F5F5F5F5F5F5F5F5F5F5F5F5F5F5F5F5F5F5F5F5F5F5F5F5F5F5F5F5F5F5F5F5F5F5F5F5F5F5F5F5F5F5E2F5F5F5F5F5F5F5F5F5F5F5F5F5F5F5F5E2F5F5F5E2E2EFF5F5F5E2F5F5F5F5F5F5F5F5F5F5F5F5F5F5F5F5E2F5F5F5F5F5F5F5F5F5F5F5F5F5F5F5F5F5F5F5F5F5F5
310
F5F5F5F5F5F5F5F5F5F5F5F5F5F5F5F5F5F5F5F5F5F5F5F5F5F5F5F5F5F5F5F5F5F5F5F5F5F5F5F5F5F5F5F5F5F5F5F5F5F5F5F5F5F5F5F5F5F5F5F5F5F5F5F5F5F5F5F5F5F5F5F5F5F5F5F5F5F5F5F5F5F5F5F5F5F5F5F5F5F5F5F5F5F5F5F5F5F5F5F5F5F5F5F5F5F5F5F5F5F5F5F5F5E2F5F5F5F5F5F5F5F5F5F5F5F5F5
310
F5F5F5E2F5F5F5E2E2EFF5F5F5E2F5F5F5F5F5F5F5F5F5F5F5F5F5F5F5F5E2F5F5F5F5F5F5F5F5F5F5F5F5F5F5F5F5F5F5F5F5F5F5F5F5F5F5F5F5F5F5F5F5F5F5F5F5F5F5F5F5F5F5F5F5F5F5F5F5F5F5F5F5F5F5F5F5F5F5F5F5F5F5F5F5F5F5F5F5F5F5F5F5F5F5F5F5F5F5F5F5F5F5F5F5F5F5F5F5F5F5F5F5F5F5F5F5
310
F5F5F5F5F5F5F5F5F5F5F5F5F5F5F5F5F5F5F5F5F5F5F5F5F5F5F5F5F5F5F5F5F5F5F5F5F5F5F5E2F5F5F5F5F5F5F5F5F5F5F5F5F5F5F5F5E2F5F5F5E2E2EFF5F5F5E2F5F5F5F5F5F5F5F5F5F5F5F5F5F5F5F5E2F5F5F5F5F5F5F5F5F5F5F5F5F5F5F5F5F5F5F5F5F5F5F5F5F5F5F5F5F5F5F5F5F5F5F5F5F5F5F5F5F5F5F5
310
F5F5F5F5F5F5F5F5F5F5F5F5F5F5F5F5F5F5F5F5F5F5F5F5F5F5F5F5F5F5F5F5F5F5F5F5F5F5F5F5F5F5F5F5F5F5F5F5F5F5F5F5F5F5F5F5F5F5F5F5F5F5F5F5F5F5F5F5F5F5F5F5F5F5F5F5F5F5F5F5F5F5F5F5F5F5F5F5F5F5F5F5E2F5F5F5F5F5F5F5F5F5F5F5F5F5F5F5F5E2F5F5F5E2E2EFF5F5F5E2F5F5F5F5F5F5F5
310
F5F5F5F5F5F5F5F5F5E2F5F5F5F5F5F5F5F5F5F5F5F5F5F5F5F5F5F5F5F5F5F5F5F5F5F5F5F5F5F5F5F5F5F5F5F5F5F5F5F5F5F5F5F5F5F5F5F5F5F5F5F5F5F5F5F5F5F5F5F5F5F5F5F5F5F5F5F5F5F5F5F5F5F5F5F5F5F5F5F5F5F5F5F5F5F5F5F5F5F5F5F5F5F5F5F5F5F5F5F5F5F5F5F5F5F5F5F5F5F5F5F5F5F5F5F5F5
310
F5F5F5F5F5F5F5F5F5F5F5F5F5F5F5F5F5F5E2F5F5F5F5F5F5F5F5F5F5F5F5F5F5F5F5E2F5F5F5E2E2EFF5F5F5E2F5F5F5F5F5F5F5F5F5F5F5F5F5F5F5F5E2F5F5F5F5F5F5F5F5F5F5F5F5F5F5F5F5F5F5F5F5F5F5F5F5F5F5F5F5F5F5F5F5F5F5F5F5F5F5F5F5F5F5F5F5F5F5F5F5F5F5F5F5F5F5F5F5F5F5F5F5F5F5F5F5
310
F5F5F5F5F5F5F5F5F5F5F5F5F5F5F5F5F5F5F5F5F5F5F5F5F5F5F5F5F5F5F5F5F5F5F5F5F5F5F5F5F5F5F5F5F5F5F5F5F5F5F5F5F5F5F5F5F5F5F5F5F5F5F5F5F5F5F5F5F5F5F5E2F5F5F5F5F5F5F5F5F5F5F5F5F5F5F5F5E2F5F5F5E2E2EFF5F5F5E2F5F5F5F5F5F5F5F5F5F5F5F5F5F5F5F5E2F5F5F5F5F5F5F5F5F5F5F5
310
F5F5F5F5F5F5F5F5F5F5F5F5F5F5F5F5F5F5F5F5F5F5F5F5F5F5F5F5F5F5F5F5F5F5F5F5F5F5F5F5F5F5F5F5F5F5F5F5F5F5F5F5F5F5F5F5F5F5F5F5F5F5F5F5F5F5F5F5F5F5F5F5F5F5F5F5F5F5F5F5F5F5F5F5F5F5F5F5F5F5F5F5F5F5F5F5F5F5F5F5F5F5F5F5F5F5F5F5F5F5F5F5F5F5F5F5F5F5F5F5F5F5F5F5E2F5F5
310
F5F5F5F5F5F5F5F5F5F5F5F5F5F5E2F5F5F5E2E2EFF5F5F5E2F5F5F5F5F5F5F5F5F5F5F5F5F5F5F5F5E2F5F5F5F5F5F5F5F5F5F5F5F5F5F5F5F5F5F5F5F5F5F5F5F5F5F5F5F5F5F5F5F5F5F5F5F5F5F5F5F5F5F5F5F5F5F5F5F5F5F5F5F5F5F5F5F5F5F5F5F5F5F5F5F5F5F5F5F5F5F5F5F5F5F5F5F5F5F5F5F5F5F5F5F5F5
310
F5F5F5F5F5F5F5F5F5F5F5F5F5F5F5F5F5F5F5F5F5F5F5F5F5F5F5F5F5F5F5F5F5F5F5F5F5F5F5F5F5F5F5F5F5F5F5F5F5F5E2F5F5F5F5F5F5F5F5F5F5F5F5F5F5F5F5E2F5F5F5E2E2EFF5F5F5E2F5F5F5F5F5F5F5F5F5F5F5F5F5F5F5F5E2F5F5F5F5F5F5F5F5F5F5F5F5F5F5F5F5F5F5F5F5F5F5F5F5F5F5F5F5F5F5F5F5
310
F5F5F5F5F5F5F5F5F5F5F5F5F5F5F5F5F5F5F5F5F5F5F5F5F5F5F5F5F5F5F5F5F5F5F5F5F5F5F5F5F5F5F5F5F5F5F5F5F5F5F5F5F5F5F5F5F5F5F5F5F5F5F5F5F5F5F5F5F5F5F5F5F5F5F5F5F5F5F5F5F5F5F5F5F5F5F5F5F5F5F5F5F5F5F5F5F5F5F5F5F5F5F5E2F5F5F5F5F5F5F5F5F5F5F5F5F5F5F5F5E2F5F5F5E2E2EF
310
F5F5F5E2F5F5F5F5F5F5F5F5F5F5F5F5F5F5F5F5E2F5F5F5F5F5F5F5F5F5F5F5F5F5F5F5F5F5F5F5F5F5F5F5F5F5F5F5F5F5F5F5F5F5F5F5F5F5F5F5F5F5F5F5F5F5F5F5F5F5F5F5F5F5F5F5F5F5F5F5F5F5F5F5F5F5F5F5F5F5F5F5F5F5F5F5F5F5F5F5F5F5F5F5F5F5F5F5F5F5F5F5F5F5F5F5F5F5F5F5F5F5F5F5F5F5F5
310
F5F5F5F5F5F5F5F5F5F5F5F5F5F5F5F5F5F5F5F5F5F5F5F5F5F5F5F5F5E2F5F5F5F5F5F5F5F5F5F5F5F5F5F5F5F5E2F5F5F5E2E2EFF5F5F5E2F5F5F5F5F5F5F5F5F5F5F5F5F5F5F5F5E2F5F5F5F5F5F5F5F5F5F5F5F5F5F5F5F5F5F5F5F5F5F5F5F5F5F5F5F5F5F5F5F5F5F5F5F5F5F5F5F5F5F5F5F5F5F5F5F5F5F5F5F5F5
310
F5F5F5F5F5F5F5F5F5F5F5F5F5F5F5F5F5F5F5F5F5F5F5F5F5F5F5F5F5F5F5F5F5F5F5F5F5F5F5F5F5F5F5F5F5F5F5F5F5F5F5F5F5F5F5F5F5F5F5F5F5F5F5F5F5F5F5F5F5F5F5F5F5F5F5F5F5F5F5F5F5F5E2F5F5F5F5F5F5F5F5F5F5F5F5F5F5F5F5E2F5F5F5E2E2EFF5F5F5E2F5F5F5F5F5F5F5F5F5F5F5F5F5F5F5F5E2
310
F5F5F5F5F5F5F5F5F5F5F5F5F5F5F5F5F5F5F5F5F5F5F5F5F5F5F5F5F5F5F5F5F5F5F5F5F5F5F5F5F5F5F5F5F5F5F5F5F5F5F5F5F5F5F5F5F5F5F5F5F5F5F5F5F5F5F5F5F5F5F5F5F5F5F5F5F5F5F5F5F5F5F5F5F5F5F5F5F5F5F5F5F5F5F5F5F5F5F5F5F5F5F5F5F5F5F5F5F5F5F5F5F5F5F5F5F5F5F5F5F5F5F5F5F5F5F5
310
F5F5F5F5F5F5F5F5E2F5F5F5F5F5F5F5F5F5F5F5F5F5F5F5F5E2F5F5F5E2E2EFF5F5F5E2F5F5F5F5F5F5F5F5F5F5F5F5F5F5F5F5E2F5F5F5F5F5F5F5F5F5F5F5F5F5F5F5F5F5F5F5F5F5F5F5F5F5F5F5F5F5F5F5F5F5F5F5F5F5F5F5F5F5F5F5F5F5F5F5F5F5F5F5F5F5F5F5F5F5F5F5F5F5F5F5F5F5F5F5F5F5F5F5F5F5F5
310
F5F5F5F5F5F5F5F5F5F5F5F5F5F5F5F5F5F5F5F5F5F5F5F5F5F5F5F5F5F5F5F5F5F5F5F5F5F5F5F5F5F5F5F5F5F5F5F5F5F5F5F5F5F5F5F5F5F5F5F5F5E2F5F5F5F5F5F5F5F5F5F5F5F5F5F5F5F5E2F5F5F5E2E2EFF5F5F5E2F5F5F5F5F5F5F5F5F5F5F5F5F5F5F5F5E2F5F5F5F5F5F5F5F5F5F5F5F5F5F5F5F5F5F5F5F5F5
310
F5F5F5F5F5F5F5F5F5F5F5F5F5F5F5F5F5F5F5F5F5F5F5F5F5F5F5F5F5F5F5F5F5F5F5F5F5F5F5F5F5F5F5F5F5F5F5F5F5F5F5F5F5F5F5F5F5F5F5F5F5F5F5F5F5F5F5F5F5F5F5F5F5F5F5F5F5F5F5F5F5F5F5F5F5F5F5F5F5F5F5F5F5F5F5F5F5F5F5F5F5F5F5F5F5F5F5F5F5F5F5F5F5F5E2F5F5F5F5F5F5F5F5F5F5F5F5
310
F5F5F5F5E2F5F5F5E2E2EFF5F5F5E2F5F5F5F5F5F5F5F5F5F5F5F5F5F5F5F5E2F5F5F5F5F5F5F5F5F5F5F5F5F5F5F5F5F5F5F5F5F5F5F5F5F5F5F5F5F5F5F5F5F5F5F5F5F5F5F5F5F5F5F5F5F5F5F5F5F5F5F5F5F5F5F5F5F5F5F5F5F5F5F5F5F5F5F5F5F5F5F5F5F5F5F5F5F5F5F5F5F5F5F5F5F5F5F5F5F5F5F5F5F5F5F5
310
F5F5F5F5F5F5F5F5F5F5F5F5F5F5F5F5F5F5F5F5F5F5F5F5F5F5F5F5F5F5F5F5F5F5F5F5F5F5F5F5E2F5F5F5F5F5F5F5F5F5F5F5F5F5F5F5F5E2F5F5F5E2E2EFF5F5F5F5F5F5F5F5F5F5F5F5F5F5F5F5F5F5F5F5E2F5F5F5F5F5F5F5F5F5F5F5F5F5F5F5F5F5F5F5F5F5F5F5F5F5F5F5F5F5F5F5F5F5F5F5F5F5F5F5F5F5F5
310
F5F5F5F5F5F5F5F5F5F5F5F5F5F5F5F5F5F5F5F5F5F5F5F5F5F5F5F5F5F5F5F5F5F5F5F5F5F5F5F5F5F5F5F5F5F5F5F5F5F5F5F5F5F5F5F5F5F5F5F5F5F5F5F5F5F5F5F5F5F5F5F5F5F5F5F5F5F5F5F5F5F5F5F5F5F5F5F5F5F5F5F5F5E2F5F5F5F5F5F5F5F5F5F5F5F5F5F5F5F5F5F5F5F5E2E2EFF5F5F5F5F5F5F5F5F5F5
310
F5F5F5F5F5F5F5F5F5F5E2F5F5F5F5F5F5F5F5F5F5F5F5F5F5F5F5F5F5F5F5F5F5F5F5F5F5F5F5F5F5F5F5F5F5F5F5F5F5F5F5F5F5F5F5F5F5F5F5F5F5F5F5F5F5F5F5F5F5F5F5F5F5F5F5F5F5F5F5F5F5F5F5F5F5F5F5F5F5F5F5F5F5F5F5F5F5F5F5F5F5F5F5F5F5F5F5F5F5F5F5F5F5F5F5F5F5F5F5F5F5F5F5F5F5F5F5
310
F5F5F5F5F5F5F5F5F5F5F5F5F5F5F5F5F5F5F5E2F5F5F5F5F5F5F5F5F5F5F5F5F5F5F5F5F5F5F5F5E2E2EFF5F5F5F5F5F5F5F5F5F5F5F5F5F5F5F5F5F5F5F5E2F5F5F5F5F5F5F5F5F5F5F5F5F5F5F5F5F5F5F5F5F5F5F5F5F5F5F5F5F5F5F5F5F5F5F5F5F5F5F5F5F5F5F5F5F5F5F5F5F5F5F5F5F5F5F5F5F5F5F5F5F5F5F5
310
F5F5F5F5F5F5F5F5F5F5F5F5F5F5F5F5F5F5F5F5F5F5F5F5F5F5F5F5F5F5F5F5F5F5F5F5F5F5F5F5F5F5F5F5F5F5F5F5F5F5F5F5F5F5F5F5F5F5F5F5F5F5F5F5F5F5F5F5F5F5F5F5E2F5F5F5F5F5F5F5F5F5F5F5F5F5F5F5F5F5F5F5F5E2E2EFF5F5F5F5F5F5F5F5F5F5F5F5F5F5F5F5F5F5F5F5E2F5F5F5F5F5F5F5F5F5F5
310
F5F5F5F5F5F5F5F5F5F5F5F5F5F5F5F5F5F5F5F5F5F5F5F5F5F5F5F5F5F5F5F5F5F5F5F5F5F5F5F5F5F5F5F5F5F5F5F5F5F5F5F5F5F5F5F5F5F5F5F5F5F5F5F5F5F5F5F5F5F5F5F5F5F5F5F5F5F5F5F5F5F5F5F5F5F5F5F5F5F5F5F5F5F5F5F5F5F5F5F5F5F5F5F5F5F5F5F5F5F5F5F5F5F5F5F5F5F5F5F5F5F5F5F5F5E2F5
310
F5F5F5F5F5F5F5F5F5F5F5F5F5F5F5F5F5F5F5E2E2EFF5F5F5F5F5F5F5F5F5F5F5F5F5F5F5F5F5F5F5F5E2F5F5F5F5F5F5F5F5F5F5F5F5F5F5F5F5F5F5F5F5F5F5F5F5F5F5F5F5F5F5F5F5F5F5F5F5F5F5F5F5F5F5F5F5F5F5F5F5F5F5F5F5F5F5F5F5F5F5F5F5F5F5F5F5F5F5F5F5F5F5F5F5F5F5F5F5F5F5F5F5F5F5F5F5
310
F5F5F5F5F5F5F5F5F5F5F5F5F5F5F5F5F5F5F5F5F5F5F5F5F5F5F5F5F5F5F5F5F5F5F5F5F5F5F5F5F5F5F5F5F5F5F5F5F5F5F5E2F5F5F5F5F5F5F5F5F5F5F5F5F5F5F5F5F5F5F5F5E2E2EFF5F5F5F5F5F5F5F5F5F5F5F5F5F5F5F5F5F5F5F5E2F5F5F5F5F5F5F5F5F5F5F5F5F5F5F5F5F5F5F5F5F5F5F5F5F5F5F5F5F5F5F5
310
F5F5F5F5F5F5F5F5F5F5F5F5F5F5F5F5F5F5F5F5F5F5F5F5F5F5F5F5F5F5F5F5F5F5F5F5F5F5F5F5F5F5F5F5F5F5F5F5F5F5F5F5F5F5F5F5F5F5F5F5F5F5F5F5F5F5F5F5F5F5F5F5F5F5F5F5F5F5F5F5F5F5F5F5F5F5F5F5F5F5F5F5F5F5F5F5F5F5F5F5F5F5F5F5E2F5F5F5F5F5F5F5F5F5F5F5F5F5F5F5F5F5F5F5F5E2E2
310
EFF5F5F5F5F5F5F5F5F5F5F5F5F5F5F5F5F5F5F5F5E2F5F5F5F5F5F5F5F5F5F5F5F5F5F5F5F5F5F5F5F5F5F5F5F5F5F5F5F5F5F5F5F5F5F5F5F5F5F5F5F5F5F5F5F5F5F5F5F5F5F5F5F5F5F5F5F5F5F5F5F5F5F5F5F5F5F5F5F5F5F5F5F5F5F5F5F5F5F5F5F5F5F5F5F5F5F5F5F5F5F5F5F5F5F5F5F5F5F5F5F5F5F5F5F5F5
310
F5F5F5F5F5F5F5F5F5F5F5F5F5F5F5F5F5F5F5F5F5F5F5F5F5F5F5F5F5F5E2F5F5F5F5F5F5F5F5F5F5F5F5F5F5F5F5F5F5F5F5E2E2EFF5F5F5F5F5F5F5F5F5F5F5F5F5F5F5F5F5F5F5F5E2F5F5F5F5F5F5F5F5F5F5F5F5F5F5F5F5F5F5F5F5F5F5F5F5F5F5F5F5F5F5F5F5F5F5F5F5F5F5F5F5F5F5F5F5F5F5F5F5F5F5F5F5
310
F5F5F5F5F5F5F5F5F5F5F5F5F5F5F5F5F5F5F5F5F5F5F5F5F5F5F5F5F5F5F5F5F5F5F5F5F5F5F5F5F5F5F5F5F5F5F5F5F5F5F5F5F5F5F5F5F5F5F5F5F5F5F5F5F5F5F5F5F5F5F5F5F5F5F5F5F5F5F5F5F5F5F5E2F5F5F5F5F5F5F5F5F5F5F5F5F5F5F5F5F5F5F5F5E2E2EFF5F5F5F5F5F5F5F5F5F5F5F5F5F5F5F5F5F5F5F5
310
E2F5F5F5F5F5F5F5F5F5F5F5F5F5F5F5F5F5F5F5F5F5F5F5F5F5F5F5F5F5F5F5F5F5F5F5F5F5F5F5F5F5F5F5F5F5F5F5F5F5F5F5F5F5F5F5F5F5F5F5F5F5F5F5F5F5F5F5F5F5F5F5F5F5F5F5F5F5F5F5F5F5F5F5F5F5F5F5F5F5F5F5F5F5F5F5F5F5F5F5F5F5F5F5F5F5F5F5F5F5F5F5F5F5F5F5F5F5F5F5F5F5F5F5F5F5F5
310
F5F5F5F5F5F5F5F5F5E2F5F5F5F5F5F5F5F5F5F5F5F5F5F5F5F5F5F5F5F5E2E2EFF5F5F5E2F5F5F5F5F5F5F5F5F5F5F5F5F5F5F5F5E2F5F5F5F5F5F5F5F5F5F5F5F5F5F5F5F5F5F5F5F5F5F5F5F5F5F5F5F5F5F5F5F5F5F5F5F5F5F5F5F5F5F5F5F5F5F5F5F5F5F5F5F5F5F5F5F5F5F5F5F5F5F5F5F5F5F5F5F5F5F5F5F5F5
310
F5F5F5F5F5F5F5F5F5F5F5F5F5F5F5F5F5F5F5F5F5F5F5F5F5F5F5F5F5F5F5F5F5F5F5F5F5F5F5F5F5F5F5F5F5F5F5F5F5F5F5F5F5F5F5F5F5F5F5F5F5F5E2F5F5F5F5F5F5F5F5F5F5F5F5F5F5F5F5E2F5F5F5E2E2EFF5F5F5E2F5F5F5F5F5F5F5F5F5F5F5F5F5F5F5F5E2F5F5F5F5F5F5F5F5F5F5F5F5F5F5F5F5F5F5F5F5
310
F5F5F5F5F5F5F5F5F5F5F5F5F5F5F5F5F5F5F5F5F5F5F5F5F5F5F5F5F5F5F5F5F5F5F5F5F5F5F5F5F5F5F5F5F5F5F5F5F5F5F5F5F5F5F5F5F5F5F5F5F5F5F5F5F5F5F5F5F5F5F5F5F5F5F5F5F5F5F5F5F5F5F5F5F5F5F5F5F5F5F5F5F5F5F5F5F5F5F5F5F5F5F5F5F5F5F5F5F5F5F5F5F5F5F5E2F5F5F5F5F5F5F5F5F5F5F5
310
F5F5F5F5F5E2F5F5F5E2E2EFF5F5F5E2F5F5F5F5F5F5F5F5F5F5F5F5F5F5F5F5E2F5F5F5F5F5F5F5F5F5F5F5F5F5F5F5F5F5F5F5F5F5F5F5F5F5F5F5F5F5F5F5F5F5F5F5F5F5F5F5F5F5F5F5F5F5F5F5F5F5F5F5F5F5F5F5F5F5F5F5F5F5F5F5F5F5F5F5F5F5F5F5F5F5F5F5F5F5F5F5F5F5F5F5F5F5F5F5F5F5F5F5F5F5F5
310
F5F5F5F5F5F5F5F5F5F5F5F5F5F5F5F5F5F5F5F5F5F5F5F5F5F5F5F5F5F5F5F5F5F5F5F5F5F5F5F5F5E2F5F5F5F5F5F5F5F5F5F5F5F5F5F5F5F5E2F5F5F5E2E2EFF5F5F5E2F5F5F5F5F5F5F5F5F5F5F5F5F5F5F5F5E2F5F5F5F5F5F5F5F5F5F5F5F5F5F5F5F5F5F5F5F5F5F5F5F5F5F5F5F5F5F5F5F5F5F5F5F5F5F5F5F5F5
310
F5F5F5F5F5F5F5F5F5F5F5F5F5F5F5F5F5F5F5F5F5F5F5F5F5F5F5F5F5F5F5F5F5F5F5F5F5F5F5F5F5F5F5F5F5F5F5F5F5F5F5F5F5F5F5F5F5F5F5F5F5F5F5F5F5F5F5F5F5F5F5F5F5F5F5F5F5F5F5F5F5F5F5F5F5F5F5F5F5F5F5F5F5F5E2F5F5F5F5F5F5F5F5F5F5F5F5F5F5F5F5E2F5F5F5E2E2EFF5F5F5E2F5F5F5F5F5
310
F5F5F5F5F5F5F5F5F5F5F5E2F5F5F5F5F5F5F5F5F5F5F5F5F5F5F5F5F5F5F5F5F5F5F5F5F5F5F5F5F5F5F5F5F5F5F5F5F5F5F5F5F5F5F5F5F5F5F5F5F5F5F5F5F5F5F5F5F5F5F5F5F5F5F5F5F5F5F5F5F5F5F5F5F5F5F5F5F5F5F5F5F5F5F5F5F5F5F5F5F5F5F5F5F5F5F5F5F5F5F5F5F5F5F5F5F5F5F5F5F5F5F5F5F5F5F5
310
F5F5F5F5F5F5F5F5F5F5F5F5F5F5F5F5F5F5F5F5E2F5F5F5F5F5F5F5F5F5F5F5F5F5F5F5F5E2F5F5F5E2E2EFF5F5F5E2F5F5F5F5F5F5F5F5F5F5F5F5F5F5F5F5E2F5F5F5F5F5F5F5F5F5F5F5F5F5F5F5F5F5F5F5F5F5F5F5F5F5F5F5F5F5F5F5F5F5F5F5F5F5F5F5F5F5F5F5F5F5F5F5F5F5F5F5F5F5F5F5F5F5F5F5F5F5F5
310
F5F5F5F5F5F5F5F5F5F5F5F5F5F5F5F5F5F5F5F5F5F5F5F5F5F5F5F5F5F5F5F5F5F5F5F5F5F5F5F5F5F5F5F5F5F5F5F5F5F5F5F5F5F5F5F5F5F5F5F5F5F5F5F5F5F5F5F5F5F5F5F5F5E2F5F5F5F5F5F5F5F5F5F5F5F5F5F5F5F5E2F5F5F5E2E2EFF5F5F5E2F5F5F5F5F5F5F5F5F5F5F5F5F5F5F5F5E2F5F5F5F5F5F5F5F5F5
310
F5F5F5F5F5F5F5F5F5F5F5F5F5F5F5F5F5F5F5F5F5F5F5F5F5F5F5F5F5F5F5F5F5F5F5F5F5F5F5F5F5F5F5F5F5F5F5F5F5F5F5F5F5F5F5F5F5F5F5F5F5F5F5F5F5F5F5F5F5F5F5F5F5F5F5F5F5F5F5F5F5F5F5F5F5F5F5F5F5F5F5F5F5F5F5F5F5F5F5F5F5F5F5F5F5F5F5F5F5F5F5F5F5F5F5F5F5F5F5F5F5F5F5F5F5F5E2
310
F5F5F5F5F5F5F5F5F5F5F5F5F5F5F5F5E2F5F5F5E2E2EFF5F5F5E2F5F5F5F5F5F5F5F5F5F5F5F5F5F5F5F5E2F5F5F5F5F5F5F5F5F5F5F5F5F5F5F5F5F5F5F5F5F5F5F5F5F5F5F5F5F5F5F5F5F5F5F5F5F5F5F5F5F5F5F5F5F5F5F5F5F5F5F5F5F5F5F5F5F5F5F5F5F5F5F5F5F5F5F5F5F5F5F5F5F5F5F5F5F5F5F5F5F5F5F5
310
F5F5F5F5F5F5F5F5F5F5F5F5F5F5F5F5F5F5F5F5F5F5F5F5F5F5F5F5F5F5F5F5F5F5F5F5F5F5F5F5F5F5F5F5F5F5F5F5F5F5F5F5E2F5F5F5F5F5F5F5F5F5F5F5F5F5F5F5F5E2F5F5F5E2E2EFF5F5F5E2F5F5F5F5F5F5F5F5F5F5F5F5F5F5F5F5E2F5F5F5F5F5F5F5F5F5F5F5F5F5F5F5F5F5F5F5F5F5F5F5F5F5F5F5F5F5F5
310
F5F5F5F5F5F5F5F5F5F5F5F5F5F5F5F5F5F5F5F5F5F5F5F5F5F5F5F5F5F5F5F5F5F5F5F5F5F5F5F5F5F5F5F5F5F5F5F5F5F5F5F5F5F5F5F5F5F5F5F5F5F5F5F5F5F5F5F5F5F5F5F5F5F5F5F5F5F5F5F5F5F5F5F5F5F5F5F5F5F5F5F5F5F5F5F5F5F5F5F5F5F5F5F5F5E2F5F5F5F5F5F5F5F5F5F5F5F5F5F5F5F5E2F5F5F5E2
310
E2EFF5F5F5E2F5F5F5F5F5F5F5F5F5F5F5F5F5F5F5F5E2F5F5F5F5F5F5F5F5F5F5F5F5F5F5F5F5F5F5F5F5F5F5F5F5F5F5F5F5F5F5F5F5F5F5F5F5F5F5F5F5F5F5F5F5F5F5F5F5F5F5F5F5F5F5F5F5F5F5F5F5F5F5F5F5F5F5F5F5F5F5F5F5F5F5F5F5F5F5F5F5F5F5F5F5F5F5F5F5F5F5F5F5F5F5F5F5F5F5F5F5F5F5F5F5
310
F5F5F5F5F5F5F5F5F5F5F5F5F5F5F5F5F5F5F5F5F5F5F5F5F5F5F5F5F5F5F5E2F5F5F5F5F5F5F5F5F5F5F5F5F5F5F5F5E2F5F5F5E2E2EFF5F5F5E2F5F5F5F5F5F5F5F5F5F5F5F5F5F5F5F5E2F5F5F5F5F5F5F5F5F5F5F5F5F5F5F5F5F5F5F5F5F5F5F5F5F5F5F5F5F5F5F5F5F5F5F5F5F5F5F5F5F5F5F5F5F5F5F5F5F5F5F5
310
F5F5F5F5F5F5F5F5F5F5F5F5F5F5F5F5F5F5F5F5F5F5F5F5F5F5F5F5F5F5F5F5F5F5F5F5F5F5F5F5F5F5F5F5F5F5F5F5F5F5F5F5F5F5F5F5F5F5F5F5F5F5F5F5F5F5F5F5F5F5F5F5F5F5F5F5F5F5F5F5F5F5F5F5E2F5F5F5F5F5F5F5F5F5F5F5F5F5F5F5F5E2F5F5F5E2E2EFF5F5F5E2F5F5F5F5F5F5F5F5F5F5F5F5F5F5F5
310
F5E2F5F5F5F5F5F5F5F5F5F5F5F5F5F5F5F5F5F5F5F5F5F5F5F5F5F5F5F5F5F5F5F5F5F5F5F5F5F5F5F5F5F5F5F5F5F5F5F5F5F5F5F5F5F5F5F5F5F5F5F5F5F5F5F5F5F5F5F5F5F5F5F5F5F5F5F5F5F5F5F5F5F5F5F5F5F5F5F5F5F5F5F5F5F5F5F5F5F5F5F5F5F5F5F5F5F5F5F5F5F5F5F5F5F5F5F5F5F5F5F5F5F5F5F5F5
310
F5F5F5F5F5F5F5F5F5F5E2F5F5F5F5F5F5F5F5F5F5F5F5F5F5F5F5E2F5F5F5E2E2EFF5F5F5E2F5F5F5F5F5F5F5F5F5F5F5F5F5F5F5F5E2F5F5F5F5F5F5F5F5F5F5F5F5F5F5F5F5F5F5F5F5F5F5F5F5F5F5F5F5F5F5F5F5F5F5F5F5F5F5F5F5F5F5F5F5F5F5F5F5F5F5F5F5F5F5F5F5F5F5F5F5F5F5F5F5F5F5F5F5F5F5F5F5
310
F5F5F5F5F5F5F5F5F5F5F5F5F5F5F5F5F5F5F5F5F5F5F5F5F5F5F5F5F5F5F5F5F5F5F5F5F5F5F5F5F5F5F5F5F5F5F5F5F5F5F5F5F5F5F5F5F5F5F5F5F5F5F5E2F5F5F5F5F5F5F5F5F5F5F5F5F5F5F5F5E2F5F5F5E2E2EFF5F5F5E2F5F5F5F5F5F5F5F5F5F5F5F5F5F5F5F5E2F5F5F5F5F5F5F5F5F5F5F5F5F5F5F5F5F5F5F5
310
F5F5F5F5F5F5F5F5F5F5F5F5F5F5F5F5F5F5F5F5F5F5F5F5F5F5F5F5F5F5F5F5F5F5F5F5F5F5F5F5F5F5F5F5F5F5F5F5F5F5F5F5F5F5F5F5F5F5F5F5F5F5F5F5F5F5F5F5F5F5F5F5F5F5F5F5F5F5F5F5F5F5F5F5F5F5F5F5F5F5F5F5F5F5F5F5F5F5F5F5F5F5F5F5F5F5F5F5F5F5F5F5F5F5F5F5E2F5F5F5F5F5F5F5F5F5F5
310
F5F5F5F5F5F5E2F5F5F5E2E2EFF5F5F5E2F5F5F5F5F5F5F5F5F5F5F5F5F5F5F5F5E2F5F5F5F5F5F5F5F5F5F5F5F5F5F5F5F5F5F5F5F5F5F5F5F5F5F5F5F5F5F5F5F5F5F5F5F5F5F5F5F5F5F5F5F5F5F5F5F5F5F5F5F5F5F5F5F5F5F5F5F5F5F5F5F5F5F5F5F5F5F5F5F5F5F5F5F5F5F5F5F5F5F5F5F5F5F5F5F5F5F5F5F5F5
310
F5F5F5F5F5F5F5F5F5F5F5F5F5F5F5F5F5F5F5F5F5F5F5F5F5F5F5F5F5F5F5F5F5F5F5F5F5F5F5F5F5F5E2F5F5F5F5F5F5F5F5F5F5F5F5F5F5F5F5E2F5F5F5E2E2EFF5F5F5E2F5F5F5F5F5F5F5F5F5F5F5F5F5F5F5F5E2F5F5F5F5F5F5F5F5F5F5F5F5F5F5F5F5F5F5F5F5F5F5F5F5F5F5F5F5F5F5F5F5F5F5F5F5F5F5F5F5
310
F5F5F5F5F5F5F5F5F5F5F5F5F5F5F5F5F5F5F5F5F5F5F5F5F5F5F5F5F5F5F5F5F5F5F5F5F5F5F5F5F5F5F5F5F5F5F5F5F5F5F5F5F5F5F5F5F5F5F5F5F5F5F5F5F5F5F5F5F5F5F5F5F5F5F5F5F5F5F5F5F5F5F5F5F5F5F5F5F5F5F5F5F5F5F5E2F5F5F5F5F5F5F5F5F5F5F5F5F5F5F5F5E2F5F5F5E2E2EFF5F5F5E2F5F5F5F5
310
F5F5F5F5F5F5F5F5F5F5F5F5E2F5F5F5F5F5F5F5F5F5F5F5F5F5F5F5F5F5F5F5F5F5F5F5F5F5F5F5F5F5F5F5F5F5F5F5F5F5F5F5F5F5F5F5F5F5F5F5F5F5F5F5F5F5F5F5F5F5F5F5F5F5F5F5F5F5F5F5F5F5F5F5F5F5F5F5F5F5F5F5F5F5F5F5F5F5F5F5F5F5F5F5F5F5F5F5F5F5F5F5F5F5F5F5F5F5F5F5F5F5F5F5F5F5F5
310
F5F5F5F5F5F5F5F5F5F5F5F5F5F5F5F5F5F5F5F5F5E2F5F5F5F5F5F5F5F5F5F5F5F5F5F5F5F5E2F5F5F5E2E2EFF5F5F5F5F5F5F5F5F5F5F5F5F5F5F5F5F5F5F5F5E2F5F5F5F5F5F5F5F5F5F5F5F5F5F5F5F5F5F5F5F5F5F5F5F5F5F5F5F5F5F5F5F5F5F5F5F5F5F5F5F5F5F5F5F5F5F5F5F5F5F5F5F5F5F5F5F5F5F5F5F5F5
310
F5F5F5F5F5F5F5F5F5F5F5F5F5F5F5F5F5F5F5F5F5F5F5F5F5F5F5F5F5F5F5F5F5F5F5F5F5F5F5F5F5F5F5F5F5F5F5F5F5F5F5F5F5F5F5F5F5F5F5F5F5F5F5F5F5F5F5F5F5F5F5F5F5F5E2F5F5F5F5F5F5F5F5F5F5F5F5F5F5F5F5F5F5F5F5E2E2EFF5F5F5F5F5F5F5F5F5F5F5F5F5F5F5F5F5F5F5F5E2F5F5F5F5F5F5F5F5
310
F5F5F5F5F5F5F5F5F5F5F5F5F5F5F5F5F5F5F5F5F5F5F5F5F5F5F5F5F5F5F5F5F5F5F5F5F5F5F5F5F5F5F5F5F5F5F5F5F5F5F5F5F5F5F5F5F5F5F5F5F5F5F5F5F5F5F5F5F5F5F5F5F5F5F5F5F5F5F5F5F5F5F5F5F5F5F5F5F5F5F5F5F5F5F5F5F5F5F5F5F5F5F5F5F5F5F5F5F5F5F5F5F5F5F5F5F5F5F5F5F5F5F5F5F5F5F5
310
E2F5F5F5F5F5F5F5F5F5F5F5F5F5F5F5F5F5F5F5F5E2E2EFF5F5F5F5F5F5F5F5F5F5F5F5F5F5F5F5F5F5F5F5E2F5F5F5F5F5F5F5F5F5F5F5F5F5F5F5F5F5F5F5F5F5F5F5F5F5F5F5F5F5F5F5F5F5F5F5F5F5F5F5F5F5F5F5F5F5F5F5F5F5F5F5F5F5F5F5F5F5F5F5F5F5F5F5F5F5F5F5F5F5F5F5F5F5F5F5F5F5F5F5F5F5F5
310
F5F5F5F5F5F5F5F5F5F5F5F5F5F5F5F5F5F5F5F5F5F5F5F5F5F5F5F5F5F5F5F5F5F5F5F5F5F5F5F5F5F5F5F5F5F5F5F5F5F5F5F5F5E2F5F5F5F5F5F5F5F5F5F5F5F5F5F5F5F5F5F5F5F5E2E2EFF5F5F5F5F5F5F5F5F5F5F5F5F5F5F5F5F5F5F5F5E2F5F5F5F5F5F5F5F5F5F5F5F5F5F5F5F5F5F5F5F5F5F5F5F5F5F5F5F5F5
310
F5F5F5F5F5F5F5F5F5F5F5F5F5F5F5F5F5F5F5F5F5F5F5F5F5F5F5F5F5F5F5F5F5F5F5F5F5F5F5F5F5F5F5F5F5F5F5F5F5F5F5F5F5F5F5F5F5F5F5F5F5F5F5F5F5F5F5F5F5F5F5F5F5F5F5F5F5F5F5F5F5F5F5F5F5F5F5F5F5F5F5F5F5F5F5F5F5F5F5F5F5F5F5F5F5F5E2F5F5F5F5F5F5F5F5F5F5F5F5F5F5F5F5F5F5F5F5
310
E2E2EFF5F5F5F5F5F5F5F5F5F5F5F5F5F5F5F5F5F5F5F5E2F5F5F5F5F5F5F5F5F5F5F5F5F5F5F5F5F5F5F5F5F5F5F5F5F5F5F5F5F5F5F5F5F5F5F5F5F5F5F5F5F5F5F5F5F5F5F5F5F5F5F5F5F5F5F5F5F5F5F5F5F5F5F5F5F5F5F5F5F5F5F5F5F5F5F5F5F5F5F5F5F5F5F5F5F5F5F5F5F5F5F5F5F5F5F5F5F5F5F5F5F5F5F5
310
F5F5F5F5F5F5F5F5F5F5F5F5F5F5F5F5F5F5F5F5F5F5F5F5F5F5F5F5F5F5F5F5E2F5F5F5F5F5F5F5F5F5F5F5F5F5F5F5F5F5F5F5F5E2E2EFF5F5F5F5F5F5F5F5F5F5F5F5F5F5F5F5F5F5F5F5E2F5F5F5F5F5F5F5F5F5F5F5F5F5F5F5F5F5F5F5F5F5F5F5F5F5F5F5F5F5F5F5F5F5F5F5F5F5F5F5F5F5F5F5F5F5F5F5F5F5F5
310
F5F5F5F5F5F5F5F5F5F5F5F5F5F5F5F5F5F5F5F5F5F5F5F5F5F5F5F5F5F5F5F5F5F5F5F5F5F5F5F5F5F5F5F5F5F5F5F5F5F5F5F5F5F5F5F5F5F5F5F5F5F5F5F5F5F5F5F5F5F5F5F5F5F5F5F5F5F5F5F5F5F5F5F5F5E2F5F5F5F5F5F5F5F5F5F5F5F5F5F5F5F5F5F5F5F5E2E2EFF5F5F5F5F5F5F5F5F5F5F5F5F5F5F5F5F5F5
310
F5F5E2F5F5F5F5F5F5F5F5F5F5F5F5F5F5F5F5F5F5F5F5F5F5F5F5F5F5F5F5F5F5F5F5F5F5F5F5F5F5F5F5F5F5F5F5F5F5F5F5F5F5F5F5F5F5F5F5F5F5F5F5F5F5F5F5F5F5F5F5F5F5F5F5F5F5F5F5F5F5F5F5F5F5F5F5F5F5F5F5F5F5F5F5F5F5F5F5F5F5F5F5F5F5F5F5F5F5F5F5F5F5F5F5F5F5F5F5F5F5F5F5F5F5F5F5
310
F5F5F5F5F5F5F5F5F5F5F5E2F5F5F5F5F5F5F5F5F5F5F5F5F5F5F5F5F5F5F5F5E2E2EFF5F5F5F5F5F5F5F5F5F5F5F5F5F5F5F5F5F5F5F5E2F5F5F5F5F5F5F5F5F5F5F5F5F5F5F5F5F5F5F5F5F5F5F5F5F5F5F5F5F5F5F5F5F5F5F5F5F5F5F5F5F5F5F5F5F5F5F5F5F5F5F5F5F5F5F5F5F5F5F5F5F5F5F5F5F5F5F5F5F5F5F5
310
F5F5F5F5F5F5F5F5F5F5F5F5F5F5F5F5F5F5F5F5F5F5F5F5F5F5F5F5F5F5F5F5F5F5F5F5F5F5F5F5F5F5F5F5F5F5F5F5F5F5F5F5F5F5F5F5F5F5F5F5F5F5F5F5E2F5F5F5F5F5F5F5F5F5F5F5F5F5F5F5F5F5F5F5F5E2E2EFF5F5F5F5F5F5F5F5F5F5F5F5F5F5F5F5F5F5F5F5E2F5F5F5F5F5F5F5F5F5F5F5F5F5F5F5F5F5F5
310
F5F5F5F5F5F5F5F5F5F5F5F5F5F5F5F5F5F5F5F5F5F5F5F5F5F5F5F5F5F5F5F5F5F5F5F5F5F5F5F5F5F5F5F5F5F5F5F5F5F5F5F5F5F5F5F5F5F5F5F5F5F5F5F5F5F5F5F5F5F5F5F5F5F5F5F5F5F5F5F5F5F5F5F5F5F5F5F5F5F5F5F5F5F5F5F5F5F5F5F5F5F5F5F5F5F5F5F5F5F5F5F5F5F5F5F5F5E2F5F5F5F5F5F5F5F5F5
310
F5F5F5F5F5F5F5F5F5F5F5E2E2EFF5F5F5E2F5F5F5F5F5F5F5F5F5F5F5F5F5F5F5F5E2F5F5F5F5F5F5F5F5F5F5F5F5F5F5F5F5F5F5F5F5F5F5F5F5F5F5F5F5F5F5F5F5F5F5F5F5F5F5F5F5F5F5F5F5F5F5F5F5F5F5F5F5F5F5F5F5F5F5F5F5F5F5F5F5F5F5F5F5F5F5F5F5F5F5F5F5F5F5F5F5F5F5F5F5F5F5F5F5F5F5F5F5
310
F5F5F5F5F5F5F5F5F5F5F5F5F5F5F5F5F5F5F5F5F5F5F5F5F5F5F5F5F5F5F5F5F5F5F5F5F5F5F5F5F5F5F5E2F5F5F5F5F5F5F5F5F5F5F5F5F5F5F5F5E2F5F5F5E2E2EFF5F5F5E2F5F5F5F5F5F5F5F5F5F5F5F5F5F5F5F5E2F5F5F5F5F5F5F5F5F5F5F5F5F5F5F5F5F5F5F5F5F5F5F5F5F5F5F5F5F5F5F5F5F5F5F5F5F5F5F5
310
F5F5F5F5F5F5F5F5F5F5F5F5F5F5F5F5F5F5F5F5F5F5F5F5F5F5F5F5F5F5F5F5F5F5F5F5F5F5F5F5F5F5F5F5F5F5F5F5F5F5F5F5F5F5F5F5F5F5F5F5F5F5F5F5F5F5F5F5F5F5F5F5F5F5F5F5F5F5F5F5F5F5F5F5F5F5F5F5F5F5F5F5F5F5F5F5E2F5F5F5F5F5F5F5F5F5F5F5F5F5F5F5F5E2F5F5F5E2E2EFF5F5F5E2F5F5F5
310
F5F5F5F5F5F5F5F5F5F5F5F5F5E2F5F5F5F5F5F5F5F5F5F5F5F5F5F5F5F5F5F5F5F5F5F5F5F5F5F5F5F5F5F5F5F5F5F5F5F5F5F5F5F5F5F5F5F5F5F5F5F5F5F5F5F5F5F5F5F5F5F5F5F5F5F5F5F5F5F5F5F5F5F5F5F5F5F5F5F5F5F5F5F5F5F5F5F5F5F5F5F5F5F5F5F5F5F5F5F5F5F5F5F5F5F5F5F5F5F5F5F5F5F5F5F5F5
310
F5F5F5F5F5F5F5F5F5F5F5F5F5F5F5F5F5F5F5F5F5F5E2F5F5F5F5F5F5F5F5F5F5F5F5F5F5F5F5E2F5F5F5E2E2EFF5F5F5E2F5F5F5F5F5F5F5F5F5F5F5F5F5F5F5F5E2F5F5F5F5F5F5F5F5F5F5F5F5F5F5F5F5F5F5F5F5F5F5F5F5F5F5F5F5F5F5F5F5F5F5F5F5F5F5F5F5F5F5F5F5F5F5F5F5F5F5F5F5F5F5F5F5F5F5F5F5
310
F5F5F5F5F5F5F5F5F5F5F5F5F5F5F5F5F5F5F5F5F5F5F5F5F5F5F5F5F5F5F5F5F5F5F5F5F5F5F5F5F5F5F5F5F5F5F5F5F5F5F5F5F5F5F5F5F5F5F5F5F5F5F5F5F5F5F5F5F5F5F5F5F5F5F5E2F5F5F5F5F5F5F5F5F5F5F5F5F5F5F5F5E2F5F5F5E2E2EFF5F5F5E2F5F5F5F5F5F5F5F5F5F5F5F5F5F5F5F5E2F5F5F5F5F5F5F5
310
F5F5F5F5F5F5F5F5F5F5F5F5F5F5F5F5F5F5F5F5F5F5F5F5F5F5F5F5F5F5F5F5F5F5F5F5F5F5F5F5F5F5F5F5F5F5F5F5F5F5F5F5F5F5F5F5F5F5F5F5F5F5F5F5F5F5F5F5F5F5F5F5F5F5F5F5F5F5F5F5F5F5F5F5F5F5F5F5F5F5F5F5F5F5F5F5F5F5F5F5F5F5F5F5F5F5F5F5F5F5F5F5F5F5F5F5F5F5F5F5F5F5F5F5F5F5F5
310
F5E2F5F5F5F5F5F5F5F5F5F5F5F5F5F5F5F5E2F5F5F5E2E2EFF5F5F5E2F5F5F5F5F5F5F5F5F5F5F5F5F5F5F5F5E2F5F5F5F5F5F5F5F5F5F5F5F5F5F5F5F5F5F5F5F5F5F5F5F5F5F5F5F5F5F5F5F5F5F5F5F5F5F5F5F5F5F5F5F5F5F5F5F5F5F5F5F5F5F5F5F5F5F5F5F5F5F5F5F5F5F5F5F5F5F5F5F5F5F5F5F5F5F5F5F5F5
310
F5F5F5F5F5F5F5F5F5F5F5F5F5F5F5F5F5F5F5F5F5F5F5F5F5F5F5F5F5F5F5F5F5F5F5F5F5F5F5F5F5F5F5F5F5F5F5F5F5F5F5F5F5F5E2F5F5F5F5F5F5F5F5F5F5F5F5F5F5F5F5E2F5F5F5E2E2EFF5F5F5E2F5F5F5F5F5F5F5F5F5F5F5F5F5F5F5F5E2F5F5F5F5F5F5F5F5F5F5F5F5F5F5F5F5F5F5F5F5F5F5F5F5F5F5F5F5
310
F5F5F5F5F5F5F5F5F5F5F5F5F5F5F5F5F5F5F5F5F5F5F5F5F5F5F5F5F5F5F5F5F5F5F5F5F5F5F5F5F5F5F5F5F5F5F5F5F5F5F5F5F5F5F5F5F5F5F5F5F5F5F5F5F5F5F5F5F5F5F5F5F5F5F5F5F5F5F5F5F5F5F5F5F5F5F5F5F5F5F5F5F5F5F5F5F5F5F5F5F5F5F5F5F5F5F5E2F5F5F5F5F5F5F5F5F5F5F5F5F5F5F5F5E2F5F5
310
F5E2E2EFF5F5F5E2F5F5F5F5F5F5F5F5F5F5F5F5F5F5F5F5E2F5F5F5F5F5F5F5F5F5F5F5F5F5F5F5F5F5F5F5F5F5F5F5F5F5F5F5F5F5F5F5F5F5F5F5F5F5F5F5F5F5F5F5F5F5F5F5F5F5F5F5F5F5F5F5F5F5F5F5F5F5F5F5F5F5F5F5F5F5F5F5F5F5F5F5F5F5F5F5F5F5F5F5F5F5F5F5F5F5F5F5F5F5F5F5F5F5F5F5F5F5F5
310
F5F5F5F5F5F5F5F5F5F5F5F5F5F5F5F5F5F5F5F5F5F5F5F5F5F5F5F5F5F5F5F5F5E2F5F5F5F5F5F5F5F5F5F5F5F5F5F5F5F5E2F5F5F5E2E2EFF5F5F5E2F5F5F5F5F5F5F5F5F5F5F5F5F5F5F5F5E2F5F5F5F5F5F5F5F5F5F5F5F5F5F5F5F5F5F5F5F5F5F5F5F5F5F5F5F5F5F5F5F5F5F5F5F5F5F5F5F5F5F5F5F5F5F5F5F5F5
310
F5F5F5F5F5F5F5F5F5F5F5F5F5F5F5F5F5F5F5F5F5F5F5F5F5F5F5F5F5F5F5F5F5F5F5F5F5F5F5F5F5F5F5F5F5F5F5F5F5F5F5F5F5F5F5F5F5F5F5F5F5F5F5F5F5F5F5F5F5F5F5F5F5F5F5F5F5F5F5F5F5F5F5F5F5F5E2F5F5F5F5F5F5F5F5F5F5F5F5F5F5F5F5E2F5F5F5E2E2EFF5F5F5E2F5F5F5F5F5F5F5F5F5F5F5F5F5
310
F5F5F5E2F5F5F5F5F5F5F5F5F5F5F5F5F5F5F5F5F5F5F5F5F5F5F5F5F5F5F5F5F5F5F5F5F5F5F5F5F5F5F5F5F5F5F5F5F5F5F5F5F5F5F5F5F5F5F5F5F5F5F5F5F5F5F5F5F5F5F5F5F5F5F5F5F5F5F5F5F5F5F5F5F5F5F5F5F5F5F5F5F5F5F5F5F5F5F5F5F5F5F5F5F5F5F5F5F5F5F5F5F5F5F5F5F5F5F5F5F5F5F5F5F5F5F5
310
F5F5F5F5F5F5F5F5F5F5F5F5E2F5F5F5F5F5F5F5F5F5F5F5F5F5F5F5F5E2F5F5F5E2E2EFF5F5F5E2F5F5F5F5F5F5F5F5F5F5F5F5F5F5F5F5E2F5F5F5F5F5F5F5F5F5F5F5F5F5F5F5F5F5F5F5F5F5F5F5F5F5F5F5F5F5F5F5F5F5F5F5F5F5F5F5F5F5F5F5F5F5F5F5F5F5F5F5F5F5F5F5F5F5F5F5F5F5F5F5F5F5F5F5F5F5F5
310
F5F5F5F5F5F5F5F5F5F5F5F5F5F5F5F5F5F5F5F5F5F5F5F5F5F5F5F5F5F5F5F5F5F5F5F5F5F5F5F5F5F5F5F5F5F5F5F5F5F5F5F5F5F5F5F5F5F5F5F5F5F5F5F5F5E2F5F5F5F5F5F5F5F5F5F5F5F5F5F5F5F5E2F5F5F5E2E2EFF5F5F5E2F5F5F5F5F5F5F5F5F5F5F5F5F5F5F5F5E2F5F5F5F5F5F5F5F5F5F5F5F5F5F5F5F5F5
310
F5F5F5F5F5F5F5F5F5F5F5F5F5F5F5F5F5F5F5F5F5F5F5F5F5F5F5F5F5F5F5F5F5F5F5F5F5F5F5F5F5F5F5F5F5F5F5F5F5F5F5F5F5F5F5F5F5F5F5F5F5F5F5F5F5F5F5F5F5F5F5F5F5F5F5F5F5F5F5F5F5F5F5F5F5F5F5F5F5F5F5F5F5F5F5F5F5F5F5F5F5F5F5F5F5F5F5F5F5F5F5F5F5F5F5F5F5F5E2F5F5F5F5F5F5F5F5
310
F5F5F5F5F5F5F5F5E2F5F5F5E2E2EFF5F5F5E2F5F5F5F5F5F5F5F5F5F5F5F5F5F5F5F5E2F5F5F5F5F5F5F5F5F5F5F5F5F5F5F5F5F5F5F5F5F5F5F5F5F5F5F5F5F5F5F5F5F5F5F5F5F5F5F5F5F5F5F5F5F5F5F5F5F5F5F5F5F5F5F5F5F5F5F5F5F5F5F5F5F5F5F5F5F5F5F5F5F5F5F5F5F5F5F5F5F5F5F5F5F5F5F5F5F5F5F5
310
F5F5F5F5F5F5F5F5F5F5F5F5F5F5F5F5F5F5F5F5F5F5F5F5F5F5F5F5F5F5F5F5F5F5F5F5F5F5F5F5F5F5F5F5E2F5F5F5F5F5F5F5F5F5F5F5F5F5F5F5F5E2F5F5F5E2E2EFF5F5F5E2F5F5F5F5F5F5F5F5F5F5F5F5F5F5F5F5E2F5F5F5F5F5F5F5F5F5F5F5F5F5F5F5F5F5F5F5F5F5F5F5F5F5F5F5F5F5F5F5F5F5F5F5F5F5F5
310
F5F5F5F5F5F5F5F5F5F5F5F5F5F5F5F5F5F5F5F5F5F5F5F5F5F5F5F5F5F5F5F5F5F5F5F5F5F5F5F5F5F5F5F5F5F5F5F5F5F5F5F5F5F5F5F5F5F5F5F5F5F5F5F5F5F5F5F5F5F5F5F5F5F5F5F5F5F5F5F5F5F5F5F5F5F5F5F5F5F5F5F5F5F5F5F5F5E2F5F5F5F5F5F5F5F5F5F5F5F5F5F5F5F5E2F5F5F5E2E2EFF5F5F5E2F5F5
310
F5F5F5F5F5F5F5F5F5F5F5F5F5F5E2F5F5F5F5F5F5F5F5F5F5F5F5F5F5F5F5F5F5F5F5F5F5F5F5F5F5F5F5F5F5F5F5F5F5F5F5F5F5F5F5F5F5F5F5F5F5F5F5F5F5F5F5F5F5F5F5F5F5F5F5F5F5F5F5F5F5F5F5F5F5F5F5F5F5F5F5F5F5F5F5F5F5F5F5F5F5F5F5F5F5F5F5F5F5F5F5F5F5F5F5F5F5F5F5F5F5F5F5F5F5F5F5
310
F5F5F5F5F5F5F5F5F5F5F5F5F5F5F5F5F5F5F5F5F5F5F5E2F5F5F5F5F5F5F5F5F5F5F5F5F5F5F5F5E2F5F5F5E2E2EFF5F5F5E2F5F5F5F5F5F5F5F5F5F5F5F5F5F5F5F5E2F5F5F5F5F5F5F5F5F5F5F5F5F5F5F5F5F5F5F5F5F5F5F5F5F5F5F5F5F5F5F5F5F5F5F5F5F5F5F5F5F5F5F5F5F5F5F5F5F5F5F5F5F5F5F5F5F5F5F5
310
F5F5F5F5F5F5F5F5F5F5F5F5F5F5F5F5F5F5F5F5F5F5F5F5F5F5F5F5F5F5F5F5F5F5F5F5F5F5F5F5F5F5F5F5F5F5F5F5F5F5F5F5F5F5F5F5F5F5F5F5F5F5F5F5F5F5F5F5F5F5F5F5F5F5F5F5E2F5F5F5F5F5F5F5F5F5F5F5F5F5F5F5F5E2F5F5F5E2E2EFF5F5F5E2F5F5F5F5F5F5F5F5F5F5F5F5F5F5F5F5E2F5F5F5F5F5F5
310
F5F5F5F5F5F5F5F5F5F5F5F5F5F5F5F5F5F5F5F5F5F5F5F5F5F5F5F5F5F5F5F5F5F5F5F5F5F5F5F5F5F5F5F5F5F5F5F5F5F5F5F5F5F5F5F5F5F5F5F5F5F5F5F5F5F5F5F5F5F5F5F5F5F5F5F5F5F5F5F5F5F5F5F5F5F5F5F5F5F5F5F5F5F5F5F5F5F5F5F5F5F5F5F5F5F5F5F5F5F5F5F5F5F5F5F5F5F5F5F5F5F5F5F5F5F5F5
310
F5F5E2F5F5F5F5F5F5F5F5F5F5F5F5F5F5F5F5E2F5F5F5E2E2EFF5F5F5F5F5F5F5F5F5F5F5F5F5F5F5F5F5F5F5F5E2F5F5F5F5F5F5F5F5F5F5F5F5F5F5F5F5F5F5F5F5F5F5F5F5F5F5F5F5F5F5F5F5F5F5F5F5F5F5F5F5F5F5F5F5F5F5F5F5F5F5F5F5F5F5F5F5F5F5F5F5F5F5F5F5F5F5F5F5F5F5F5F5F5F5F5F5F5F5F5F5
310
F5F5F5F5F5F5F5F5F5F5F5F5F5F5F5F5F5F5F5F5F5F5F5F5F5F5F5F5F5F5F5F5F5F5F5F5F5F5F5F5F5F5F5F5F5F5F5F5F5F5F5F5F5F5F5E2F5F5F5F5F5F5F5F5F5F5F5F5F5F5F5F5F5F5F5F5E2E2EFF5F5F5F5F5F5F5F5F5F5F5F5F5F5F5F5F5F5F5F5E2F5F5F5F5F5F5F5F5F5F5F5F5F5F5F5F5F5F5F5F5F5F5F5F5F5F5F5
310
F5F5F5F5F5F5F5F5F5F5F5F5F5F5F5F5F5F5F5F5F5F5F5F5F5F5F5F5F5F5F5F5F5F5F5F5F5F5F5F5F5F5F5F5F5F5F5F5F5F5F5F5F5F5F5F5F5F5F5F5F5F5F5F5F5F5F5F5F5F5F5F5F5F5F5F5F5F5F5F5F5F5F5F5F5F5F5F5F5F5F5F5F5F5F5F5F5F5F5F5F5F5F5F5F5F5F5F5E2F5F5F5F5F5F5F5F5F5F5F5F5F5F5F5F5F5F5
310
F5F5E2E2EFF5F5F5F5F5F5F5F5F5F5F5F5F5F5F5F5F5F5F5F5E2F5F5F5F5F5F5F5F5F5F5F5F5F5F5F5F5F5F5F5F5F5F5F5F5F5F5F5F5F5F5F5F5F5F5F5F5F5F5F5F5F5F5F5F5F5F5F5F5F5F5F5F5F5F5F5F5F5F5F5F5F5F5F5F5F5F5F5F5F5F5F5F5F5F5F5F5F5F5F5F5F5F5F5F5F5F5F5F5F5F5F5F5F5F5F5F5F5F5F5F5F5
310
F5F5F5F5F5F5F5F5F5F5F5F5F5F5F5F5F5F5F5F5F5F5F5F5F5F5F5F5F5F5F5F5F5F5E2F5F5F5F5F5F5F5F5F5F5F5F5F5F5F5F5F5F5F5F5E2E2EFF5F5F5F5F5F5F5F5F5F5F5F5F5F5F5F5F5F5F5F5E2F5F5F5F5F5F5F5F5F5F5F5F5F5F5F5F5F5F5F5F5F5F5F5F5F5F5F5F5F5F5F5F5F5F5F5F5F5F5F5F5F5F5F5F5F5F5F5F5
310
F5F5F5F5F5F5F5F5F5F5F5F5F5F5F5F5F5F5F5F5F5F5F5F5F5F5F5F5F5F5F5F5F5F5F5F5F5F5F5F5F5F5F5F5F5F5F5F5F5F5F5F5F5F5F5F5F5F5F5F5F5F5F5F5F5F5F5F5F5F5F5F5F5F5F5F5F5F5F5F5F5F5F5F5F5F5F5E2F5F5F5F5F5F5F5F5F5F5F5F5F5F5F5F5F5F5F5F5E2E2EFF5F5F5F5F5F5F5F5F5F5F5F5F5F5F5F5
310
F5F5F5F5E2E2E2E2E2E2E2E2E2E2E2E2E2E2E2E2E2E2E2E2E2E2E2E2E2E2E2E2E2E2E2E2E2E2E2E2E2E2E2E2E2E2E2E2E2E2E2E2E2E2E2E2E2E2E2E2E2E2E2E2E2E2E2E2E2E2E2E2E2E2E2E2E2E2E2E2E2E2E2E2E2E2E2E2E2E2E2E2E2E2E2E2E2E2E2E2E2E2E2E2E2E2E2E2E2E2E2E2E2E2E2E2E2E2E2E2E2E2E2E2E2E2E2
310
E2E2E2E2E2E2E2E2E2E2E2E2E2E2F5F5F5F5F5F5F5F5F5F5F5F5F5F5F5F5F5F5F5F5E2E2EFF5F5F5F5F5F5F5F5F5F5F5F5F5F5F5F5F5F5F5F5F5F5F5F5F5F5F5F5F5F5F5F5F5F5F5F5F5F5F5F5F5F5F5F5F5F5F5F5F5F5F5F5F5F5F5F5F5F5F5F5F5F5F5F5F5F5F5F5F5F5F5F5F5F5F5F5F5F5F5F5F5F5F5F5F5F5F5F5F5F5
310
F5F5F5F5F5F5F5F5F5F5F5F5F5F5F5F5F5F5F5F5F5F5F5F5F5F5F5F5F5F5F5F5F5F5F5F5F5F5F5F5F5F5F5F5F5F5F5F5F5F5F5F5F5F5F5F5F5F5F5F5F5F5F5F5F5F5F5F5F5F5F5F5F5F5F5F5F5F5F5F5F5F5F5F5F5F5F5E2E2EFF5F5F5F5F5F5F5F5F5F5F5F5F5F5F5F5F5F5F5F5F5F5F5F5F5F5F5F5F5F5F5F5F5F5F5F5F5
310
F5F5F5F5F5F5F5F5F5F5F5F5F5F5F5F5F5F5F5F5F5F5F5F5F5F5F5F5F5F5F5F5F5F5F5F5F5F5F5F5F5F5F5F5F5F5F5F5F5F5F5F5F5F5F5F5F5F5F5F5F5F5F5F5F5F5F5F5F5F5F5F5F5F5F5F5F5F5F5F5F5F5F5F5F5F5F5F5F5F5F5F5F5F5F5F5F5F5F5F5F5F5F5F5F5F5F5F5F5F5F5F5F5F5F5F5F5F5F5F5F5F5F5F5F5F5F5
310
F5F5F5F5F5F5F5F5F5F5F5F5F5E2E2EFF5F5F5F5F5F5F5F5F5F5F5F5F5F5F5F5F5F5F5F5F5F5F5F5F5F5F5F5F5F5F5F5F5F5F5F5F5F5F5F5F5F5F5F5F5F5F5F5F5F5F5F5F5F5F5F5F5F5F5F5F5F5F5F5F5F5F5F5F5F5F5F5F5F5F5F5F5F5F5F5F5F5F5F5F5F5F5F5F5F5F5F5F5F5F5F5F5F5F5F5F5F5F5F5F5F5F5F5F5F5F5
310
F5F5F5F5F5F5F5F5F5F5F5F5F5F5F5F5F5F5F5F5F5F5F5F5F5F5F5F5F5F5F5F5F5F5F5F5F5F5F5F5F5F5F5F5F5F5F5F5F5F5F5F5F5F5F5F5F5F5F5F5F5F5F5F5F5F5E2E2EFF5F5F5F5F5F5F5F5F5F5F5F5F5F5F5F5F5F5F5F5F5F5F5F5F5F5F5F5F5F5F5F5F5F5F5F5F5F5F5F5F5F5F5F5F5F5F5F5F5F5F5F5F5F5F5F5F5F5
310
F5F5F5F5F5F5F5F5F5F5F5F5F5F5F5F5F5F5F5F5F5F5F5F5F5F5F5F5F5F5F5F5F5F5F5F5F5F5F5F5F5F5F5F5F5F5F5F5F5F5F5F5F5F5F5F5F5F5F5F5F5F5F5F5F5F5F5F5F5F5F5F5F5F5F5F5F5F5F5F5F5F5F5F5F5F5F5F5F5F5F5F5F5F5F5F5F5F5F5F5F5F5F5F5F5F5F5F5F5F5F5F5F5F5F5F5F5F5F5E2E2EFF5F5F5E2F5
310
F5F5F5F5F5F5F5F5F5F5F5F5F5F5F5F5F5F5F5F5F5F5F5F5F5F5F5F5F5F5F5F5F5F5F5F5F5F5F5F5F5F5F5F5F5F5F5F5F5F5F5F5F5F5F5F5F5F5F5F5F5F5F5F5F5F5F5F5F5F5F5F5F5F5F5F5F5F5F5F5F5F5F5F5F5F5F5F5F5F5F5F5F5F5F5F5F5F5F5F5F5F5F5F5F5F5F5F5F5F5F5F5F5F5F5F5F5F5F5F5F5F5F5F5F5F5F5
310
F5F5F5F5F5F5F5F5F5F5F5F5F5F5F5F5F5F5F5F5F5F5F5F5F5F5F5F5F5F5F5F5F5F5F5F5F5F5F5F5F5E2F5F5F5E2E2EFF5F5F5E2F5F5F5F5F5F5F5F5F5F5F5F5F5F5F5F5F5F5F5F5F5F5F5F5F5F5F5F5F5F5F5F5F5F5F5F5F5F5F5F5F5F5F5F5F5F5F5F5F5F5F5F5F5F5F5F5F5F5F5F5F5F5F5F5F5F5F5F5F5F5F5F5F5F5F5
310
F5F5F5F5F5F5F5F5F5F5F5F5F5F5F5F5F5F5F5F5F5F5F5F5F5F5F5F5F5F5F5F5F5F5F5F5F5F5F5F5F5F5F5F5F5F5F5F5F5F5F5F5F5F5F5F5F5F5F5F5F5F5F5F5F5F5F5F5F5F5F5F5F5F5F5F5F5F5F5F5F5F5F5F5F5F5F5F5F5F5F5F5F5F5E2F5F5F5E2E2EFF5F5F5E2F5F5F5F5F5F5F5F5F5F5F5F5F5F5F5F5F5F5F5F5F5F5
310
F5F5F5F5F5F5F5F5F5F5F5F5F5F5F5F5F5F5F5F5F5F5F5F5F5F5F5F5F5F5F5F5F5F5F5F5F5F5F5F5F5F5F5F5F5F5F5F5F5F5F5F5F5F5F5F5F5F5F5F5F5F5F5F5F5F5F5F5F5F5F5F5F5F5F5F5F5F5F5F5F5F5F5F5F5F5F5F5F5F5F5F5F5F5F5F5F5F5F5F5F5F5F5F5F5F5F5F5F5F5F5F5F5F5F5F5F5F5F5F5F5F5F5F5F5F5F5
310
F5F5F5F5F5F5F5F5F5F5F5F5F5F5F5F5F5F5F5F5E2F5F5F5E2E2EFF5F5F5E2F5F5F5F5F5F5F5F5F5F5F5F5F5F5F5F5F5F5F5F5F5F5F5F5F5F5F5F5F5F5F5F5F5F5F5F5F5F5F5F5F5F5F5F5F5F5F5F5F5F5F5F5F5F5F5F5F5F5F5F5F5F5F5F5F5F5F5F5F5F5F5F5F5F5F5F5F5F5F5F5F5F5F5F5F5F5F5F5F5F5F5F5F5F5F5F5
310
F5F5F5F5F5F5F5F5F5F5F5F5F5F5F5F5F5F5F5F5F5F5F5F5F5F5F5F5F5F5F5F5F5F5F5F5F5F5F5F5F5F5F5F5F5F5F5F5F5F5F5F5F5F5F5F5F5F5F5F5F5F5F5F5F5F5F5F5F5F5F5F5F5E2F5F5F5E2E2EFF5F5F5E2F5F5F5F5F5F5F5F5F5F5F5F5F5F5F5F5F5F5F5F5F5F5F5F5F5F5F5F5F5F5F5F5F5F5F5F5F5F5F5F5F5F5F5
310
F5F5F5F5F5F5F5F5F5F5F5F5F5F5F5F5F5F5F5F5F5F5F5F5F5F5F5F5F5F5F5F5F5F5F5F5F5F5F5F5F5F5F5F5F5F5F5F5F5F5F5F5F5F5F5F5F5F5F5F5F5F5F5F5F5F5F5F5F5F5F5F5F5F5F5F5F5F5F5F5F5F5F5F5F5F5F5F5F5F5F5F5F5F5F5F5F5F5F5F5F5F5F5F5F5F5F5F5F5F5F5F5F5F5F5F5F5F5F5F5F5F5F5F5F5F5E2
310
F5F5F5E2E2EFF5F5F5E2F5F5F5F5F5F5F5F5F5F5F5F5F5F5F5F5F5F5F5F5F5F5F5F5F5F5F5F5F5F5F5F5F5F5F5F5F5F5F5F5F5F5F5F5F5F5F5F5F5F5F5F5F5F5F5F5F5F5F5F5F5F5F5F5F5F5F5F5F5F5F5F5F5F5F5F5F5F5F5F5F5F5F5F5F5F5F5F5F5F5F5F5F5F5F5F5F5F5F5F5F5F5F5F5F5F5F5F5F5F5F5F5F5F5F5F5F5
310
F5F5F5F5F5F5F5F5F5F5F5F5F5F5F5F5F5F5F5F5F5F5F5F5F5F5F5F5F5F5F5F5F5F5F5F5F5F5F5F5F5F5F5F5F5F5F5F5F5F5F5F5E2F5F5F5E2E2EFF5F5F5E2F5F5F5F5F5F5F5F5F5F5F5F5F5F5F5F5F5F5F5F5F5F5F5F5F5F5F5F5F5F5F5F5F5F5F5F5F5F5F5F5F5F5F5F5F5F5F5F5F5F5F5F5F5F5F5F5F5F5F5F5F5F5F5F5
310
F5F5F5F5F5F5F5F5F5F5F5F5F5F5F5F5F5F5F5F5F5F5F5F5F5F5F5F5F5F5F5F5F5F5F5F5F5F5F5F5F5F5F5F5F5F5F5F5F5F5F5F5F5F5F5F5F5F5F5F5F5F5F5F5F5F5F5F5F5F5F5F5F5F5F5F5F5F5F5F5F5F5F5F5F5F5F5F5F5F5F5F5F5F5F5F5F5F5F5F5F5F5F5F5F5E2F5F5F5E2E2EFF5F5F5E2F5F5F5F5F5F5F5F5F5F5F5
310
F5F5F5F5F5F5F5F5F5F5F5F5F5F5F5F5F5F5F5F5F5F5F5F5F5F5F5F5F5F5F5F5F5F5F5F5F5F5F5F5F5F5F5F5F5F5F5F5F5F5F5F5F5F5F5F5F5F5F5F5F5F5F5F5F5F5F5F5F5F5F5F5F5F5F5F5F5F5F5F5F5F5F5F5F5F5F5F5F5F5F5F5F5F5F5F5F5F5F5F5F5F5F5F5F5F5F5F5F5F5F5F5F5F5F5F5F5F5F5F5F5F5F5F5F5F5F5
310
F5F5F5F5F5F5F5F5F5F5F5F5F5F5F5F5F5F5F5F5F5F5F5F5F5F5F5F5F5F5F5E2F5F5F5E2E2EFF5F5F5E2E2E2E2E2E2E2E2F5F5F5F5F5F5F5F5F5E2E2E2E2E2E2E2E2E2E2E2E2E2E2E2E2F5F5F5F5F5F5F5F5E2E2E2E2E2E2E2E2E2E2E2E2E2E2E2E2F5F5F5F5F5F5F5F5F5E2E2E2E2E2E2E2E2E2E2E2E2E2E2E2F5F5F5F5F5
310
F5F5F5F5E2E2E2E2E2E2E2E2E2E2E2E2E2E2E2F5F5F5F5F5F5F5F5F5E2E2E2E2E2E2E2E2E2E2E2E2E2E2E2E2F5F5F5F5F5F5F5F5E2E2E2E2E2E2E2E2E2E2E2E2E2E2E2E2F5F5F5F5F5F5F5F5F5E2E2E2E2E2E2E2E2F5F5F5E2E2EFF5F5F5F5F5F5F5F5F5F5F5F5F5F5F5F5F5F5F5F5F5F5F5F5F5F5F5F5F5F5F5F5F5F5F5F5
310
F5F5F5F5F5F5F5F5F5F5F5F5F5F5F5F5F5F5F5F5F5F5F5F5F5F5F5F5F5F5F5F5F5F5F5F5F5F5F5F5F5F5F5F5F5F5F5F5F5F5F5F5F5F5F5F5F5F5F5F5F5F5F5F5F5F5F5F5F5F5F5F5F5F5F5F5F5F5F5F5F5F5F5F5F5F5F5F5F5F5F5F5F5F5F5F5F5F5F5F5F5F5F5F5F5F5F5F5F5F5F5F5F5F5F5F5F5F5F5F5F5F5F5F5F5F5F5
310
F5F5F5F5F5F5F5F5F5F5F5F5F5F5E2E2EFF5F5F5F5F5F5F5F5F5F5F5F5F5F5F5F5F5F5F5F5F5F5F5F5F5F5F5F5F5F5F5F5F5F5F5F5F5F5F5F5F5F5F5F5F5F5F5F5F5F5F5F5F5F5F5F5F5F5F5F5F5F5F5F5F5F5F5F5F5F5F5F5F5F5F5F5F5F5F5F5F5F5F5F5F5F5F5F5F5F5F5F5F5F5F5F5F5F5F5F5F5F5F5F5F5F5F5F5F5F5
310
F5F5F5F5F5F5F5F5F5F5F5F5F5F5F5F5F5F5F5F5F5F5F5F5F5F5F5F5F5F5F5F5F5F5F5F5F5F5F5F5F5F5F5F5F5F5F5F5F5F5F5F5F5F5F5F5F5F5F5F5F5F5F5F5F5F5F5E2EFEFF5F5F5F5F5F5F5F5F5F5F5F5F5F5F5F5F5F5F5F5F5F5F5F5F5F5F5F5F5F5F5F5F5F5F5F5F5F5F5F5F5F5F5F5F5F5F5F5F5F5F5F5F5F5F5F5F5
310
F5F5F5F5F5F5F5F5F5F5F5F5F5F5F5F5F5F5F5F5F5F5F5F5F5F5F5F5F5F5F5F5F5F5F5F5F5F5F5F5F5F5F5F5F5F5F5F5F5F5F5F5F5F5F5F5F5F5F5F5F5F5F5F5F5F5F5F5F5F5F5F5F5F5F5F5F5F5F5F5F5F5F5F5F5F5F5F5F5F5F5F5F5F5F5F5F5F5F5F5F5F5F5F5F5F5F5F5F5F5F5F5F5F5F5F5F5F5F5F5E2EFEFE2E2E2E2
310
E2E2E2E2E2E2E2E2E2E2E2E2E2E2E2E2E2E2E2E2E2E2E2E2E2E2E2E2E2E2E2E2E2E2E2E2E2E2E2E2E2E2E2E2E2E2E2E2E2E2E2E2E2E2E2E2E2E2E2E2E2E2E2E2E2E2E2E2E2E2E2E2E2E2E2E2E2E2E2E2E2E2E2E2E2E2E2E2E2E2E2E2E2E2E2E2E2E2E2E2E2E2E2E2E2E2E2E2E2E2E2E2E2E2E2E2E2E2E2E2E2E2E2E2E2E2E2
310
E2E2E2E2E2E2E2E2E2E2E2E2E2E2E2E2E2E2E2E2E2E2E2E2E2E2E2E2E2E2E2E2E2E2E2E2E2E2E2E2E2E2E2E2E2E2E2EFEF
  0
ENDSEC
  0
EOF
