  0
SECTION
  2
HEADER
  9
$ACADVER
  1
AC1018
  9
$ACADMAINTVER
 70
     0
  9
$DWGCODEPAGE
  3
ANSI_1252
  9
$AUTHOR
  1
g6edxjah
  9
$LASTSAVEDBY
  1
g6edxjah
  9
$INSBASE
 10
0.0
 20
0.0
 30
0.0
  9
$EXTMIN
 10
44.043458
 20
-0.081542
 30
0.0
  9
$EXTMAX
 10
52.456542
 20
11.081542
 30
0.0
  9
$LIMMIN
 10
20.293291
 20
-22.456709
  9
$LIMMAX
 10
76.206709
 20
33.456709
  9
$ORTHOMODE
 70
     0
  9
$REGENMODE
 70
     1
  9
$FILLMODE
 70
     1
  9
$QTEXTMODE
 70
     0
  9
$MIRRTEXT
 70
     0
  9
$LTSCALE
 40
1.0
  9
$ATTMODE
 70
     1
  9
$TEXTSIZE
 40
0.140396
  9
$TRACEWID
 40
0.05
  9
$TEXTSTYLE
  7
Standard
  9
$CLAYER
  8
TITLE
  9
$CELTYPE
  6
Continuous
  9
$CECOLOR
 62
     7
  9
$CELTSCALE
 40
1.0
  9
$DISPSILH
 70
     0
  9
$DIMSCALE
 40
1.0
  9
$DIMASZ
 40
0.140396
  9
$DIMEXO
 40
0.070198
  9
$DIMDLI
 40
0.0
  9
$DIMRND
 40
0.0
  9
$DIMDLE
 40
0.0
  9
$DIMEXE
 40
0.070198
  9
$DIMTP
 40
0.0
  9
$DIMTM
 40
0.0
  9
$DIMTXT
 40
0.140396
  9
$DIMCEN
 40
0.09
  9
$DIMTSZ
 40
0.0
  9
$DIMTOL
 70
     0
  9
$DIMLIM
 70
     0
  9
$DIMTIH
 70
     0
  9
$DIMTOH
 70
     0
  9
$DIMSE1
 70
     0
  9
$DIMSE2
 70
     0
  9
$DIMTAD
 70
     1
  9
$DIMZIN
 70
    11
  9
$DIMBLK
  1
TerminatorOpen_0.5
  9
$DIMASO
 70
     1
  9
$DIMSHO
 70
     1
  9
$DIMPOST
  1

  9
$DIMAPOST
  1

  9
$DIMALT
 70
     0
  9
$DIMALTD
 70
     4
  9
$DIMALTF
 40
25.4
  9
$DIMLFAC
 40
1.0
  9
$DIMTOFL
 70
     0
  9
$DIMTVP
 40
0.0
  9
$DIMTIX
 70
     0
  9
$DIMSOXD
 70
     0
  9
$DIMSAH
 70
     0
  9
$DIMBLK1
  1

  9
$DIMBLK2
  1

  9
$DIMSTYLE
  2
Standard
  9
$DIMCLRD
 70
     0
  9
$DIMCLRE
 70
     0
  9
$DIMCLRT
 70
     0
  9
$DIMTFAC
 40
1.0
  9
$DIMGAP
 40
0.070198
  9
$DIMJUST
 70
     0
  9
$DIMSD1
 70
     0
  9
$DIMSD2
 70
     0
  9
$DIMTOLJ
 70
     0
  9
$DIMTZIN
 70
    11
  9
$DIMALTZ
 70
    15
  9
$DIMALTTZ
 70
    15
  9
$DIMUPT
 70
     0
  9
$DIMDEC
 70
     4
  9
$DIMTDEC
 70
     4
  9
$DIMALTU
 70
     2
  9
$DIMALTTD
 70
     4
  9
$DIMTXSTY
  7
Style-Arial
  9
$DIMAUNIT
 70
     0
  9
$DIMADEC
 70
     4
  9
$DIMALTRND
 40
0.0
  9
$DIMAZIN
 70
     3
  9
$DIMDSEP
 70
    46
  9
$DIMATFIT
 70
     1
  9
$DIMFRAC
 70
     0
  9
$DIMLDRBLK
  1
TerminatorOpen_0.5
  9
$DIMLUNIT
 70
     2
  9
$DIMLWD
 70
    -2
  9
$DIMLWE
 70
    -2
  9
$DIMTMOVE
 70
     0
  9
$LUNITS
 70
     2
  9
$LUPREC
 70
     4
  9
$SKETCHINC
 40
0.1
  9
$FILLETRAD
 40
0.0
  9
$AUNITS
 70
     0
  9
$AUPREC
 70
     4
  9
$MENU
  1
.
  9
$ELEVATION
 40
0.0
  9
$PELEVATION
 40
0.0
  9
$THICKNESS
 40
0.0
  9
$LIMCHECK
 70
     0
  9
$CHAMFERA
 40
0.0
  9
$CHAMFERB
 40
0.0
  9
$CHAMFERC
 40
0.0
  9
$CHAMFERD
 40
0.0
  9
$SKPOLY
 70
     0
  9
$TDCREATE
 40
2455372.53168228
  9
$TDUCREATE
 40
2455372.740015613
  9
$TDUPDATE
 40
2455372.53168228
  9
$TDUUPDATE
 40
2455372.740015613
  9
$TDINDWG
 40
0.0
  9
$TDUSRTIMER
 40
0.0006630093
  9
$USRTIMER
 70
     1
  9
$ANGBASE
 50
0.0
  9
$ANGDIR
 70
     0
  9
$PDMODE
 70
     0
  9
$PDSIZE
 40
0.0
  9
$PLINEWID
 40
0.0
  9
$SPLFRAME
 70
     0
  9
$SPLINETYPE
 70
     6
  9
$SPLINESEGS
 70
     8
  9
$HANDSEED
  5
5BC
  9
$SURFTAB1
 70
     6
  9
$SURFTAB2
 70
     6
  9
$SURFTYPE
 70
     6
  9
$SURFU
 70
     6
  9
$SURFV
 70
     6
  9
$UCSBASE
  2

  9
$UCSNAME
  2

  9
$UCSORG
 10
0.0
 20
0.0
 30
0.0
  9
$UCSXDIR
 10
1.0
 20
0.0
 30
0.0
  9
$UCSYDIR
 10
0.0
 20
1.0
 30
0.0
  9
$UCSORTHOREF
  2

  9
$UCSORTHOVIEW
 70
     0
  9
$UCSORGTOP
 10
0.0
 20
0.0
 30
0.0
  9
$UCSORGBOTTOM
 10
0.0
 20
0.0
 30
0.0
  9
$UCSORGLEFT
 10
0.0
 20
0.0
 30
0.0
  9
$UCSORGRIGHT
 10
0.0
 20
0.0
 30
0.0
  9
$UCSORGFRONT
 10
0.0
 20
0.0
 30
0.0
  9
$UCSORGBACK
 10
0.0
 20
0.0
 30
0.0
  9
$PUCSBASE
  2

  9
$PUCSNAME
  2

  9
$PUCSORG
 10
0.0
 20
0.0
 30
0.0
  9
$PUCSXDIR
 10
1.0
 20
0.0
 30
0.0
  9
$PUCSYDIR
 10
0.0
 20
1.0
 30
0.0
  9
$PUCSORTHOREF
  2

  9
$PUCSORTHOVIEW
 70
     0
  9
$PUCSORGTOP
 10
0.0
 20
0.0
 30
0.0
  9
$PUCSORGBOTTOM
 10
0.0
 20
0.0
 30
0.0
  9
$PUCSORGLEFT
 10
0.0
 20
0.0
 30
0.0
  9
$PUCSORGRIGHT
 10
0.0
 20
0.0
 30
0.0
  9
$PUCSORGFRONT
 10
0.0
 20
0.0
 30
0.0
  9
$PUCSORGBACK
 10
0.0
 20
0.0
 30
0.0
  9
$USERI1
 70
     0
  9
$USERI2
 70
     0
  9
$USERI3
 70
     0
  9
$USERI4
 70
     0
  9
$USERI5
 70
     0
  9
$USERR1
 40
0.0
  9
$USERR2
 40
0.0
  9
$USERR3
 40
0.0
  9
$USERR4
 40
0.0
  9
$USERR5
 40
0.0
  9
$WORLDVIEW
 70
     1
  9
$SHADEDGE
 70
     3
  9
$SHADEDIF
 70
    70
  9
$TILEMODE
 70
     1
  9
$MAXACTVP
 70
    64
  9
$PINSBASE
 10
0.0
 20
0.0
 30
0.0
  9
$PLIMCHECK
 70
     0
  9
$PEXTMIN
 10
1.049744
 20
0.799667
 30
-0.001526
  9
$PEXTMAX
 10
9.450623
 20
7.200577
 30
0.0
  9
$PLIMMIN
 10
-0.25
 20
-0.25
  9
$PLIMMAX
 10
10.75
 20
8.25
  9
$UNITMODE
 70
     0
  9
$VISRETAIN
 70
     1
  9
$PLINEGEN
 70
     0
  9
$PSLTSCALE
 70
     0
  9
$TREEDEPTH
 70
  3020
  9
$CMLSTYLE
  2
Standard
  9
$CMLJUST
 70
     0
  9
$CMLSCALE
 40
1.0
  9
$PROXYGRAPHICS
 70
     1
  9
$MEASUREMENT
 70
     0
  9
$CELWEIGHT
370
    13
  9
$ENDCAPS
280
     0
  9
$JOINSTYLE
280
     0
  9
$LWDISPLAY
290
     1
  9
$INSUNITS
 70
     2
  9
$HYPERLINKBASE
  1

  9
$STYLESHEET
  1

  9
$XEDIT
290
     1
  9
$CEPSNTYPE
380
     0
  9
$PSTYLEMODE
290
     1
  9
$FINGERPRINTGUID
  2
{02C0BBB5-38A7-4FBF-829E-00875EC88963}
  9
$VERSIONGUID
  2
{82C521FC-BF81-46B3-825E-420B6BD93A99}
  9
$EXTNAMES
290
     1
  9
$PSVPSCALE
 40
0.0
  9
$OLESTARTUP
290
     0
  9
$SORTENTS
280
   127
  9
$INDEXCTL
280
     0
  9
$HIDETEXT
280
     1
  9
$XCLIPFRAME
290
     0
  9
$HALOGAP
280
     0
  9
$OBSCOLOR
 70
   257
  9
$OBSLTYPE
280
     0
  9
$INTERSECTIONDISPLAY
280
     0
  9
$INTERSECTIONCOLOR
 70
   257
  9
$DIMASSOC
280
     1
  9
$PROJECTNAME
  1

  0
ENDSEC
  0
SECTION
  2
CLASSES
  0
CLASS
  1
ACDBDICTIONARYWDFLT
  2
AcDbDictionaryWithDefault
  3
ObjectDBX Classes
 90
        0
 91
        3
280
     0
281
     0
  0
CLASS
  1
SORTENTSTABLE
  2
AcDbSortentsTable
  3
ObjectDBX Classes
 90
        0
 91
        3
280
     0
281
     0
  0
ENDSEC
  0
SECTION
  2
TABLES
  0
TABLE
  2
VPORT
  5
59D
330
0
100
AcDbSymbolTable
 70
     4
  0
VPORT
  5
49
330
59D
100
AcDbSymbolTableRecord
100
AcDbViewportTableRecord
  2
*ACTIVE
 70
     0
 10
0.0
 20
0.0
 11
1.0
 21
1.0
 12
48.25
 22
5.5
 13
0.0
 23
0.0
 14
0.083333
 24
0.083333
 15
0.083333
 25
0.083333
 16
0.0
 26
0.0
 36
1.0
 17
0.0
 27
0.0
 37
0.0
 40
11.609607
 41
1.884937
 42
50.0
 43
0.0
 44
0.0
 50
0.0
 51
0.0
 71
     0
 72
   100
 73
     1
 74
     2
 75
     0
 76
     0
 77
     0
 78
     1
281
     0
 65
     1
110
0.0
120
0.0
130
0.0
111
1.0
121
0.0
131
0.0
112
0.0
122
1.0
132
0.0
 79
     0
146
0.0
  0
ENDTAB
  0
TABLE
  2
LTYPE
  5
584
330
0
100
AcDbSymbolTable
 70
     1
  0
LTYPE
  5
585
330
584
100
AcDbSymbolTableRecord
100
AcDbLinetypeTableRecord
  2
ByBlock
 70
     0
  3

 72
    65
 73
     0
 40
0.0
  0
LTYPE
  5
586
330
584
100
AcDbSymbolTableRecord
100
AcDbLinetypeTableRecord
  2
ByLayer
 70
     0
  3

 72
    65
 73
     0
 40
0.0
  0
LTYPE
  5
583
330
584
100
AcDbSymbolTableRecord
100
AcDbLinetypeTableRecord
  2
Continuous
 70
     0
  3
Solid line
 72
    65
 73
     0
 40
0.0
  0
ENDTAB
  0
TABLE
  2
LAYER
  5
57D
102
{ACAD_XDICTIONARY
360
57E
102
}
330
0
100
AcDbSymbolTable
 70
    64
  0
LAYER
  5
57C
330
57D
100
AcDbSymbolTableRecord
100
AcDbLayerTableRecord
  2
0
 70
     0
 62
     7
  6
Continuous
370
    -3
390
580
  0
LAYER
  5
7
330
57D
100
AcDbSymbolTableRecord
100
AcDbLayerTableRecord
  2
Level 1
 70
     0
 62
     7
  6
Continuous
370
     0
390
580
  0
LAYER
  5
8
330
57D
100
AcDbSymbolTableRecord
100
AcDbLayerTableRecord
  2
2-34C
 70
     0
 62
     7
  6
Continuous
370
     0
390
580
1001
AcAecLayerStandard
1000

1000
2-34C
  0
LAYER
  5
9
330
57D
100
AcDbSymbolTableRecord
100
AcDbLayerTableRecord
  2
BORDER
 70
     0
 62
     7
  6
Continuous
370
     0
390
580
1001
AcAecLayerStandard
1000

1000
BORDER
  0
LAYER
  5
A
330
57D
100
AcDbSymbolTableRecord
100
AcDbLayerTableRecord
  2
LEGEND
 70
     0
 62
     7
  6
Continuous
370
     0
390
580
1001
AcAecLayerStandard
1000

1000
LEGEND
  0
LAYER
  5
B
330
57D
100
AcDbSymbolTableRecord
100
AcDbLayerTableRecord
  2
DIM
 70
     0
 62
     7
  6
Continuous
370
     0
390
580
1001
AcAecLayerStandard
1000

1000
DIM
  0
LAYER
  5
C
330
57D
100
AcDbSymbolTableRecord
100
AcDbLayerTableRecord
  2
HATCH
 70
     0
 62
     7
  6
Continuous
370
     0
390
580
1001
AcAecLayerStandard
1000

1000
HATCH
  0
LAYER
  5
D
330
57D
100
AcDbSymbolTableRecord
100
AcDbLayerTableRecord
  2
NOTES
 70
     0
 62
     7
  6
Continuous
370
     0
390
580
1001
AcAecLayerStandard
1000

1000
NOTES
  0
LAYER
  5
E
330
57D
100
AcDbSymbolTableRecord
100
AcDbLayerTableRecord
  2
TEXT
 70
     0
 62
     7
  6
Continuous
370
     0
390
580
1001
AcAecLayerStandard
1000

1000
TEXT
  0
LAYER
  5
F
330
57D
100
AcDbSymbolTableRecord
100
AcDbLayerTableRecord
  2
TITLE
 70
     0
 62
     7
  6
Continuous
370
     0
390
580
1001
AcAecLayerStandard
1000

1000
TITLE
  0
LAYER
  5
10
330
57D
100
AcDbSymbolTableRecord
100
AcDbLayerTableRecord
  2
Level 10
 70
     0
 62
     7
  6
Continuous
370
     0
390
580
  0
LAYER
  5
11
330
57D
100
AcDbSymbolTableRecord
100
AcDbLayerTableRecord
  2
Level 11
 70
     0
 62
     7
  6
Continuous
370
     0
390
580
  0
LAYER
  5
12
330
57D
100
AcDbSymbolTableRecord
100
AcDbLayerTableRecord
  2
Level 12
 70
     0
 62
     7
  6
Continuous
370
     0
390
580
  0
LAYER
  5
13
330
57D
100
AcDbSymbolTableRecord
100
AcDbLayerTableRecord
  2
Level 13
 70
     0
 62
     7
  6
Continuous
370
     0
390
580
  0
LAYER
  5
14
330
57D
100
AcDbSymbolTableRecord
100
AcDbLayerTableRecord
  2
Level 14
 70
     0
 62
     7
  6
Continuous
370
     0
390
580
  0
LAYER
  5
15
330
57D
100
AcDbSymbolTableRecord
100
AcDbLayerTableRecord
  2
Level 15
 70
     0
 62
     7
  6
Continuous
370
     0
390
580
  0
LAYER
  5
16
330
57D
100
AcDbSymbolTableRecord
100
AcDbLayerTableRecord
  2
Level 16
 70
     0
 62
     7
  6
Continuous
370
     0
390
580
  0
LAYER
  5
17
330
57D
100
AcDbSymbolTableRecord
100
AcDbLayerTableRecord
  2
Level 17
 70
     0
 62
     7
  6
Continuous
370
     0
390
580
  0
LAYER
  5
18
330
57D
100
AcDbSymbolTableRecord
100
AcDbLayerTableRecord
  2
Level 18
 70
     0
 62
     7
  6
Continuous
370
     0
390
580
  0
LAYER
  5
19
330
57D
100
AcDbSymbolTableRecord
100
AcDbLayerTableRecord
  2
Level 19
 70
     0
 62
     7
  6
Continuous
370
     0
390
580
  0
LAYER
  5
1A
330
57D
100
AcDbSymbolTableRecord
100
AcDbLayerTableRecord
  2
Level 20
 70
     0
 62
     7
  6
Continuous
370
     0
390
580
  0
LAYER
  5
1B
330
57D
100
AcDbSymbolTableRecord
100
AcDbLayerTableRecord
  2
Level 21
 70
     0
 62
     7
  6
Continuous
370
     0
390
580
  0
LAYER
  5
1C
330
57D
100
AcDbSymbolTableRecord
100
AcDbLayerTableRecord
  2
Level 22
 70
     0
 62
     7
  6
Continuous
370
     0
390
580
  0
LAYER
  5
1D
330
57D
100
AcDbSymbolTableRecord
100
AcDbLayerTableRecord
  2
Level 23
 70
     0
 62
     7
  6
Continuous
370
     0
390
580
  0
LAYER
  5
1E
330
57D
100
AcDbSymbolTableRecord
100
AcDbLayerTableRecord
  2
Level 24
 70
     0
 62
     7
  6
Continuous
370
     0
390
580
  0
LAYER
  5
1F
330
57D
100
AcDbSymbolTableRecord
100
AcDbLayerTableRecord
  2
Level 25
 70
     0
 62
     7
  6
Continuous
370
     0
390
580
  0
LAYER
  5
20
330
57D
100
AcDbSymbolTableRecord
100
AcDbLayerTableRecord
  2
Level 26
 70
     0
 62
     7
  6
Continuous
370
     0
390
580
  0
LAYER
  5
21
330
57D
100
AcDbSymbolTableRecord
100
AcDbLayerTableRecord
  2
Level 27
 70
     0
 62
     7
  6
Continuous
370
     0
390
580
  0
LAYER
  5
22
330
57D
100
AcDbSymbolTableRecord
100
AcDbLayerTableRecord
  2
Level 28
 70
     0
 62
     7
  6
Continuous
370
     0
390
580
  0
LAYER
  5
23
330
57D
100
AcDbSymbolTableRecord
100
AcDbLayerTableRecord
  2
Level 29
 70
     0
 62
     7
  6
Continuous
370
     0
390
580
  0
LAYER
  5
24
330
57D
100
AcDbSymbolTableRecord
100
AcDbLayerTableRecord
  2
Level 30
 70
     0
 62
     7
  6
Continuous
370
     0
390
580
  0
LAYER
  5
25
330
57D
100
AcDbSymbolTableRecord
100
AcDbLayerTableRecord
  2
Level 31
 70
     0
 62
     7
  6
Continuous
370
     0
390
580
  0
LAYER
  5
26
330
57D
100
AcDbSymbolTableRecord
100
AcDbLayerTableRecord
  2
Level 32
 70
     0
 62
     7
  6
Continuous
370
     0
390
580
  0
LAYER
  5
27
330
57D
100
AcDbSymbolTableRecord
100
AcDbLayerTableRecord
  2
Level 33
 70
     0
 62
     7
  6
Continuous
370
     0
390
580
  0
LAYER
  5
28
330
57D
100
AcDbSymbolTableRecord
100
AcDbLayerTableRecord
  2
Level 34
 70
     0
 62
     7
  6
Continuous
370
     0
390
580
  0
LAYER
  5
29
330
57D
100
AcDbSymbolTableRecord
100
AcDbLayerTableRecord
  2
Level 35
 70
     0
 62
     7
  6
Continuous
370
     0
390
580
  0
LAYER
  5
2A
330
57D
100
AcDbSymbolTableRecord
100
AcDbLayerTableRecord
  2
Level 36
 70
     0
 62
     7
  6
Continuous
370
     0
390
580
  0
LAYER
  5
2B
330
57D
100
AcDbSymbolTableRecord
100
AcDbLayerTableRecord
  2
Level 37
 70
     0
 62
     7
  6
Continuous
370
     0
390
580
  0
LAYER
  5
2C
330
57D
100
AcDbSymbolTableRecord
100
AcDbLayerTableRecord
  2
Level 38
 70
     0
 62
     7
  6
Continuous
370
     0
390
580
  0
LAYER
  5
2D
330
57D
100
AcDbSymbolTableRecord
100
AcDbLayerTableRecord
  2
Level 39
 70
     0
 62
     7
  6
Continuous
370
     0
390
580
  0
LAYER
  5
2E
330
57D
100
AcDbSymbolTableRecord
100
AcDbLayerTableRecord
  2
Level 40
 70
     0
 62
     7
  6
Continuous
370
     0
390
580
  0
LAYER
  5
2F
330
57D
100
AcDbSymbolTableRecord
100
AcDbLayerTableRecord
  2
Level 41
 70
     0
 62
     7
  6
Continuous
370
     0
390
580
  0
LAYER
  5
30
330
57D
100
AcDbSymbolTableRecord
100
AcDbLayerTableRecord
  2
Level 42
 70
     0
 62
     7
  6
Continuous
370
     0
390
580
  0
LAYER
  5
31
330
57D
100
AcDbSymbolTableRecord
100
AcDbLayerTableRecord
  2
Level 43
 70
     0
 62
     7
  6
Continuous
370
     0
390
580
  0
LAYER
  5
32
330
57D
100
AcDbSymbolTableRecord
100
AcDbLayerTableRecord
  2
Level 44
 70
     0
 62
     7
  6
Continuous
370
     0
390
580
  0
LAYER
  5
33
330
57D
100
AcDbSymbolTableRecord
100
AcDbLayerTableRecord
  2
Level 45
 70
     0
 62
     7
  6
Continuous
370
     0
390
580
  0
LAYER
  5
34
330
57D
100
AcDbSymbolTableRecord
100
AcDbLayerTableRecord
  2
Level 46
 70
     0
 62
     7
  6
Continuous
370
     0
390
580
  0
LAYER
  5
35
330
57D
100
AcDbSymbolTableRecord
100
AcDbLayerTableRecord
  2
Level 47
 70
     0
 62
     7
  6
Continuous
370
     0
390
580
  0
LAYER
  5
36
330
57D
100
AcDbSymbolTableRecord
100
AcDbLayerTableRecord
  2
Level 48
 70
     0
 62
     7
  6
Continuous
370
     0
390
580
  0
LAYER
  5
37
330
57D
100
AcDbSymbolTableRecord
100
AcDbLayerTableRecord
  2
Level 49
 70
     0
 62
     7
  6
Continuous
370
     0
390
580
  0
LAYER
  5
38
330
57D
100
AcDbSymbolTableRecord
100
AcDbLayerTableRecord
  2
Level 50
 70
     0
 62
     7
  6
Continuous
370
     0
390
580
  0
LAYER
  5
39
330
57D
100
AcDbSymbolTableRecord
100
AcDbLayerTableRecord
  2
Level 51
 70
     0
 62
     7
  6
Continuous
370
     0
390
580
  0
LAYER
  5
3A
330
57D
100
AcDbSymbolTableRecord
100
AcDbLayerTableRecord
  2
Level 52
 70
     0
 62
     7
  6
Continuous
370
     0
390
580
  0
LAYER
  5
3B
330
57D
100
AcDbSymbolTableRecord
100
AcDbLayerTableRecord
  2
Level 53
 70
     0
 62
     7
  6
Continuous
370
     0
390
580
  0
LAYER
  5
3C
330
57D
100
AcDbSymbolTableRecord
100
AcDbLayerTableRecord
  2
Level 54
 70
     0
 62
     7
  6
Continuous
370
     0
390
580
  0
LAYER
  5
3D
330
57D
100
AcDbSymbolTableRecord
100
AcDbLayerTableRecord
  2
Level 55
 70
     0
 62
     7
  6
Continuous
370
     0
390
580
  0
LAYER
  5
3E
330
57D
100
AcDbSymbolTableRecord
100
AcDbLayerTableRecord
  2
Level 56
 70
     0
 62
     7
  6
Continuous
370
     0
390
580
  0
LAYER
  5
3F
330
57D
100
AcDbSymbolTableRecord
100
AcDbLayerTableRecord
  2
Level 57
 70
     0
 62
     7
  6
Continuous
370
     0
390
580
  0
LAYER
  5
40
330
57D
100
AcDbSymbolTableRecord
100
AcDbLayerTableRecord
  2
Level 58
 70
     0
 62
     7
  6
Continuous
370
     0
390
580
  0
LAYER
  5
41
330
57D
100
AcDbSymbolTableRecord
100
AcDbLayerTableRecord
  2
Level 59
 70
     0
 62
     7
  6
Continuous
370
     0
390
580
  0
LAYER
  5
42
330
57D
100
AcDbSymbolTableRecord
100
AcDbLayerTableRecord
  2
Level 60
 70
     0
 62
     7
  6
Continuous
370
     0
390
580
  0
LAYER
  5
43
330
57D
100
AcDbSymbolTableRecord
100
AcDbLayerTableRecord
  2
Level 61
 70
     0
 62
     7
  6
Continuous
370
     0
390
580
  0
LAYER
  5
44
330
57D
100
AcDbSymbolTableRecord
100
AcDbLayerTableRecord
  2
Level 62
 70
     0
 62
     7
  6
Continuous
370
     0
390
580
  0
LAYER
  5
45
330
57D
100
AcDbSymbolTableRecord
100
AcDbLayerTableRecord
  2
_0
 70
     0
 62
     7
  6
Continuous
370
     0
390
580
1001
AcAecLayerStandard
1000

1000
0
  0
ENDTAB
  0
TABLE
  2
STYLE
  5
588
330
0
100
AcDbSymbolTable
 70
     2
  0
STYLE
  5
587
330
588
100
AcDbSymbolTableRecord
100
AcDbTextStyleTableRecord
  2
Standard
 70
     0
 40
0.0
 41
1.0
 50
0.0
 71
     0
 42
0.140396
  3
txt
  4

  0
STYLE
  5
5A7
330
588
100
AcDbSymbolTableRecord
100
AcDbTextStyleTableRecord
  2
Style-Arial
 70
     0
 40
0.0
 41
1.0
 50
0.0
 71
     0
 42
0.2
  3

  4

1001
ACAD
1000
Arial
1071
       39
  0
ENDTAB
  0
TABLE
  2
VIEW
  5
59B
330
0
100
AcDbSymbolTable
 70
     0
  0
ENDTAB
  0
TABLE
  2
UCS
  5
59C
330
0
100
AcDbSymbolTable
 70
     0
  0
ENDTAB
  0
TABLE
  2
APPID
  5
59A
330
0
100
AcDbSymbolTable
 70
     3
  0
APPID
  5
5A2
330
59A
100
AcDbSymbolTableRecord
100
AcDbRegAppTableRecord
  2
ACAD
 70
     0
  0
APPID
  5
599
330
59A
100
AcDbSymbolTableRecord
100
AcDbRegAppTableRecord
  2
ACAD_PSEXT
 70
     0
  0
APPID
  5
5A4
330
59A
100
AcDbSymbolTableRecord
100
AcDbRegAppTableRecord
  2
AcAecLayerStandard
 70
     0
  0
ENDTAB
  0
TABLE
  2
DIMSTYLE
  5
58A
330
0
100
AcDbSymbolTable
 70
     1
100
AcDbDimStyleTable
  0
DIMSTYLE
105
589
330
58A
100
AcDbSymbolTableRecord
100
AcDbDimStyleTableRecord
  2
Standard
 70
     0
340
587
  0
ENDTAB
  0
TABLE
  2
BLOCK_RECORD
  5
58D
330
0
100
AcDbSymbolTable
 70
     3
  0
BLOCK_RECORD
  5
58E
102
{ACAD_XDICTIONARY
360
5B7
102
}
330
58D
100
AcDbSymbolTableRecord
100
AcDbBlockTableRecord
  2
*Model_Space
340
591
  0
BLOCK_RECORD
  5
593
330
58D
100
AcDbSymbolTableRecord
100
AcDbBlockTableRecord
  2
*Paper_Space
340
596
  0
BLOCK_RECORD
  5
5A8
330
58D
100
AcDbSymbolTableRecord
100
AcDbBlockTableRecord
  2
TerminatorOpen_0.5
340
0
  0
BLOCK_RECORD
  5
5B1
330
58D
100
AcDbSymbolTableRecord
100
AcDbBlockTableRecord
  2
LARROW
340
0
102
{BLKREFS
331
4EA
331
4EC
331
4EE
331
4F0
331
4F2
102
}
  0
BLOCK_RECORD
  5
5B4
330
58D
100
AcDbSymbolTableRecord
100
AcDbBlockTableRecord
  2
LARROW_1
340
0
102
{BLKREFS
331
4F4
331
4FF
331
50A
331
515
331
520
102
}
  0
ENDTAB
  0
ENDSEC
  0
SECTION
  2
BLOCKS
  0
BLOCK
  5
58F
330
58E
100
AcDbEntity
  8
0
100
AcDbBlockBegin
  2
*Model_Space
 70
     0
 71
     0
 10
0.0
 20
0.0
 30
0.0
  3
*Model_Space
  1

  0
ENDBLK
  5
590
330
58E
100
AcDbEntity
  8
0
100
AcDbBlockEnd
  0
BLOCK
  5
594
330
593
100
AcDbEntity
 67
     1
  8
0
100
AcDbBlockBegin
  2
*Paper_Space
 70
     0
 71
     0
 10
0.0
 20
0.0
 30
0.0
  3
*Paper_Space
  1

  0
ENDBLK
  5
595
330
593
100
AcDbEntity
 67
     1
  8
0
100
AcDbBlockEnd
  0
BLOCK
  5
5AC
330
5A8
100
AcDbEntity
  8
0
100
AcDbBlockBegin
  2
TerminatorOpen_0.5
 70
     0
 71
     0
 10
0.0
 20
0.0
 30
0.0
  3
TerminatorOpen_0.5
  1

  0
LINE
  5
5A9
330
5A8
100
AcDbEntity
  8
0
  6
ByBlock
 62
     0
370
    -2
100
AcDbLine
 10
0.0
 20
0.0
 30
0.0
 11
-1.0
 21
0.0
 31
0.0
  0
LINE
  5
5AA
330
5A8
100
AcDbEntity
  8
0
  6
ByBlock
 62
     0
370
    -2
100
AcDbLine
 10
0.0
 20
0.0
 30
0.0
 11
-1.0
 21
0.25
 31
0.0
  0
LINE
  5
5AB
330
5A8
100
AcDbEntity
  8
0
  6
ByBlock
 62
     0
370
    -2
100
AcDbLine
 10
0.0
 20
0.0
 30
0.0
 11
-1.0
 21
-0.25
 31
0.0
  0
ENDBLK
  5
5AD
330
5A8
100
AcDbEntity
  8
0
100
AcDbBlockEnd
  0
BLOCK
  5
5B2
330
5B1
100
AcDbEntity
  8
0
100
AcDbBlockBegin
  2
LARROW
 70
     0
 71
     0
 10
0.0
 20
0.0
 30
0.0
  3
LARROW
  1

  0
LWPOLYLINE
  5
4EB
330
5B1
100
AcDbEntity
  8
DIM
  6
Continuous
 62
     7
370
    13
100
AcDbPolyline
 90
       63
 70
   128
 43
0.0
 10
-0.013031
 20
0.001885
 10
0.0
 20
0.0
 10
-0.013021
 20
-0.001885
 10
-0.012615
 20
-0.001573
 10
-0.012042
 20
-0.001011
 10
-0.011761
 20
-0.00049
 10
-0.011688
 20
0.0
 10
-0.011791
 20
0.000552
 10
-0.012094
 20
0.001094
 10
-0.012677
 20
0.001625
 10
-0.013031
 20
0.001885
 10
-0.000385
 20
0.000021
 10
-0.012604
 20
-0.00176
 10
-0.012229
 20
-0.001479
 10
-0.011625
 20
-0.000906
 10
-0.011428
 20
-0.000167
 10
-0.011562
 20
0.000573
 10
-0.011917
 20
0.001083
 10
-0.012344
 20
0.0015
 10
-0.012635
 20
0.001729
 10
-0.001073
 20
0.000021
 10
-0.012052
 20
-0.001552
 10
-0.011666
 20
-0.001302
 10
-0.011469
 20
-0.000979
 10
-0.01125
 20
-0.000562
 10
-0.011135
 20
0.000021
 10
-0.011198
 20
0.0005
 10
-0.011427
 20
0.000875
 10
-0.011896
 20
0.001177
 10
-0.012208
 20
0.001542
 10
-0.001875
 20
0.000021
 10
-0.011448
 20
-0.001323
 10
-0.011021
 20
-0.000792
 10
-0.010895
 20
-0.000146
 10
-0.010959
 20
0.000573
 10
-0.011781
 20
0.001354
 10
-0.002771
 20
0.000063
 10
-0.010895
 20
-0.001073
 10
-0.010781
 20
-0.000698
 10
-0.010531
 20
-0.000094
 10
-0.010688
 20
0.000552
 10
-0.011333
 20
0.001125
 10
-0.003594
 20
0.000063
 10
-0.010604
 20
-0.000834
 10
-0.010375
 20
-0.000375
 10
-0.010271
 20
0.000115
 10
-0.01076
 20
0.000875
 10
-0.004573
 20
0.000063
 10
-0.010177
 20
-0.000625
 10
-0.010021
 20
-0.000281
 10
-0.009979
 20
0.000114
 10
-0.010375
 20
0.000667
 10
-0.005739
 20
0.000063
 10
-0.009823
 20
-0.000396
 10
-0.009708
 20
0.000135
 10
-0.010083
 20
0.000459
 10
-0.006698
 20
0.000063
 10
-0.009552
 20
-0.000239
 10
-0.009614
 20
0.000271
 10
-0.007677
 20
0.000062
 10
-0.009437
 20
-0.000073
 10
-0.00949
 20
0.000083
 10
-0.008885
 20
0.000084
  0
ENDBLK
  5
5B3
330
5B1
100
AcDbEntity
  8
0
100
AcDbBlockEnd
  0
BLOCK
  5
5B5
330
5B4
100
AcDbEntity
  8
0
100
AcDbBlockBegin
  2
LARROW_1
 70
     0
 71
     0
 10
0.0
 20
0.0
 30
0.0
  3
LARROW_1
  1

  0
LINE
  5
4F5
330
5B4
100
AcDbEntity
  8
LEGEND
  6
Continuous
 62
     7
370
    13
100
AcDbLine
 10
0.0
 20
0.0
 30
0.0
 11
-0.013031
 21
0.001885
 31
0.0
  0
LINE
  5
4F6
330
5B4
100
AcDbEntity
  8
LEGEND
  6
Continuous
 62
     7
370
    13
100
AcDbLine
 10
0.0
 20
0.0
 30
0.0
 11
-0.013021
 21
-0.001885
 31
0.0
  0
LWPOLYLINE
  5
4F7
330
5B4
100
AcDbEntity
  8
LEGEND
  6
Continuous
 62
     7
370
    13
100
AcDbPolyline
 90
        9
 70
   128
 43
0.0
 10
-0.013031
 20
0.001885
 10
-0.01225
 20
0.001292
 10
-0.011896
 20
0.000812
 10
-0.011719
 20
0.000365
 10
-0.011687
 20
-0.000052
 10
-0.01175
 20
-0.000458
 10
-0.011958
 20
-0.000896
 10
-0.012323
 20
-0.001354
 10
-0.013021
 20
-0.001885
  0
LINE
  5
4F8
330
5B4
100
AcDbEntity
  8
LEGEND
  6
Continuous
 62
     7
370
    13
100
AcDbLine
 10
0.0
 20
0.0
 30
0.0
 11
-0.01225
 21
0.001292
 31
0.0
  0
LINE
  5
4F9
330
5B4
100
AcDbEntity
  8
LEGEND
  6
Continuous
 62
     7
370
    13
100
AcDbLine
 10
0.0
 20
0.0
 30
0.0
 11
-0.011896
 21
0.000812
 31
0.0
  0
LINE
  5
4FA
330
5B4
100
AcDbEntity
  8
LEGEND
  6
Continuous
 62
     7
370
    13
100
AcDbLine
 10
0.0
 20
0.0
 30
0.0
 11
-0.011719
 21
0.000365
 31
0.0
  0
LINE
  5
4FB
330
5B4
100
AcDbEntity
  8
LEGEND
  6
Continuous
 62
     7
370
    13
100
AcDbLine
 10
0.0
 20
0.0
 30
0.0
 11
-0.01175
 21
-0.000458
 31
0.0
  0
LINE
  5
4FC
330
5B4
100
AcDbEntity
  8
LEGEND
  6
Continuous
 62
     7
370
    13
100
AcDbLine
 10
0.0
 20
0.0
 30
0.0
 11
-0.011958
 21
-0.000896
 31
0.0
  0
LINE
  5
4FD
330
5B4
100
AcDbEntity
  8
LEGEND
  6
Continuous
 62
     7
370
    13
100
AcDbLine
 10
0.0
 20
0.0
 30
0.0
 11
-0.012323
 21
-0.001354
 31
0.0
  0
LINE
  5
4FE
330
5B4
100
AcDbEntity
  8
LEGEND
  6
Continuous
 62
     7
370
    13
100
AcDbLine
 10
0.0
 20
0.0
 30
0.0
 11
-0.011677
 21
0.0
 31
0.0
  0
ENDBLK
  5
5B6
330
5B4
100
AcDbEntity
  8
0
100
AcDbBlockEnd
  0
ENDSEC
  0
SECTION
  2
ENTITIES
  0
POINT
  5
5B
330
58E
100
AcDbEntity
  8
BORDER
  6
Continuous
 62
     7
370
    30
100
AcDbPoint
 10
44.625
 20
0.986906
 30
0.0
  0
LINE
  5
65
330
58E
100
AcDbEntity
  8
BORDER
  6
Continuous
 62
     7
370
    30
100
AcDbLine
 10
49.675
 20
0.986906
 30
0.0
 11
49.675
 21
1.486906
 31
0.0
  0
LINE
  5
66
330
58E
100
AcDbEntity
  8
BORDER
  6
Continuous
 62
     7
370
    30
100
AcDbLine
 10
50.775
 20
0.986906
 30
0.0
 11
50.775
 21
1.486906
 31
0.0
  0
LINE
  5
67
330
58E
100
AcDbEntity
  8
BORDER
  6
Continuous
 62
     7
370
    30
100
AcDbLine
 10
44.625
 20
0.986906
 30
0.0
 11
51.875
 21
0.986906
 31
0.0
  0
LINE
  5
68
330
58E
100
AcDbEntity
  8
BORDER
  6
Continuous
 62
     7
370
    30
100
AcDbLine
 10
44.625
 20
1.486906
 30
0.0
 11
51.875
 21
1.486906
 31
0.0
  0
LINE
  5
69
330
58E
100
AcDbEntity
  8
BORDER
  6
Continuous
 62
     7
370
    30
100
AcDbLine
 10
44.625
 20
0.986906
 30
0.0
 11
44.625
 21
10.086906
 31
0.0
  0
LINE
  5
6A
330
58E
100
AcDbEntity
  8
BORDER
  6
Continuous
 62
     7
370
    30
100
AcDbLine
 10
44.625
 20
10.086906
 30
0.0
 11
51.875
 21
10.086906
 31
0.0
  0
LINE
  5
6B
330
58E
100
AcDbEntity
  8
BORDER
  6
Continuous
 62
     7
370
    30
100
AcDbLine
 10
51.875
 20
0.986906
 30
0.0
 11
51.875
 21
10.086906
 31
0.0
  0
LINE
  5
73
330
58E
100
AcDbEntity
  8
_0
  6
Continuous
 62
     7
370
    30
100
AcDbLine
 10
45.325
 20
8.386906
 30
0.0
 11
51.175
 21
8.386906
 31
0.0
  0
LINE
  5
74
330
58E
100
AcDbEntity
  8
_0
  6
Continuous
 62
     7
370
    30
100
AcDbLine
 10
46.388417
 20
8.211906
 30
0.0
 11
46.988417
 21
8.211906
 31
0.0
  0
LINE
  5
75
330
58E
100
AcDbEntity
  8
_0
  6
Continuous
 62
     7
370
    30
100
AcDbLine
 10
46.388417
 20
8.136906
 30
0.0
 11
46.988417
 21
8.136906
 31
0.0
  0
LINE
  5
76
330
58E
100
AcDbEntity
  8
_0
  6
Continuous
 62
     7
370
    30
100
AcDbLine
 10
45.325
 20
7.886906
 30
0.0
 11
47.388417
 21
7.886906
 31
0.0
  0
LINE
  5
77
330
58E
100
AcDbEntity
  8
_0
  6
Continuous
 62
     7
370
    30
100
AcDbLine
 10
49.788417
 20
7.886906
 30
0.0
 11
49.788417
 21
8.386906
 31
0.0
  0
LINE
  5
78
330
58E
100
AcDbEntity
  8
_0
  6
Continuous
 62
     7
370
    30
100
AcDbLine
 10
46.688417
 20
7.886906
 30
0.0
 11
46.688417
 21
8.386906
 31
0.0
  0
LINE
  5
79
330
58E
100
AcDbEntity
  8
_0
  6
Continuous
 62
     7
370
    30
100
AcDbLine
 10
46.988417
 20
8.136906
 30
0.0
 11
46.988417
 21
8.211906
 31
0.0
  0
LINE
  5
7A
330
58E
100
AcDbEntity
  8
_0
  6
Continuous
 62
     7
370
    30
100
AcDbLine
 10
46.388417
 20
8.136906
 30
0.0
 11
46.388417
 21
8.211906
 31
0.0
  0
LINE
  5
7B
330
58E
100
AcDbEntity
  8
_0
  6
Continuous
 62
     7
370
    30
100
AcDbLine
 10
50.088417
 20
8.136906
 30
0.0
 11
50.088417
 21
8.211906
 31
0.0
  0
LINE
  5
7C
330
58E
100
AcDbEntity
  8
_0
  6
Continuous
 62
     7
370
    30
100
AcDbLine
 10
49.488417
 20
8.136906
 30
0.0
 11
49.488417
 21
8.211906
 31
0.0
  0
LINE
  5
7D
330
58E
100
AcDbEntity
  8
_0
  6
Continuous
 62
     7
370
    30
100
AcDbLine
 10
49.488417
 20
8.211906
 30
0.0
 11
50.088417
 21
8.211906
 31
0.0
  0
LINE
  5
7E
330
58E
100
AcDbEntity
  8
_0
  6
Continuous
 62
     7
370
    30
100
AcDbLine
 10
49.488417
 20
8.136906
 30
0.0
 11
50.088417
 21
8.136906
 31
0.0
  0
CIRCLE
  5
7F
330
58E
100
AcDbEntity
  8
_0
  6
Continuous
 62
     7
370
    30
100
AcDbCircle
 10
48.238416
 20
6.009352
 30
0.0
 40
0.21875
  0
LINE
  5
8A
330
58E
100
AcDbEntity
  8
_0
  6
Continuous
 62
     7
370
    30
100
AcDbLine
 10
49.088417
 20
7.886906
 30
0.0
 11
51.175
 21
7.886906
 31
0.0
  0
LINE
  5
8B
330
58E
100
AcDbEntity
  8
_0
  6
Continuous
 62
     7
370
    30
100
AcDbLine
 10
48.510177
 20
5.936906
 30
0.0
 11
49.088417
 21
5.936906
 31
0.0
  0
LINE
  5
8C
330
58E
100
AcDbEntity
  8
_0
  6
Continuous
 62
     7
370
    30
100
AcDbLine
 10
49.088417
 20
5.936906
 30
0.0
 11
49.088417
 21
7.886906
 31
0.0
  0
LINE
  5
8D
330
58E
100
AcDbEntity
  8
_0
  6
Continuous
 62
     7
370
    30
100
AcDbLine
 10
49.088417
 20
7.886906
 30
0.0
 11
47.388417
 21
7.886906
 31
0.0
  0
LINE
  5
8E
330
58E
100
AcDbEntity
  8
_0
  6
Continuous
 62
     7
370
    30
100
AcDbLine
 10
47.388417
 20
7.886906
 30
0.0
 11
47.388417
 21
5.936906
 31
0.0
  0
LINE
  5
8F
330
58E
100
AcDbEntity
  8
_0
  6
Continuous
 62
     7
370
    30
100
AcDbLine
 10
47.388417
 20
5.936906
 30
0.0
 11
47.966656
 21
5.936906
 31
0.0
  0
CIRCLE
  5
90
330
58E
100
AcDbEntity
  8
_0
  6
Continuous
 62
     7
370
    30
100
AcDbCircle
 10
48.238416
 20
6.009352
 30
0.0
 40
0.2812500000000006
  0
LINE
  5
91
330
58E
100
AcDbEntity
  8
HATCH
  6
Continuous
 62
     7
370
    30
100
AcDbLine
 10
46.683833
 20
8.136906
 30
0.0
 11
46.758833
 21
8.211906
 31
0.0
  0
LINE
  5
92
330
58E
100
AcDbEntity
  8
HATCH
  6
Continuous
 62
     7
370
    30
100
AcDbLine
 10
46.613125
 20
8.136906
 30
0.0
 11
46.688125
 21
8.211906
 31
0.0
  0
LINE
  5
93
330
58E
100
AcDbEntity
  8
HATCH
  6
Continuous
 62
     7
370
    30
100
AcDbLine
 10
46.542406
 20
8.136906
 30
0.0
 11
46.617406
 21
8.211906
 31
0.0
  0
LINE
  5
94
330
58E
100
AcDbEntity
  8
HATCH
  6
Continuous
 62
     7
370
    30
100
AcDbLine
 10
46.471698
 20
8.136906
 30
0.0
 11
46.546698
 21
8.211906
 31
0.0
  0
LINE
  5
95
330
58E
100
AcDbEntity
  8
HATCH
  6
Continuous
 62
     7
370
    30
100
AcDbLine
 10
46.40099
 20
8.136906
 30
0.0
 11
46.47599
 21
8.211906
 31
0.0
  0
LINE
  5
96
330
58E
100
AcDbEntity
  8
HATCH
  6
Continuous
 62
     7
370
    30
100
AcDbLine
 10
46.388417
 20
8.195042
 30
0.0
 11
46.405281
 21
8.211906
 31
0.0
  0
LINE
  5
97
330
58E
100
AcDbEntity
  8
HATCH
  6
Continuous
 62
     7
370
    30
100
AcDbLine
 10
46.754542
 20
8.136906
 30
0.0
 11
46.829542
 21
8.211906
 31
0.0
  0
LINE
  5
98
330
58E
100
AcDbEntity
  8
HATCH
  6
Continuous
 62
     7
370
    30
100
AcDbLine
 10
46.82525
 20
8.136906
 30
0.0
 11
46.90025
 21
8.211906
 31
0.0
  0
LINE
  5
99
330
58E
100
AcDbEntity
  8
HATCH
  6
Continuous
 62
     7
370
    30
100
AcDbLine
 10
46.895958
 20
8.136906
 30
0.0
 11
46.970958
 21
8.211906
 31
0.0
  0
LINE
  5
9A
330
58E
100
AcDbEntity
  8
HATCH
  6
Continuous
 62
     7
370
    30
100
AcDbLine
 10
46.966677
 20
8.136906
 30
0.0
 11
46.988417
 21
8.158646
 31
0.0
  0
LINE
  5
9B
330
58E
100
AcDbEntity
  8
HATCH
  6
Continuous
 62
     7
370
    30
100
AcDbLine
 10
49.795104
 20
8.136906
 30
0.0
 11
49.870104
 21
8.211906
 31
0.0
  0
LINE
  5
9C
330
58E
100
AcDbEntity
  8
HATCH
  6
Continuous
 62
     7
370
    30
100
AcDbLine
 10
49.724385
 20
8.136906
 30
0.0
 11
49.799385
 21
8.211906
 31
0.0
  0
LINE
  5
9D
330
58E
100
AcDbEntity
  8
HATCH
  6
Continuous
 62
     7
370
    30
100
AcDbLine
 10
49.653677
 20
8.136906
 30
0.0
 11
49.728677
 21
8.211906
 31
0.0
  0
LINE
  5
9E
330
58E
100
AcDbEntity
  8
HATCH
  6
Continuous
 62
     7
370
    30
100
AcDbLine
 10
49.582969
 20
8.136906
 30
0.0
 11
49.657969
 21
8.211906
 31
0.0
  0
LINE
  5
9F
330
58E
100
AcDbEntity
  8
HATCH
  6
Continuous
 62
     7
370
    30
100
AcDbLine
 10
49.51226
 20
8.136906
 30
0.0
 11
49.58726
 21
8.211906
 31
0.0
  0
LINE
  5
A0
330
58E
100
AcDbEntity
  8
HATCH
  6
Continuous
 62
     7
370
    30
100
AcDbLine
 10
49.488417
 20
8.183771
 30
0.0
 11
49.516552
 21
8.211906
 31
0.0
  0
LINE
  5
A1
330
58E
100
AcDbEntity
  8
HATCH
  6
Continuous
 62
     7
370
    30
100
AcDbLine
 10
49.865812
 20
8.136906
 30
0.0
 11
49.940812
 21
8.211906
 31
0.0
  0
LINE
  5
A2
330
58E
100
AcDbEntity
  8
HATCH
  6
Continuous
 62
     7
370
    30
100
AcDbLine
 10
49.936521
 20
8.136906
 30
0.0
 11
50.011521
 21
8.211906
 31
0.0
  0
LINE
  5
A3
330
58E
100
AcDbEntity
  8
HATCH
  6
Continuous
 62
     7
370
    30
100
AcDbLine
 10
50.007229
 20
8.136906
 30
0.0
 11
50.082229
 21
8.211906
 31
0.0
  0
LINE
  5
A4
330
58E
100
AcDbEntity
  8
HATCH
  6
Continuous
 62
     7
370
    30
100
AcDbLine
 10
50.077948
 20
8.136906
 30
0.0
 11
50.088417
 21
8.147375
 31
0.0
  0
LINE
  5
A5
330
58E
100
AcDbEntity
  8
_0
  6
Continuous
 62
     7
370
    30
100
AcDbLine
 10
45.325
 20
8.386906
 30
0.0
 11
45.325
 21
7.886906
 31
0.0
  0
LINE
  5
A6
330
58E
100
AcDbEntity
  8
_0
  6
Continuous
 62
     7
370
    30
100
AcDbLine
 10
51.175
 20
8.386906
 30
0.0
 11
51.175
 21
7.886906
 31
0.0
  0
LINE
  5
A7
330
58E
100
AcDbEntity
  8
HATCH
  6
Continuous
 62
     7
370
    30
100
AcDbLine
 10
45.655562
 20
7.708865
 30
0.0
 11
45.702646
 21
7.755948
 31
0.0
  0
LINE
  5
A8
330
58E
100
AcDbEntity
  8
HATCH
  6
Continuous
 62
     7
370
    30
100
AcDbLine
 10
45.773365
 20
7.826656
 30
0.0
 11
45.833604
 21
7.886906
 31
0.0
  0
LINE
  5
A9
330
58E
100
AcDbEntity
  8
HATCH
  6
Continuous
 62
     7
370
    30
100
AcDbLine
 10
45.514146
 20
7.708865
 30
0.0
 11
45.561229
 21
7.755948
 31
0.0
  0
LINE
  5
AA
330
58E
100
AcDbEntity
  8
HATCH
  6
Continuous
 62
     7
370
    30
100
AcDbLine
 10
45.631937
 20
7.826656
 30
0.0
 11
45.692187
 21
7.886906
 31
0.0
  0
LINE
  5
AB
330
58E
100
AcDbEntity
  8
HATCH
  6
Continuous
 62
     7
370
    30
100
AcDbLine
 10
45.490521
 20
7.826656
 30
0.0
 11
45.550771
 21
7.886906
 31
0.0
  0
LINE
  5
AC
330
58E
100
AcDbEntity
  8
HATCH
  6
Continuous
 62
     7
370
    30
100
AcDbLine
 10
45.79699
 20
7.708865
 30
0.0
 11
45.844073
 21
7.755948
 31
0.0
  0
LINE
  5
AD
330
58E
100
AcDbEntity
  8
HATCH
  6
Continuous
 62
     7
370
    30
100
AcDbLine
 10
45.914781
 20
7.826656
 30
0.0
 11
45.975031
 21
7.886906
 31
0.0
  0
LINE
  5
AE
330
58E
100
AcDbEntity
  8
HATCH
  6
Continuous
 62
     7
370
    30
100
AcDbLine
 10
45.938406
 20
7.708865
 30
0.0
 11
45.98549
 21
7.755948
 31
0.0
  0
LINE
  5
AF
330
58E
100
AcDbEntity
  8
HATCH
  6
Continuous
 62
     7
370
    30
100
AcDbLine
 10
45.746844
 20
7.71175
 30
0.0
 11
45.817552
 21
7.782469
 31
0.0
  0
LINE
  5
B0
330
58E
100
AcDbEntity
  8
HATCH
  6
Continuous
 62
     7
370
    30
100
AcDbLine
 10
45.888271
 20
7.853177
 30
0.0
 11
45.922
 21
7.886906
 31
0.0
  0
LINE
  5
B1
330
58E
100
AcDbEntity
  8
HATCH
  6
Continuous
 62
     7
370
    30
100
AcDbLine
 10
45.605427
 20
7.71175
 30
0.0
 11
45.676135
 21
7.782469
 31
0.0
  0
LINE
  5
B2
330
58E
100
AcDbEntity
  8
HATCH
  6
Continuous
 62
     7
370
    30
100
AcDbLine
 10
45.746844
 20
7.853177
 30
0.0
 11
45.780573
 21
7.886906
 31
0.0
  0
LINE
  5
B3
330
58E
100
AcDbEntity
  8
HATCH
  6
Continuous
 62
     7
370
    30
100
AcDbLine
 10
45.464
 20
7.71175
 30
0.0
 11
45.534708
 21
7.782469
 31
0.0
  0
LINE
  5
B4
330
58E
100
AcDbEntity
  8
HATCH
  6
Continuous
 62
     7
370
    30
100
AcDbLine
 10
45.605427
 20
7.853177
 30
0.0
 11
45.639156
 21
7.886906
 31
0.0
  0
LINE
  5
B5
330
58E
100
AcDbEntity
  8
HATCH
  6
Continuous
 62
     7
370
    30
100
AcDbLine
 10
45.464
 20
7.853177
 30
0.0
 11
45.497729
 21
7.886906
 31
0.0
  0
LINE
  5
B6
330
58E
100
AcDbEntity
  8
HATCH
  6
Continuous
 62
     7
370
    30
100
AcDbLine
 10
45.888271
 20
7.71175
 30
0.0
 11
45.958979
 21
7.782469
 31
0.0
  0
LINE
  5
B7
330
58E
100
AcDbEntity
  8
HATCH
  6
Continuous
 62
     7
370
    30
100
AcDbLine
 10
45.720333
 20
7.738271
 30
0.0
 11
45.791042
 21
7.808979
 31
0.0
  0
LINE
  5
B8
330
58E
100
AcDbEntity
  8
HATCH
  6
Continuous
 62
     7
370
    30
100
AcDbLine
 10
45.86175
 20
7.879688
 30
0.0
 11
45.868969
 21
7.886906
 31
0.0
  0
LINE
  5
B9
330
58E
100
AcDbEntity
  8
HATCH
  6
Continuous
 62
     7
370
    30
100
AcDbLine
 10
45.578906
 20
7.738271
 30
0.0
 11
45.649615
 21
7.808979
 31
0.0
  0
LINE
  5
BA
330
58E
100
AcDbEntity
  8
HATCH
  6
Continuous
 62
     7
370
    30
100
AcDbLine
 10
45.720333
 20
7.879688
 30
0.0
 11
45.727542
 21
7.886906
 31
0.0
  0
LINE
  5
BB
330
58E
100
AcDbEntity
  8
HATCH
  6
Continuous
 62
     7
370
    30
100
AcDbLine
 10
45.43749
 20
7.738271
 30
0.0
 11
45.508198
 21
7.808979
 31
0.0
  0
LINE
  5
BC
330
58E
100
AcDbEntity
  8
HATCH
  6
Continuous
 62
     7
370
    30
100
AcDbLine
 10
45.578906
 20
7.879688
 30
0.0
 11
45.586125
 21
7.886906
 31
0.0
  0
LINE
  5
BD
330
58E
100
AcDbEntity
  8
HATCH
  6
Continuous
 62
     7
370
    30
100
AcDbLine
 10
45.43749
 20
7.879688
 30
0.0
 11
45.444698
 21
7.886906
 31
0.0
  0
LINE
  5
BE
330
58E
100
AcDbEntity
  8
HATCH
  6
Continuous
 62
     7
370
    30
100
AcDbLine
 10
45.86175
 20
7.738271
 30
0.0
 11
45.932458
 21
7.808979
 31
0.0
  0
LINE
  5
BF
330
58E
100
AcDbEntity
  8
HATCH
  6
Continuous
 62
     7
370
    30
100
AcDbLine
 10
45.720333
 20
7.755948
 30
0.0
 11
45.649615
 21
7.826656
 31
0.0
  0
LINE
  5
C0
330
58E
100
AcDbEntity
  8
HATCH
  6
Continuous
 62
     7
370
    30
100
AcDbLine
 10
45.578906
 20
7.755948
 30
0.0
 11
45.508198
 21
7.826656
 31
0.0
  0
LINE
  5
C1
330
58E
100
AcDbEntity
  8
HATCH
  6
Continuous
 62
     7
370
    30
100
AcDbLine
 10
45.43749
 20
7.755948
 30
0.0
 11
45.426302
 21
7.767135
 31
0.0
  0
LINE
  5
C2
330
58E
100
AcDbEntity
  8
HATCH
  6
Continuous
 62
     7
370
    30
100
AcDbLine
 10
45.86175
 20
7.755948
 30
0.0
 11
45.791042
 21
7.826656
 31
0.0
  0
LINE
  5
C3
330
58E
100
AcDbEntity
  8
HATCH
  6
Continuous
 62
     7
370
    30
100
AcDbLine
 10
45.987146
 20
7.771979
 30
0.0
 11
45.932458
 21
7.826656
 31
0.0
  0
LINE
  5
C4
330
58E
100
AcDbEntity
  8
HATCH
  6
Continuous
 62
     7
370
    30
100
AcDbLine
 10
45.679021
 20
7.708865
 30
0.0
 11
45.676135
 21
7.71175
 31
0.0
  0
LINE
  5
C5
330
58E
100
AcDbEntity
  8
HATCH
  6
Continuous
 62
     7
370
    30
100
AcDbLine
 10
45.605427
 20
7.782469
 30
0.0
 11
45.534708
 21
7.853177
 31
0.0
  0
LINE
  5
C6
330
58E
100
AcDbEntity
  8
HATCH
  6
Continuous
 62
     7
370
    30
100
AcDbLine
 10
45.537604
 20
7.708865
 30
0.0
 11
45.534708
 21
7.71175
 31
0.0
  0
LINE
  5
C7
330
58E
100
AcDbEntity
  8
HATCH
  6
Continuous
 62
     7
370
    30
100
AcDbLine
 10
45.464
 20
7.782469
 30
0.0
 11
45.426302
 21
7.820167
 31
0.0
  0
LINE
  5
C8
330
58E
100
AcDbEntity
  8
HATCH
  6
Continuous
 62
     7
370
    30
100
AcDbLine
 10
45.820448
 20
7.708865
 30
0.0
 11
45.817552
 21
7.71175
 31
0.0
  0
LINE
  5
C9
330
58E
100
AcDbEntity
  8
HATCH
  6
Continuous
 62
     7
370
    30
100
AcDbLine
 10
45.746844
 20
7.782469
 30
0.0
 11
45.676135
 21
7.853177
 31
0.0
  0
LINE
  5
CA
330
58E
100
AcDbEntity
  8
HATCH
  6
Continuous
 62
     7
370
    30
100
AcDbLine
 10
45.961865
 20
7.708865
 30
0.0
 11
45.958979
 21
7.71175
 31
0.0
  0
LINE
  5
CB
330
58E
100
AcDbEntity
  8
HATCH
  6
Continuous
 62
     7
370
    30
100
AcDbLine
 10
45.888271
 20
7.782469
 30
0.0
 11
45.817552
 21
7.853177
 31
0.0
  0
LINE
  5
CC
330
58E
100
AcDbEntity
  8
HATCH
  6
Continuous
 62
     7
370
    30
100
AcDbLine
 10
45.987146
 20
7.82501
 30
0.0
 11
45.958979
 21
7.853177
 31
0.0
  0
LINE
  5
CD
330
58E
100
AcDbEntity
  8
HATCH
  6
Continuous
 62
     7
370
    30
100
AcDbLine
 10
45.732052
 20
7.708865
 30
0.0
 11
45.702646
 21
7.738271
 31
0.0
  0
LINE
  5
CE
330
58E
100
AcDbEntity
  8
HATCH
  6
Continuous
 62
     7
370
    30
100
AcDbLine
 10
45.631937
 20
7.808979
 30
0.0
 11
45.561229
 21
7.879688
 31
0.0
  0
LINE
  5
CF
330
58E
100
AcDbEntity
  8
HATCH
  6
Continuous
 62
     7
370
    30
100
AcDbLine
 10
45.590635
 20
7.708865
 30
0.0
 11
45.561229
 21
7.738271
 31
0.0
  0
LINE
  5
D0
330
58E
100
AcDbEntity
  8
HATCH
  6
Continuous
 62
     7
370
    30
100
AcDbLine
 10
45.490521
 20
7.808979
 30
0.0
 11
45.426302
 21
7.873198
 31
0.0
  0
LINE
  5
D1
330
58E
100
AcDbEntity
  8
HATCH
  6
Continuous
 62
     7
370
    30
100
AcDbLine
 10
45.449219
 20
7.708865
 30
0.0
 11
45.426302
 21
7.731781
 31
0.0
  0
LINE
  5
D2
330
58E
100
AcDbEntity
  8
HATCH
  6
Continuous
 62
     7
370
    30
100
AcDbLine
 10
45.873479
 20
7.708865
 30
0.0
 11
45.844073
 21
7.738271
 31
0.0
  0
LINE
  5
D3
330
58E
100
AcDbEntity
  8
HATCH
  6
Continuous
 62
     7
370
    30
100
AcDbLine
 10
45.773365
 20
7.808979
 30
0.0
 11
45.702646
 21
7.879688
 31
0.0
  0
LINE
  5
D4
330
58E
100
AcDbEntity
  8
HATCH
  6
Continuous
 62
     7
370
    30
100
AcDbLine
 10
45.987146
 20
7.736625
 30
0.0
 11
45.98549
 21
7.738271
 31
0.0
  0
LINE
  5
D5
330
58E
100
AcDbEntity
  8
HATCH
  6
Continuous
 62
     7
370
    30
100
AcDbLine
 10
45.914781
 20
7.808979
 30
0.0
 11
45.844073
 21
7.879688
 31
0.0
  0
LINE
  5
D6
330
58E
100
AcDbEntity
  8
HATCH
  6
Continuous
 62
     7
370
    30
100
AcDbLine
 10
45.987146
 20
7.878042
 30
0.0
 11
45.98549
 21
7.879688
 31
0.0
  0
LINE
  5
D7
330
58E
100
AcDbEntity
  8
HATCH
  6
Continuous
 62
     7
370
    30
100
AcDbLine
 10
50.708052
 20
7.708865
 30
0.0
 11
50.755135
 21
7.755948
 31
0.0
  0
LINE
  5
D8
330
58E
100
AcDbEntity
  8
HATCH
  6
Continuous
 62
     7
370
    30
100
AcDbLine
 10
50.825854
 20
7.826656
 30
0.0
 11
50.886094
 21
7.886906
 31
0.0
  0
LINE
  5
D9
330
58E
100
AcDbEntity
  8
HATCH
  6
Continuous
 62
     7
370
    30
100
AcDbLine
 10
50.566635
 20
7.708865
 30
0.0
 11
50.613719
 21
7.755948
 31
0.0
  0
LINE
  5
DA
330
58E
100
AcDbEntity
  8
HATCH
  6
Continuous
 62
     7
370
    30
100
AcDbLine
 10
50.684427
 20
7.826656
 30
0.0
 11
50.744677
 21
7.886906
 31
0.0
  0
LINE
  5
DB
330
58E
100
AcDbEntity
  8
HATCH
  6
Continuous
 62
     7
370
    30
100
AcDbLine
 10
50.54301
 20
7.826656
 30
0.0
 11
50.60326
 21
7.886906
 31
0.0
  0
LINE
  5
DC
330
58E
100
AcDbEntity
  8
HATCH
  6
Continuous
 62
     7
370
    30
100
AcDbLine
 10
50.849479
 20
7.708865
 30
0.0
 11
50.896563
 21
7.755948
 31
0.0
  0
LINE
  5
DD
330
58E
100
AcDbEntity
  8
HATCH
  6
Continuous
 62
     7
370
    30
100
AcDbLine
 10
50.967271
 20
7.826656
 30
0.0
 11
51.027521
 21
7.886906
 31
0.0
  0
LINE
  5
DE
330
58E
100
AcDbEntity
  8
HATCH
  6
Continuous
 62
     7
370
    30
100
AcDbLine
 10
50.990896
 20
7.708865
 30
0.0
 11
51.037979
 21
7.755948
 31
0.0
  0
LINE
  5
DF
330
58E
100
AcDbEntity
  8
HATCH
  6
Continuous
 62
     7
370
    30
100
AcDbLine
 10
50.799333
 20
7.71175
 30
0.0
 11
50.870042
 21
7.782469
 31
0.0
  0
LINE
  5
E0
330
58E
100
AcDbEntity
  8
HATCH
  6
Continuous
 62
     7
370
    30
100
AcDbLine
 10
50.94076
 20
7.853177
 30
0.0
 11
50.97449
 21
7.886906
 31
0.0
  0
LINE
  5
E1
330
58E
100
AcDbEntity
  8
HATCH
  6
Continuous
 62
     7
370
    30
100
AcDbLine
 10
50.657917
 20
7.71175
 30
0.0
 11
50.728625
 21
7.782469
 31
0.0
  0
LINE
  5
E2
330
58E
100
AcDbEntity
  8
HATCH
  6
Continuous
 62
     7
370
    30
100
AcDbLine
 10
50.799333
 20
7.853177
 30
0.0
 11
50.833062
 21
7.886906
 31
0.0
  0
LINE
  5
E3
330
58E
100
AcDbEntity
  8
HATCH
  6
Continuous
 62
     7
370
    30
100
AcDbLine
 10
50.51649
 20
7.71175
 30
0.0
 11
50.587198
 21
7.782469
 31
0.0
  0
LINE
  5
E4
330
58E
100
AcDbEntity
  8
HATCH
  6
Continuous
 62
     7
370
    30
100
AcDbLine
 10
50.657917
 20
7.853177
 30
0.0
 11
50.691646
 21
7.886906
 31
0.0
  0
LINE
  5
E5
330
58E
100
AcDbEntity
  8
HATCH
  6
Continuous
 62
     7
370
    30
100
AcDbLine
 10
50.51649
 20
7.853177
 30
0.0
 11
50.550219
 21
7.886906
 31
0.0
  0
LINE
  5
E6
330
58E
100
AcDbEntity
  8
HATCH
  6
Continuous
 62
     7
370
    30
100
AcDbLine
 10
50.94076
 20
7.71175
 30
0.0
 11
51.011469
 21
7.782469
 31
0.0
  0
LINE
  5
E7
330
58E
100
AcDbEntity
  8
HATCH
  6
Continuous
 62
     7
370
    30
100
AcDbLine
 10
50.772823
 20
7.738271
 30
0.0
 11
50.843531
 21
7.808979
 31
0.0
  0
LINE
  5
E8
330
58E
100
AcDbEntity
  8
HATCH
  6
Continuous
 62
     7
370
    30
100
AcDbLine
 10
50.91424
 20
7.879688
 30
0.0
 11
50.921458
 21
7.886906
 31
0.0
  0
LINE
  5
E9
330
58E
100
AcDbEntity
  8
HATCH
  6
Continuous
 62
     7
370
    30
100
AcDbLine
 10
50.631396
 20
7.738271
 30
0.0
 11
50.702104
 21
7.808979
 31
0.0
  0
LINE
  5
EA
330
58E
100
AcDbEntity
  8
HATCH
  6
Continuous
 62
     7
370
    30
100
AcDbLine
 10
50.772823
 20
7.879688
 30
0.0
 11
50.780031
 21
7.886906
 31
0.0
  0
LINE
  5
EB
330
58E
100
AcDbEntity
  8
HATCH
  6
Continuous
 62
     7
370
    30
100
AcDbLine
 10
50.489979
 20
7.738271
 30
0.0
 11
50.560688
 21
7.808979
 31
0.0
  0
LINE
  5
EC
330
58E
100
AcDbEntity
  8
HATCH
  6
Continuous
 62
     7
370
    30
100
AcDbLine
 10
50.631396
 20
7.879688
 30
0.0
 11
50.638615
 21
7.886906
 31
0.0
  0
LINE
  5
ED
330
58E
100
AcDbEntity
  8
HATCH
  6
Continuous
 62
     7
370
    30
100
AcDbLine
 10
50.489979
 20
7.879688
 30
0.0
 11
50.497187
 21
7.886906
 31
0.0
  0
LINE
  5
EE
330
58E
100
AcDbEntity
  8
HATCH
  6
Continuous
 62
     7
370
    30
100
AcDbLine
 10
50.91424
 20
7.738271
 30
0.0
 11
50.984948
 21
7.808979
 31
0.0
  0
LINE
  5
EF
330
58E
100
AcDbEntity
  8
HATCH
  6
Continuous
 62
     7
370
    30
100
AcDbLine
 10
50.772823
 20
7.755948
 30
0.0
 11
50.702104
 21
7.826656
 31
0.0
  0
LINE
  5
F0
330
58E
100
AcDbEntity
  8
HATCH
  6
Continuous
 62
     7
370
    30
100
AcDbLine
 10
50.631396
 20
7.755948
 30
0.0
 11
50.560688
 21
7.826656
 31
0.0
  0
LINE
  5
F1
330
58E
100
AcDbEntity
  8
HATCH
  6
Continuous
 62
     7
370
    30
100
AcDbLine
 10
50.489979
 20
7.755948
 30
0.0
 11
50.478792
 21
7.767135
 31
0.0
  0
LINE
  5
F2
330
58E
100
AcDbEntity
  8
HATCH
  6
Continuous
 62
     7
370
    30
100
AcDbLine
 10
50.91424
 20
7.755948
 30
0.0
 11
50.843531
 21
7.826656
 31
0.0
  0
LINE
  5
F3
330
58E
100
AcDbEntity
  8
HATCH
  6
Continuous
 62
     7
370
    30
100
AcDbLine
 10
51.039635
 20
7.771979
 30
0.0
 11
50.984948
 21
7.826656
 31
0.0
  0
LINE
  5
F4
330
58E
100
AcDbEntity
  8
HATCH
  6
Continuous
 62
     7
370
    30
100
AcDbLine
 10
50.73151
 20
7.708865
 30
0.0
 11
50.728625
 21
7.71175
 31
0.0
  0
LINE
  5
F5
330
58E
100
AcDbEntity
  8
HATCH
  6
Continuous
 62
     7
370
    30
100
AcDbLine
 10
50.657917
 20
7.782469
 30
0.0
 11
50.587198
 21
7.853177
 31
0.0
  0
LINE
  5
F6
330
58E
100
AcDbEntity
  8
HATCH
  6
Continuous
 62
     7
370
    30
100
AcDbLine
 10
50.590094
 20
7.708865
 30
0.0
 11
50.587198
 21
7.71175
 31
0.0
  0
LINE
  5
F7
330
58E
100
AcDbEntity
  8
HATCH
  6
Continuous
 62
     7
370
    30
100
AcDbLine
 10
50.51649
 20
7.782469
 30
0.0
 11
50.478792
 21
7.820167
 31
0.0
  0
LINE
  5
F8
330
58E
100
AcDbEntity
  8
HATCH
  6
Continuous
 62
     7
370
    30
100
AcDbLine
 10
50.872937
 20
7.708865
 30
0.0
 11
50.870042
 21
7.71175
 31
0.0
  0
LINE
  5
F9
330
58E
100
AcDbEntity
  8
HATCH
  6
Continuous
 62
     7
370
    30
100
AcDbLine
 10
50.799333
 20
7.782469
 30
0.0
 11
50.728625
 21
7.853177
 31
0.0
  0
LINE
  5
FA
330
58E
100
AcDbEntity
  8
HATCH
  6
Continuous
 62
     7
370
    30
100
AcDbLine
 10
51.014354
 20
7.708865
 30
0.0
 11
51.011469
 21
7.71175
 31
0.0
  0
LINE
  5
FB
330
58E
100
AcDbEntity
  8
HATCH
  6
Continuous
 62
     7
370
    30
100
AcDbLine
 10
50.94076
 20
7.782469
 30
0.0
 11
50.870042
 21
7.853177
 31
0.0
  0
LINE
  5
FC
330
58E
100
AcDbEntity
  8
HATCH
  6
Continuous
 62
     7
370
    30
100
AcDbLine
 10
51.039635
 20
7.82501
 30
0.0
 11
51.011469
 21
7.853177
 31
0.0
  0
LINE
  5
FD
330
58E
100
AcDbEntity
  8
HATCH
  6
Continuous
 62
     7
370
    30
100
AcDbLine
 10
50.784542
 20
7.708865
 30
0.0
 11
50.755135
 21
7.738271
 31
0.0
  0
LINE
  5
FE
330
58E
100
AcDbEntity
  8
HATCH
  6
Continuous
 62
     7
370
    30
100
AcDbLine
 10
50.684427
 20
7.808979
 30
0.0
 11
50.613719
 21
7.879688
 31
0.0
  0
LINE
  5
FF
330
58E
100
AcDbEntity
  8
HATCH
  6
Continuous
 62
     7
370
    30
100
AcDbLine
 10
50.643125
 20
7.708865
 30
0.0
 11
50.613719
 21
7.738271
 31
0.0
  0
LINE
  5
100
330
58E
100
AcDbEntity
  8
HATCH
  6
Continuous
 62
     7
370
    30
100
AcDbLine
 10
50.54301
 20
7.808979
 30
0.0
 11
50.478792
 21
7.873198
 31
0.0
  0
LINE
  5
101
330
58E
100
AcDbEntity
  8
HATCH
  6
Continuous
 62
     7
370
    30
100
AcDbLine
 10
50.501708
 20
7.708865
 30
0.0
 11
50.478792
 21
7.731781
 31
0.0
  0
LINE
  5
102
330
58E
100
AcDbEntity
  8
HATCH
  6
Continuous
 62
     7
370
    30
100
AcDbLine
 10
50.925969
 20
7.708865
 30
0.0
 11
50.896563
 21
7.738271
 31
0.0
  0
LINE
  5
103
330
58E
100
AcDbEntity
  8
HATCH
  6
Continuous
 62
     7
370
    30
100
AcDbLine
 10
50.825854
 20
7.808979
 30
0.0
 11
50.755135
 21
7.879688
 31
0.0
  0
LINE
  5
104
330
58E
100
AcDbEntity
  8
HATCH
  6
Continuous
 62
     7
370
    30
100
AcDbLine
 10
51.039635
 20
7.736625
 30
0.0
 11
51.037979
 21
7.738271
 31
0.0
  0
LINE
  5
105
330
58E
100
AcDbEntity
  8
HATCH
  6
Continuous
 62
     7
370
    30
100
AcDbLine
 10
50.967271
 20
7.808979
 30
0.0
 11
50.896563
 21
7.879688
 31
0.0
  0
LINE
  5
106
330
58E
100
AcDbEntity
  8
HATCH
  6
Continuous
 62
     7
370
    30
100
AcDbLine
 10
51.039635
 20
7.878042
 30
0.0
 11
51.037979
 21
7.879688
 31
0.0
  0
LINE
  5
107
330
58E
100
AcDbEntity
  8
HATCH
  6
Continuous
 62
     7
370
    30
100
AcDbLine
 10
47.210375
 20
6.585573
 30
0.0
 11
47.257458
 21
6.53849
 31
0.0
  0
LINE
  5
108
330
58E
100
AcDbEntity
  8
HATCH
  6
Continuous
 62
     7
370
    30
100
AcDbLine
 10
47.328167
 20
6.467771
 30
0.0
 11
47.388417
 21
6.407531
 31
0.0
  0
LINE
  5
109
330
58E
100
AcDbEntity
  8
HATCH
  6
Continuous
 62
     7
370
    30
100
AcDbLine
 10
47.210375
 20
6.72699
 30
0.0
 11
47.257458
 21
6.679906
 31
0.0
  0
LINE
  5
10A
330
58E
100
AcDbEntity
  8
HATCH
  6
Continuous
 62
     7
370
    30
100
AcDbLine
 10
47.328167
 20
6.609198
 30
0.0
 11
47.388417
 21
6.548948
 31
0.0
  0
LINE
  5
10B
330
58E
100
AcDbEntity
  8
HATCH
  6
Continuous
 62
     7
370
    30
100
AcDbLine
 10
47.328167
 20
6.750615
 30
0.0
 11
47.388417
 21
6.690365
 31
0.0
  0
LINE
  5
10C
330
58E
100
AcDbEntity
  8
HATCH
  6
Continuous
 62
     7
370
    30
100
AcDbLine
 10
47.210375
 20
6.444146
 30
0.0
 11
47.257458
 21
6.397062
 31
0.0
  0
LINE
  5
10D
330
58E
100
AcDbEntity
  8
HATCH
  6
Continuous
 62
     7
370
    30
100
AcDbLine
 10
47.328167
 20
6.326354
 30
0.0
 11
47.388417
 21
6.266104
 31
0.0
  0
LINE
  5
10E
330
58E
100
AcDbEntity
  8
HATCH
  6
Continuous
 62
     7
370
    30
100
AcDbLine
 10
47.210375
 20
6.302729
 30
0.0
 11
47.257458
 21
6.255646
 31
0.0
  0
LINE
  5
10F
330
58E
100
AcDbEntity
  8
HATCH
  6
Continuous
 62
     7
370
    30
100
AcDbLine
 10
47.21326
 20
6.494292
 30
0.0
 11
47.283979
 21
6.423583
 31
0.0
  0
LINE
  5
110
330
58E
100
AcDbEntity
  8
HATCH
  6
Continuous
 62
     7
370
    30
100
AcDbLine
 10
47.354687
 20
6.352865
 30
0.0
 11
47.388417
 21
6.319135
 31
0.0
  0
LINE
  5
111
330
58E
100
AcDbEntity
  8
HATCH
  6
Continuous
 62
     7
370
    30
100
AcDbLine
 10
47.21326
 20
6.635708
 30
0.0
 11
47.283979
 21
6.565
 31
0.0
  0
LINE
  5
112
330
58E
100
AcDbEntity
  8
HATCH
  6
Continuous
 62
     7
370
    30
100
AcDbLine
 10
47.354687
 20
6.494292
 30
0.0
 11
47.388417
 21
6.460562
 31
0.0
  0
LINE
  5
113
330
58E
100
AcDbEntity
  8
HATCH
  6
Continuous
 62
     7
370
    30
100
AcDbLine
 10
47.21326
 20
6.777135
 30
0.0
 11
47.283979
 21
6.706427
 31
0.0
  0
LINE
  5
114
330
58E
100
AcDbEntity
  8
HATCH
  6
Continuous
 62
     7
370
    30
100
AcDbLine
 10
47.354687
 20
6.635708
 30
0.0
 11
47.388417
 21
6.601979
 31
0.0
  0
LINE
  5
115
330
58E
100
AcDbEntity
  8
HATCH
  6
Continuous
 62
     7
370
    30
100
AcDbLine
 10
47.354687
 20
6.777135
 30
0.0
 11
47.388417
 21
6.743406
 31
0.0
  0
LINE
  5
116
330
58E
100
AcDbEntity
  8
HATCH
  6
Continuous
 62
     7
370
    30
100
AcDbLine
 10
47.21326
 20
6.352865
 30
0.0
 11
47.283979
 21
6.282156
 31
0.0
  0
LINE
  5
117
330
58E
100
AcDbEntity
  8
HATCH
  6
Continuous
 62
     7
370
    30
100
AcDbLine
 10
47.239781
 20
6.520802
 30
0.0
 11
47.31049
 21
6.450094
 31
0.0
  0
LINE
  5
118
330
58E
100
AcDbEntity
  8
HATCH
  6
Continuous
 62
     7
370
    30
100
AcDbLine
 10
47.381198
 20
6.379385
 30
0.0
 11
47.388417
 21
6.372167
 31
0.0
  0
LINE
  5
119
330
58E
100
AcDbEntity
  8
HATCH
  6
Continuous
 62
     7
370
    30
100
AcDbLine
 10
47.239781
 20
6.662229
 30
0.0
 11
47.31049
 21
6.591521
 31
0.0
  0
LINE
  5
11A
330
58E
100
AcDbEntity
  8
HATCH
  6
Continuous
 62
     7
370
    30
100
AcDbLine
 10
47.381198
 20
6.520802
 30
0.0
 11
47.388417
 21
6.513594
 31
0.0
  0
LINE
  5
11B
330
58E
100
AcDbEntity
  8
HATCH
  6
Continuous
 62
     7
370
    30
100
AcDbLine
 10
47.239781
 20
6.803646
 30
0.0
 11
47.31049
 21
6.732937
 31
0.0
  0
LINE
  5
11C
330
58E
100
AcDbEntity
  8
HATCH
  6
Continuous
 62
     7
370
    30
100
AcDbLine
 10
47.381198
 20
6.662229
 30
0.0
 11
47.388417
 21
6.65501
 31
0.0
  0
LINE
  5
11D
330
58E
100
AcDbEntity
  8
HATCH
  6
Continuous
 62
     7
370
    30
100
AcDbLine
 10
47.381198
 20
6.803646
 30
0.0
 11
47.388417
 21
6.796437
 31
0.0
  0
LINE
  5
11E
330
58E
100
AcDbEntity
  8
HATCH
  6
Continuous
 62
     7
370
    30
100
AcDbLine
 10
47.239781
 20
6.379385
 30
0.0
 11
47.31049
 21
6.308677
 31
0.0
  0
LINE
  5
11F
330
58E
100
AcDbEntity
  8
HATCH
  6
Continuous
 62
     7
370
    30
100
AcDbLine
 10
47.257458
 20
6.520802
 30
0.0
 11
47.328167
 21
6.591521
 31
0.0
  0
LINE
  5
120
330
58E
100
AcDbEntity
  8
HATCH
  6
Continuous
 62
     7
370
    30
100
AcDbLine
 10
47.257458
 20
6.662229
 30
0.0
 11
47.328167
 21
6.732937
 31
0.0
  0
LINE
  5
121
330
58E
100
AcDbEntity
  8
HATCH
  6
Continuous
 62
     7
370
    30
100
AcDbLine
 10
47.257458
 20
6.803646
 30
0.0
 11
47.268646
 21
6.814833
 31
0.0
  0
LINE
  5
122
330
58E
100
AcDbEntity
  8
HATCH
  6
Continuous
 62
     7
370
    30
100
AcDbLine
 10
47.257458
 20
6.379385
 30
0.0
 11
47.328167
 21
6.450094
 31
0.0
  0
LINE
  5
123
330
58E
100
AcDbEntity
  8
HATCH
  6
Continuous
 62
     7
370
    30
100
AcDbLine
 10
47.27349
 20
6.25399
 30
0.0
 11
47.328167
 21
6.308677
 31
0.0
  0
LINE
  5
124
330
58E
100
AcDbEntity
  8
HATCH
  6
Continuous
 62
     7
370
    30
100
AcDbLine
 10
47.210375
 20
6.562115
 30
0.0
 11
47.21326
 21
6.565
 31
0.0
  0
LINE
  5
125
330
58E
100
AcDbEntity
  8
HATCH
  6
Continuous
 62
     7
370
    30
100
AcDbLine
 10
47.283979
 20
6.635708
 30
0.0
 11
47.354687
 21
6.706427
 31
0.0
  0
LINE
  5
126
330
58E
100
AcDbEntity
  8
HATCH
  6
Continuous
 62
     7
370
    30
100
AcDbLine
 10
47.210375
 20
6.703531
 30
0.0
 11
47.21326
 21
6.706427
 31
0.0
  0
LINE
  5
127
330
58E
100
AcDbEntity
  8
HATCH
  6
Continuous
 62
     7
370
    30
100
AcDbLine
 10
47.283979
 20
6.777135
 30
0.0
 11
47.321677
 21
6.814833
 31
0.0
  0
LINE
  5
128
330
58E
100
AcDbEntity
  8
HATCH
  6
Continuous
 62
     7
370
    30
100
AcDbLine
 10
47.210375
 20
6.420687
 30
0.0
 11
47.21326
 21
6.423583
 31
0.0
  0
LINE
  5
129
330
58E
100
AcDbEntity
  8
HATCH
  6
Continuous
 62
     7
370
    30
100
AcDbLine
 10
47.283979
 20
6.494292
 30
0.0
 11
47.354687
 21
6.565
 31
0.0
  0
LINE
  5
12A
330
58E
100
AcDbEntity
  8
HATCH
  6
Continuous
 62
     7
370
    30
100
AcDbLine
 10
47.210375
 20
6.279271
 30
0.0
 11
47.21326
 21
6.282156
 31
0.0
  0
LINE
  5
12B
330
58E
100
AcDbEntity
  8
HATCH
  6
Continuous
 62
     7
370
    30
100
AcDbLine
 10
47.283979
 20
6.352865
 30
0.0
 11
47.354687
 21
6.423583
 31
0.0
  0
LINE
  5
12C
330
58E
100
AcDbEntity
  8
HATCH
  6
Continuous
 62
     7
370
    30
100
AcDbLine
 10
47.326521
 20
6.25399
 30
0.0
 11
47.354687
 21
6.282156
 31
0.0
  0
LINE
  5
12D
330
58E
100
AcDbEntity
  8
HATCH
  6
Continuous
 62
     7
370
    30
100
AcDbLine
 10
47.210375
 20
6.509083
 30
0.0
 11
47.239781
 21
6.53849
 31
0.0
  0
LINE
  5
12E
330
58E
100
AcDbEntity
  8
HATCH
  6
Continuous
 62
     7
370
    30
100
AcDbLine
 10
47.31049
 20
6.609198
 30
0.0
 11
47.381198
 21
6.679906
 31
0.0
  0
LINE
  5
12F
330
58E
100
AcDbEntity
  8
HATCH
  6
Continuous
 62
     7
370
    30
100
AcDbLine
 10
47.210375
 20
6.6505
 30
0.0
 11
47.239781
 21
6.679906
 31
0.0
  0
LINE
  5
130
330
58E
100
AcDbEntity
  8
HATCH
  6
Continuous
 62
     7
370
    30
100
AcDbLine
 10
47.31049
 20
6.750615
 30
0.0
 11
47.374708
 21
6.814833
 31
0.0
  0
LINE
  5
131
330
58E
100
AcDbEntity
  8
HATCH
  6
Continuous
 62
     7
370
    30
100
AcDbLine
 10
47.210375
 20
6.791917
 30
0.0
 11
47.233292
 21
6.814833
 31
0.0
  0
LINE
  5
132
330
58E
100
AcDbEntity
  8
HATCH
  6
Continuous
 62
     7
370
    30
100
AcDbLine
 10
47.210375
 20
6.367656
 30
0.0
 11
47.239781
 21
6.397062
 31
0.0
  0
LINE
  5
133
330
58E
100
AcDbEntity
  8
HATCH
  6
Continuous
 62
     7
370
    30
100
AcDbLine
 10
47.31049
 20
6.467771
 30
0.0
 11
47.381198
 21
6.53849
 31
0.0
  0
LINE
  5
134
330
58E
100
AcDbEntity
  8
HATCH
  6
Continuous
 62
     7
370
    30
100
AcDbLine
 10
47.238135
 20
6.25399
 30
0.0
 11
47.239781
 21
6.255646
 31
0.0
  0
LINE
  5
135
330
58E
100
AcDbEntity
  8
HATCH
  6
Continuous
 62
     7
370
    30
100
AcDbLine
 10
47.31049
 20
6.326354
 30
0.0
 11
47.381198
 21
6.397062
 31
0.0
  0
LINE
  5
136
330
58E
100
AcDbEntity
  8
HATCH
  6
Continuous
 62
     7
370
    30
100
AcDbLine
 10
47.379552
 20
6.25399
 30
0.0
 11
47.381198
 21
6.255646
 31
0.0
  0
LINE
  5
137
330
58E
100
AcDbEntity
  8
HATCH
  6
Continuous
 62
     7
370
    30
100
AcDbLine
 10
49.266458
 20
6.585573
 30
0.0
 11
49.219375
 21
6.53849
 31
0.0
  0
LINE
  5
138
330
58E
100
AcDbEntity
  8
HATCH
  6
Continuous
 62
     7
370
    30
100
AcDbLine
 10
49.148667
 20
6.467771
 30
0.0
 11
49.088417
 21
6.407531
 31
0.0
  0
LINE
  5
139
330
58E
100
AcDbEntity
  8
HATCH
  6
Continuous
 62
     7
370
    30
100
AcDbLine
 10
49.266458
 20
6.72699
 30
0.0
 11
49.219375
 21
6.679906
 31
0.0
  0
LINE
  5
13A
330
58E
100
AcDbEntity
  8
HATCH
  6
Continuous
 62
     7
370
    30
100
AcDbLine
 10
49.148667
 20
6.609198
 30
0.0
 11
49.088417
 21
6.548948
 31
0.0
  0
LINE
  5
13B
330
58E
100
AcDbEntity
  8
HATCH
  6
Continuous
 62
     7
370
    30
100
AcDbLine
 10
49.148667
 20
6.750615
 30
0.0
 11
49.088417
 21
6.690365
 31
0.0
  0
LINE
  5
13C
330
58E
100
AcDbEntity
  8
HATCH
  6
Continuous
 62
     7
370
    30
100
AcDbLine
 10
49.266458
 20
6.444146
 30
0.0
 11
49.219375
 21
6.397062
 31
0.0
  0
LINE
  5
13D
330
58E
100
AcDbEntity
  8
HATCH
  6
Continuous
 62
     7
370
    30
100
AcDbLine
 10
49.148667
 20
6.326354
 30
0.0
 11
49.088417
 21
6.266104
 31
0.0
  0
LINE
  5
13E
330
58E
100
AcDbEntity
  8
HATCH
  6
Continuous
 62
     7
370
    30
100
AcDbLine
 10
49.266458
 20
6.302729
 30
0.0
 11
49.219375
 21
6.255646
 31
0.0
  0
LINE
  5
13F
330
58E
100
AcDbEntity
  8
HATCH
  6
Continuous
 62
     7
370
    30
100
AcDbLine
 10
49.263573
 20
6.494292
 30
0.0
 11
49.192854
 21
6.423583
 31
0.0
  0
LINE
  5
140
330
58E
100
AcDbEntity
  8
HATCH
  6
Continuous
 62
     7
370
    30
100
AcDbLine
 10
49.122146
 20
6.352865
 30
0.0
 11
49.088417
 21
6.319135
 31
0.0
  0
LINE
  5
141
330
58E
100
AcDbEntity
  8
HATCH
  6
Continuous
 62
     7
370
    30
100
AcDbLine
 10
49.263573
 20
6.635708
 30
0.0
 11
49.192854
 21
6.565
 31
0.0
  0
LINE
  5
142
330
58E
100
AcDbEntity
  8
HATCH
  6
Continuous
 62
     7
370
    30
100
AcDbLine
 10
49.122146
 20
6.494292
 30
0.0
 11
49.088417
 21
6.460562
 31
0.0
  0
LINE
  5
143
330
58E
100
AcDbEntity
  8
HATCH
  6
Continuous
 62
     7
370
    30
100
AcDbLine
 10
49.263573
 20
6.777135
 30
0.0
 11
49.192854
 21
6.706427
 31
0.0
  0
LINE
  5
144
330
58E
100
AcDbEntity
  8
HATCH
  6
Continuous
 62
     7
370
    30
100
AcDbLine
 10
49.122146
 20
6.635708
 30
0.0
 11
49.088417
 21
6.601979
 31
0.0
  0
LINE
  5
145
330
58E
100
AcDbEntity
  8
HATCH
  6
Continuous
 62
     7
370
    30
100
AcDbLine
 10
49.122146
 20
6.777135
 30
0.0
 11
49.088417
 21
6.743406
 31
0.0
  0
LINE
  5
146
330
58E
100
AcDbEntity
  8
HATCH
  6
Continuous
 62
     7
370
    30
100
AcDbLine
 10
49.263573
 20
6.352865
 30
0.0
 11
49.192854
 21
6.282156
 31
0.0
  0
LINE
  5
147
330
58E
100
AcDbEntity
  8
HATCH
  6
Continuous
 62
     7
370
    30
100
AcDbLine
 10
49.237052
 20
6.520802
 30
0.0
 11
49.166344
 21
6.450094
 31
0.0
  0
LINE
  5
148
330
58E
100
AcDbEntity
  8
HATCH
  6
Continuous
 62
     7
370
    30
100
AcDbLine
 10
49.095635
 20
6.379385
 30
0.0
 11
49.088417
 21
6.372167
 31
0.0
  0
LINE
  5
149
330
58E
100
AcDbEntity
  8
HATCH
  6
Continuous
 62
     7
370
    30
100
AcDbLine
 10
49.237052
 20
6.662229
 30
0.0
 11
49.166344
 21
6.591521
 31
0.0
  0
LINE
  5
14A
330
58E
100
AcDbEntity
  8
HATCH
  6
Continuous
 62
     7
370
    30
100
AcDbLine
 10
49.095635
 20
6.520802
 30
0.0
 11
49.088417
 21
6.513594
 31
0.0
  0
LINE
  5
14B
330
58E
100
AcDbEntity
  8
HATCH
  6
Continuous
 62
     7
370
    30
100
AcDbLine
 10
49.237052
 20
6.803646
 30
0.0
 11
49.166344
 21
6.732937
 31
0.0
  0
LINE
  5
14C
330
58E
100
AcDbEntity
  8
HATCH
  6
Continuous
 62
     7
370
    30
100
AcDbLine
 10
49.095635
 20
6.662229
 30
0.0
 11
49.088417
 21
6.65501
 31
0.0
  0
LINE
  5
14D
330
58E
100
AcDbEntity
  8
HATCH
  6
Continuous
 62
     7
370
    30
100
AcDbLine
 10
49.095635
 20
6.803646
 30
0.0
 11
49.088417
 21
6.796437
 31
0.0
  0
LINE
  5
14E
330
58E
100
AcDbEntity
  8
HATCH
  6
Continuous
 62
     7
370
    30
100
AcDbLine
 10
49.237052
 20
6.379385
 30
0.0
 11
49.166344
 21
6.308677
 31
0.0
  0
LINE
  5
14F
330
58E
100
AcDbEntity
  8
HATCH
  6
Continuous
 62
     7
370
    30
100
AcDbLine
 10
49.219375
 20
6.520802
 30
0.0
 11
49.148667
 21
6.591521
 31
0.0
  0
LINE
  5
150
330
58E
100
AcDbEntity
  8
HATCH
  6
Continuous
 62
     7
370
    30
100
AcDbLine
 10
49.219375
 20
6.662229
 30
0.0
 11
49.148667
 21
6.732937
 31
0.0
  0
LINE
  5
151
330
58E
100
AcDbEntity
  8
HATCH
  6
Continuous
 62
     7
370
    30
100
AcDbLine
 10
49.219375
 20
6.803646
 30
0.0
 11
49.208188
 21
6.814833
 31
0.0
  0
LINE
  5
152
330
58E
100
AcDbEntity
  8
HATCH
  6
Continuous
 62
     7
370
    30
100
AcDbLine
 10
49.219375
 20
6.379385
 30
0.0
 11
49.148667
 21
6.450094
 31
0.0
  0
LINE
  5
153
330
58E
100
AcDbEntity
  8
HATCH
  6
Continuous
 62
     7
370
    30
100
AcDbLine
 10
49.203344
 20
6.25399
 30
0.0
 11
49.148667
 21
6.308677
 31
0.0
  0
LINE
  5
154
330
58E
100
AcDbEntity
  8
HATCH
  6
Continuous
 62
     7
370
    30
100
AcDbLine
 10
49.266458
 20
6.562115
 30
0.0
 11
49.263573
 21
6.565
 31
0.0
  0
LINE
  5
155
330
58E
100
AcDbEntity
  8
HATCH
  6
Continuous
 62
     7
370
    30
100
AcDbLine
 10
49.192854
 20
6.635708
 30
0.0
 11
49.122146
 21
6.706427
 31
0.0
  0
LINE
  5
156
330
58E
100
AcDbEntity
  8
HATCH
  6
Continuous
 62
     7
370
    30
100
AcDbLine
 10
49.266458
 20
6.703531
 30
0.0
 11
49.263573
 21
6.706427
 31
0.0
  0
LINE
  5
157
330
58E
100
AcDbEntity
  8
HATCH
  6
Continuous
 62
     7
370
    30
100
AcDbLine
 10
49.192854
 20
6.777135
 30
0.0
 11
49.155156
 21
6.814833
 31
0.0
  0
LINE
  5
158
330
58E
100
AcDbEntity
  8
HATCH
  6
Continuous
 62
     7
370
    30
100
AcDbLine
 10
49.266458
 20
6.420687
 30
0.0
 11
49.263573
 21
6.423583
 31
0.0
  0
LINE
  5
159
330
58E
100
AcDbEntity
  8
HATCH
  6
Continuous
 62
     7
370
    30
100
AcDbLine
 10
49.192854
 20
6.494292
 30
0.0
 11
49.122146
 21
6.565
 31
0.0
  0
LINE
  5
15A
330
58E
100
AcDbEntity
  8
HATCH
  6
Continuous
 62
     7
370
    30
100
AcDbLine
 10
49.266458
 20
6.279271
 30
0.0
 11
49.263573
 21
6.282156
 31
0.0
  0
LINE
  5
15B
330
58E
100
AcDbEntity
  8
HATCH
  6
Continuous
 62
     7
370
    30
100
AcDbLine
 10
49.192854
 20
6.352865
 30
0.0
 11
49.122146
 21
6.423583
 31
0.0
  0
LINE
  5
15C
330
58E
100
AcDbEntity
  8
HATCH
  6
Continuous
 62
     7
370
    30
100
AcDbLine
 10
49.150312
 20
6.25399
 30
0.0
 11
49.122146
 21
6.282156
 31
0.0
  0
LINE
  5
15D
330
58E
100
AcDbEntity
  8
HATCH
  6
Continuous
 62
     7
370
    30
100
AcDbLine
 10
49.266458
 20
6.509083
 30
0.0
 11
49.237052
 21
6.53849
 31
0.0
  0
LINE
  5
15E
330
58E
100
AcDbEntity
  8
HATCH
  6
Continuous
 62
     7
370
    30
100
AcDbLine
 10
49.166344
 20
6.609198
 30
0.0
 11
49.095635
 21
6.679906
 31
0.0
  0
LINE
  5
15F
330
58E
100
AcDbEntity
  8
HATCH
  6
Continuous
 62
     7
370
    30
100
AcDbLine
 10
49.266458
 20
6.6505
 30
0.0
 11
49.237052
 21
6.679906
 31
0.0
  0
LINE
  5
160
330
58E
100
AcDbEntity
  8
HATCH
  6
Continuous
 62
     7
370
    30
100
AcDbLine
 10
49.166344
 20
6.750615
 30
0.0
 11
49.102125
 21
6.814833
 31
0.0
  0
LINE
  5
161
330
58E
100
AcDbEntity
  8
HATCH
  6
Continuous
 62
     7
370
    30
100
AcDbLine
 10
49.266458
 20
6.791917
 30
0.0
 11
49.243542
 21
6.814833
 31
0.0
  0
LINE
  5
162
330
58E
100
AcDbEntity
  8
HATCH
  6
Continuous
 62
     7
370
    30
100
AcDbLine
 10
49.266458
 20
6.367656
 30
0.0
 11
49.237052
 21
6.397062
 31
0.0
  0
LINE
  5
163
330
58E
100
AcDbEntity
  8
HATCH
  6
Continuous
 62
     7
370
    30
100
AcDbLine
 10
49.166344
 20
6.467771
 30
0.0
 11
49.095635
 21
6.53849
 31
0.0
  0
LINE
  5
164
330
58E
100
AcDbEntity
  8
HATCH
  6
Continuous
 62
     7
370
    30
100
AcDbLine
 10
49.238698
 20
6.25399
 30
0.0
 11
49.237052
 21
6.255646
 31
0.0
  0
LINE
  5
165
330
58E
100
AcDbEntity
  8
HATCH
  6
Continuous
 62
     7
370
    30
100
AcDbLine
 10
49.166344
 20
6.326354
 30
0.0
 11
49.095635
 21
6.397062
 31
0.0
  0
LINE
  5
166
330
58E
100
AcDbEntity
  8
HATCH
  6
Continuous
 62
     7
370
    30
100
AcDbLine
 10
49.097281
 20
6.25399
 30
0.0
 11
49.095635
 21
6.255646
 31
0.0
  0
LINE
  5
167
330
58E
100
AcDbEntity
  8
HATCH
  6
Continuous
 62
     7
370
    30
100
AcDbLine
 10
48.187281
 20
5.433073
 30
0.0
 11
48.248927
 21
5.494708
 31
0.0
  0
LINE
  5
168
330
58E
100
AcDbEntity
  8
HATCH
  6
Continuous
 62
     7
370
    30
100
AcDbLine
 10
48.337312
 20
5.583104
 30
0.0
 11
48.425698
 21
5.67149
 31
0.0
  0
LINE
  5
169
330
58E
100
AcDbEntity
  8
HATCH
  6
Continuous
 62
     7
370
    30
100
AcDbLine
 10
48.514083
 20
5.759875
 30
0.0
 11
48.602479
 21
5.84826
 31
0.0
  0
LINE
  5
16A
330
58E
100
AcDbEntity
  8
HATCH
  6
Continuous
 62
     7
370
    30
100
AcDbLine
 10
48.690865
 20
5.936656
 30
0.0
 11
48.691115
 21
5.936906
 31
0.0
  0
LINE
  5
16B
330
58E
100
AcDbEntity
  8
HATCH
  6
Continuous
 62
     7
370
    30
100
AcDbLine
 10
48.056687
 20
5.47925
 30
0.0
 11
48.072146
 21
5.494708
 31
0.0
  0
LINE
  5
16C
330
58E
100
AcDbEntity
  8
HATCH
  6
Continuous
 62
     7
370
    30
100
AcDbLine
 10
48.160531
 20
5.583104
 30
0.0
 11
48.248927
 21
5.67149
 31
0.0
  0
LINE
  5
16D
330
58E
100
AcDbEntity
  8
HATCH
  6
Continuous
 62
     7
370
    30
100
AcDbLine
 10
48.514083
 20
5.936656
 30
0.0
 11
48.514344
 21
5.936906
 31
0.0
  0
LINE
  5
16E
330
58E
100
AcDbEntity
  8
HATCH
  6
Continuous
 62
     7
370
    30
100
AcDbLine
 10
47.98376
 20
5.583104
 30
0.0
 11
48.072146
 21
5.67149
 31
0.0
  0
LINE
  5
16F
330
58E
100
AcDbEntity
  8
HATCH
  6
Continuous
 62
     7
370
    30
100
AcDbLine
 10
47.98376
 20
5.759875
 30
0.0
 11
48.030229
 21
5.806354
 31
0.0
  0
LINE
  5
170
330
58E
100
AcDbEntity
  8
HATCH
  6
Continuous
 62
     7
370
    30
100
AcDbLine
 10
47.806979
 20
5.759875
 30
0.0
 11
47.895365
 21
5.84826
 31
0.0
  0
LINE
  5
171
330
58E
100
AcDbEntity
  8
HATCH
  6
Continuous
 62
     7
370
    30
100
AcDbLine
 10
47.630208
 20
5.759875
 30
0.0
 11
47.718594
 21
5.84826
 31
0.0
  0
LINE
  5
172
330
58E
100
AcDbEntity
  8
HATCH
  6
Continuous
 62
     7
370
    30
100
AcDbLine
 10
47.806979
 20
5.936656
 30
0.0
 11
47.807229
 21
5.936906
 31
0.0
  0
LINE
  5
173
330
58E
100
AcDbEntity
  8
HATCH
  6
Continuous
 62
     7
370
    30
100
AcDbLine
 10
47.630208
 20
5.936656
 30
0.0
 11
47.630458
 21
5.936906
 31
0.0
  0
LINE
  5
174
330
58E
100
AcDbEntity
  8
HATCH
  6
Continuous
 62
     7
370
    30
100
AcDbLine
 10
48.340792
 20
5.409813
 30
0.0
 11
48.425698
 21
5.494708
 31
0.0
  0
LINE
  5
175
330
58E
100
AcDbEntity
  8
HATCH
  6
Continuous
 62
     7
370
    30
100
AcDbLine
 10
48.514083
 20
5.583104
 30
0.0
 11
48.602479
 21
5.67149
 31
0.0
  0
LINE
  5
176
330
58E
100
AcDbEntity
  8
HATCH
  6
Continuous
 62
     7
370
    30
100
AcDbLine
 10
48.690865
 20
5.759875
 30
0.0
 11
48.77925
 21
5.84826
 31
0.0
  0
LINE
  5
177
330
58E
100
AcDbEntity
  8
HATCH
  6
Continuous
 62
     7
370
    30
100
AcDbLine
 10
48.867646
 20
5.936656
 30
0.0
 11
48.867896
 21
5.936906
 31
0.0
  0
LINE
  5
178
330
58E
100
AcDbEntity
  8
HATCH
  6
Continuous
 62
     7
370
    30
100
AcDbLine
 10
48.888729
 20
5.780969
 30
0.0
 11
48.956031
 21
5.84826
 31
0.0
  0
LINE
  5
179
330
58E
100
AcDbEntity
  8
HATCH
  6
Continuous
 62
     7
370
    30
100
AcDbLine
 10
48.130344
 20
5.442417
 30
0.0
 11
48.215781
 21
5.527854
 31
0.0
  0
LINE
  5
17A
330
58E
100
AcDbEntity
  8
HATCH
  6
Continuous
 62
     7
370
    30
100
AcDbLine
 10
48.304167
 20
5.61625
 30
0.0
 11
48.392552
 21
5.704635
 31
0.0
  0
LINE
  5
17B
330
58E
100
AcDbEntity
  8
HATCH
  6
Continuous
 62
     7
370
    30
100
AcDbLine
 10
48.480937
 20
5.793021
 30
0.0
 11
48.569333
 21
5.881406
 31
0.0
  0
LINE
  5
17C
330
58E
100
AcDbEntity
  8
HATCH
  6
Continuous
 62
     7
370
    30
100
AcDbLine
 10
48.01249
 20
5.501344
 30
0.0
 11
48.039
 21
5.527854
 31
0.0
  0
LINE
  5
17D
330
58E
100
AcDbEntity
  8
HATCH
  6
Continuous
 62
     7
370
    30
100
AcDbLine
 10
48.127385
 20
5.61625
 30
0.0
 11
48.215781
 21
5.704635
 31
0.0
  0
LINE
  5
17E
330
58E
100
AcDbEntity
  8
HATCH
  6
Continuous
 62
     7
370
    30
100
AcDbLine
 10
47.950615
 20
5.61625
 30
0.0
 11
48.039
 21
5.704635
 31
0.0
  0
LINE
  5
17F
330
58E
100
AcDbEntity
  8
HATCH
  6
Continuous
 62
     7
370
    30
100
AcDbLine
 10
47.950615
 20
5.793021
 30
0.0
 11
48.005802
 21
5.848219
 31
0.0
  0
LINE
  5
180
330
58E
100
AcDbEntity
  8
HATCH
  6
Continuous
 62
     7
370
    30
100
AcDbLine
 10
47.773833
 20
5.793021
 30
0.0
 11
47.862219
 21
5.881406
 31
0.0
  0
LINE
  5
181
330
58E
100
AcDbEntity
  8
HATCH
  6
Continuous
 62
     7
370
    30
100
AcDbLine
 10
47.597062
 20
5.793021
 30
0.0
 11
47.685448
 21
5.881406
 31
0.0
  0
LINE
  5
182
330
58E
100
AcDbEntity
  8
HATCH
  6
Continuous
 62
     7
370
    30
100
AcDbLine
 10
48.304167
 20
5.439469
 30
0.0
 11
48.392552
 21
5.527854
 31
0.0
  0
LINE
  5
183
330
58E
100
AcDbEntity
  8
HATCH
  6
Continuous
 62
     7
370
    30
100
AcDbLine
 10
48.480937
 20
5.61625
 30
0.0
 11
48.569333
 21
5.704635
 31
0.0
  0
LINE
  5
184
330
58E
100
AcDbEntity
  8
HATCH
  6
Continuous
 62
     7
370
    30
100
AcDbLine
 10
48.657719
 20
5.793021
 30
0.0
 11
48.746104
 21
5.881406
 31
0.0
  0
LINE
  5
185
330
58E
100
AcDbEntity
  8
HATCH
  6
Continuous
 62
     7
370
    30
100
AcDbLine
 10
48.515396
 20
5.473927
 30
0.0
 11
48.550385
 21
5.508917
 31
0.0
  0
LINE
  5
186
330
58E
100
AcDbEntity
  8
HATCH
  6
Continuous
 62
     7
370
    30
100
AcDbLine
 10
48.8345
 20
5.793021
 30
0.0
 11
48.922885
 21
5.881406
 31
0.0
  0
LINE
  5
187
330
58E
100
AcDbEntity
  8
HATCH
  6
Continuous
 62
     7
370
    30
100
AcDbLine
 10
48.09424
 20
5.472615
 30
0.0
 11
48.182635
 21
5.561
 31
0.0
  0
LINE
  5
188
330
58E
100
AcDbEntity
  8
HATCH
  6
Continuous
 62
     7
370
    30
100
AcDbLine
 10
48.271021
 20
5.649396
 30
0.0
 11
48.359406
 21
5.737781
 31
0.0
  0
LINE
  5
189
330
58E
100
AcDbEntity
  8
HATCH
  6
Continuous
 62
     7
370
    30
100
AcDbLine
 10
48.492094
 20
5.870458
 30
0.0
 11
48.536187
 21
5.914552
 31
0.0
  0
LINE
  5
18A
330
58E
100
AcDbEntity
  8
HATCH
  6
Continuous
 62
     7
370
    30
100
AcDbLine
 10
47.972729
 20
5.527875
 30
0.0
 11
48.005854
 21
5.561
 31
0.0
  0
LINE
  5
18B
330
58E
100
AcDbEntity
  8
HATCH
  6
Continuous
 62
     7
370
    30
100
AcDbLine
 10
48.09424
 20
5.649396
 30
0.0
 11
48.16999
 21
5.725146
 31
0.0
  0
LINE
  5
18C
330
58E
100
AcDbEntity
  8
HATCH
  6
Continuous
 62
     7
370
    30
100
AcDbLine
 10
47.921552
 20
5.653479
 30
0.0
 11
48.005854
 21
5.737781
 31
0.0
  0
LINE
  5
18D
330
58E
100
AcDbEntity
  8
HATCH
  6
Continuous
 62
     7
370
    30
100
AcDbLine
 10
47.811802
 20
5.72051
 30
0.0
 11
47.829073
 21
5.737781
 31
0.0
  0
LINE
  5
18E
330
58E
100
AcDbEntity
  8
HATCH
  6
Continuous
 62
     7
370
    30
100
AcDbLine
 10
47.917469
 20
5.826167
 30
0.0
 11
47.983635
 21
5.892333
 31
0.0
  0
LINE
  5
18F
330
58E
100
AcDbEntity
  8
HATCH
  6
Continuous
 62
     7
370
    30
100
AcDbLine
 10
47.652021
 20
5.7375
 30
0.0
 11
47.652302
 21
5.737781
 31
0.0
  0
LINE
  5
190
330
58E
100
AcDbEntity
  8
HATCH
  6
Continuous
 62
     7
370
    30
100
AcDbLine
 10
47.740687
 20
5.826167
 30
0.0
 11
47.829073
 21
5.914552
 31
0.0
  0
LINE
  5
191
330
58E
100
AcDbEntity
  8
HATCH
  6
Continuous
 62
     7
370
    30
100
AcDbLine
 10
47.563917
 20
5.826167
 30
0.0
 11
47.652302
 21
5.914552
 31
0.0
  0
LINE
  5
192
330
58E
100
AcDbEntity
  8
HATCH
  6
Continuous
 62
     7
370
    30
100
AcDbLine
 10
48.271021
 20
5.472615
 30
0.0
 11
48.359406
 21
5.561
 31
0.0
  0
LINE
  5
193
330
58E
100
AcDbEntity
  8
HATCH
  6
Continuous
 62
     7
370
    30
100
AcDbLine
 10
48.447792
 20
5.649396
 30
0.0
 11
48.536187
 21
5.737781
 31
0.0
  0
LINE
  5
194
330
58E
100
AcDbEntity
  8
HATCH
  6
Continuous
 62
     7
370
    30
100
AcDbLine
 10
48.624573
 20
5.826167
 30
0.0
 11
48.712958
 21
5.914552
 31
0.0
  0
LINE
  5
195
330
58E
100
AcDbEntity
  8
HATCH
  6
Continuous
 62
     7
370
    30
100
AcDbLine
 10
48.447792
 20
5.472615
 30
0.0
 11
48.536187
 21
5.561
 31
0.0
  0
LINE
  5
196
330
58E
100
AcDbEntity
  8
HATCH
  6
Continuous
 62
     7
370
    30
100
AcDbLine
 10
48.801354
 20
5.826167
 30
0.0
 11
48.88974
 21
5.914552
 31
0.0
  0
LINE
  5
197
330
58E
100
AcDbEntity
  8
HATCH
  6
Continuous
 62
     7
370
    30
100
AcDbLine
 10
48.978125
 20
5.826167
 30
0.0
 11
48.985906
 21
5.833948
 31
0.0
  0
LINE
  5
198
330
58E
100
AcDbEntity
  8
HATCH
  6
Continuous
 62
     7
370
    30
100
AcDbLine
 10
48.447792
 20
5.494708
 30
0.0
 11
48.359406
 21
5.583104
 31
0.0
  0
LINE
  5
199
330
58E
100
AcDbEntity
  8
HATCH
  6
Continuous
 62
     7
370
    30
100
AcDbLine
 10
48.271021
 20
5.67149
 30
0.0
 11
48.229208
 21
5.713302
 31
0.0
  0
LINE
  5
19A
330
58E
100
AcDbEntity
  8
HATCH
  6
Continuous
 62
     7
370
    30
100
AcDbLine
 10
48.271021
 20
5.494708
 30
0.0
 11
48.182635
 21
5.583104
 31
0.0
  0
LINE
  5
19B
330
58E
100
AcDbEntity
  8
HATCH
  6
Continuous
 62
     7
370
    30
100
AcDbLine
 10
48.09424
 20
5.67149
 30
0.0
 11
48.005854
 21
5.759875
 31
0.0
  0
LINE
  5
19C
330
58E
100
AcDbEntity
  8
HATCH
  6
Continuous
 62
     7
370
    30
100
AcDbLine
 10
47.917469
 20
5.84826
 30
0.0
 11
47.829073
 21
5.936656
 31
0.0
  0
LINE
  5
19D
330
58E
100
AcDbEntity
  8
HATCH
  6
Continuous
 62
     7
370
    30
100
AcDbLine
 10
48.09424
 20
5.494708
 30
0.0
 11
48.005854
 21
5.583104
 31
0.0
  0
LINE
  5
19E
330
58E
100
AcDbEntity
  8
HATCH
  6
Continuous
 62
     7
370
    30
100
AcDbLine
 10
47.917469
 20
5.67149
 30
0.0
 11
47.911979
 21
5.676979
 31
0.0
  0
LINE
  5
19F
330
58E
100
AcDbEntity
  8
HATCH
  6
Continuous
 62
     7
370
    30
100
AcDbLine
 10
47.875187
 20
5.71376
 30
0.0
 11
47.829073
 21
5.759875
 31
0.0
  0
LINE
  5
1A0
330
58E
100
AcDbEntity
  8
HATCH
  6
Continuous
 62
     7
370
    30
100
AcDbLine
 10
47.740687
 20
5.84826
 30
0.0
 11
47.652302
 21
5.936656
 31
0.0
  0
LINE
  5
1A1
330
58E
100
AcDbEntity
  8
HATCH
  6
Continuous
 62
     7
370
    30
100
AcDbLine
 10
47.677365
 20
5.734812
 30
0.0
 11
47.652302
 21
5.759875
 31
0.0
  0
LINE
  5
1A2
330
58E
100
AcDbEntity
  8
HATCH
  6
Continuous
 62
     7
370
    30
100
AcDbLine
 10
47.563917
 20
5.84826
 30
0.0
 11
47.54625
 21
5.865927
 31
0.0
  0
LINE
  5
1A3
330
58E
100
AcDbEntity
  8
HATCH
  6
Continuous
 62
     7
370
    30
100
AcDbLine
 10
48.570958
 20
5.548333
 30
0.0
 11
48.536187
 21
5.583104
 31
0.0
  0
LINE
  5
1A4
330
58E
100
AcDbEntity
  8
HATCH
  6
Continuous
 62
     7
370
    30
100
AcDbLine
 10
48.447792
 20
5.67149
 30
0.0
 11
48.365687
 21
5.753594
 31
0.0
  0
LINE
  5
1A5
330
58E
100
AcDbEntity
  8
HATCH
  6
Continuous
 62
     7
370
    30
100
AcDbLine
 10
48.624573
 20
5.67149
 30
0.0
 11
48.536187
 21
5.759875
 31
0.0
  0
LINE
  5
1A6
330
58E
100
AcDbEntity
  8
HATCH
  6
Continuous
 62
     7
370
    30
100
AcDbLine
 10
48.723365
 20
5.749469
 30
0.0
 11
48.712958
 21
5.759875
 31
0.0
  0
LINE
  5
1A7
330
58E
100
AcDbEntity
  8
HATCH
  6
Continuous
 62
     7
370
    30
100
AcDbLine
 10
48.624573
 20
5.84826
 30
0.0
 11
48.536187
 21
5.936656
 31
0.0
  0
LINE
  5
1A8
330
58E
100
AcDbEntity
  8
HATCH
  6
Continuous
 62
     7
370
    30
100
AcDbLine
 10
48.801354
 20
5.84826
 30
0.0
 11
48.712958
 21
5.936656
 31
0.0
  0
LINE
  5
1A9
330
58E
100
AcDbEntity
  8
HATCH
  6
Continuous
 62
     7
370
    30
100
AcDbLine
 10
48.978125
 20
5.84826
 30
0.0
 11
48.88974
 21
5.936656
 31
0.0
  0
LINE
  5
1AA
330
58E
100
AcDbEntity
  8
HATCH
  6
Continuous
 62
     7
370
    30
100
AcDbLine
 10
48.407531
 20
5.42449
 30
0.0
 11
48.392552
 21
5.439469
 31
0.0
  0
LINE
  5
1AB
330
58E
100
AcDbEntity
  8
HATCH
  6
Continuous
 62
     7
370
    30
100
AcDbLine
 10
48.304167
 20
5.527854
 30
0.0
 11
48.215781
 21
5.61625
 31
0.0
  0
LINE
  5
1AC
330
58E
100
AcDbEntity
  8
HATCH
  6
Continuous
 62
     7
370
    30
100
AcDbLine
 10
48.127385
 20
5.704635
 30
0.0
 11
48.046479
 21
5.785542
 31
0.0
  0
LINE
  5
1AD
330
58E
100
AcDbEntity
  8
HATCH
  6
Continuous
 62
     7
370
    30
100
AcDbLine
 10
47.950615
 20
5.881406
 30
0.0
 11
47.895115
 21
5.936906
 31
0.0
  0
LINE
  5
1AE
330
58E
100
AcDbEntity
  8
HATCH
  6
Continuous
 62
     7
370
    30
100
AcDbLine
 10
48.228406
 20
5.426833
 30
0.0
 11
48.215781
 21
5.439469
 31
0.0
  0
LINE
  5
1AF
330
58E
100
AcDbEntity
  8
HATCH
  6
Continuous
 62
     7
370
    30
100
AcDbLine
 10
48.127385
 20
5.527854
 30
0.0
 11
48.039
 21
5.61625
 31
0.0
  0
LINE
  5
1B0
330
58E
100
AcDbEntity
  8
HATCH
  6
Continuous
 62
     7
370
    30
100
AcDbLine
 10
47.950615
 20
5.704635
 30
0.0
 11
47.862219
 21
5.793021
 31
0.0
  0
LINE
  5
1B1
330
58E
100
AcDbEntity
  8
HATCH
  6
Continuous
 62
     7
370
    30
100
AcDbLine
 10
47.773833
 20
5.881406
 30
0.0
 11
47.718344
 21
5.936906
 31
0.0
  0
LINE
  5
1B2
330
58E
100
AcDbEntity
  8
HATCH
  6
Continuous
 62
     7
370
    30
100
AcDbLine
 10
47.751552
 20
5.726917
 30
0.0
 11
47.685448
 21
5.793021
 31
0.0
  0
LINE
  5
1B3
330
58E
100
AcDbEntity
  8
HATCH
  6
Continuous
 62
     7
370
    30
100
AcDbLine
 10
47.597062
 20
5.881406
 30
0.0
 11
47.541562
 21
5.936906
 31
0.0
  0
LINE
  5
1B4
330
58E
100
AcDbEntity
  8
HATCH
  6
Continuous
 62
     7
370
    30
100
AcDbLine
 10
48.480937
 20
5.527854
 30
0.0
 11
48.392552
 21
5.61625
 31
0.0
  0
LINE
  5
1B5
330
58E
100
AcDbEntity
  8
HATCH
  6
Continuous
 62
     7
370
    30
100
AcDbLine
 10
48.304167
 20
5.704635
 30
0.0
 11
48.285156
 21
5.723646
 31
0.0
  0
LINE
  5
1B6
330
58E
100
AcDbEntity
  8
HATCH
  6
Continuous
 62
     7
370
    30
100
AcDbLine
 10
48.593688
 20
5.591896
 30
0.0
 11
48.569333
 21
5.61625
 31
0.0
  0
LINE
  5
1B7
330
58E
100
AcDbEntity
  8
HATCH
  6
Continuous
 62
     7
370
    30
100
AcDbLine
 10
48.480937
 20
5.704635
 30
0.0
 11
48.404979
 21
5.780604
 31
0.0
  0
LINE
  5
1B8
330
58E
100
AcDbEntity
  8
HATCH
  6
Continuous
 62
     7
370
    30
100
AcDbLine
 10
48.654958
 20
5.707396
 30
0.0
 11
48.569333
 21
5.793021
 31
0.0
  0
LINE
  5
1B9
330
58E
100
AcDbEntity
  8
HATCH
  6
Continuous
 62
     7
370
    30
100
AcDbLine
 10
48.779052
 20
5.760073
 30
0.0
 11
48.746104
 21
5.793021
 31
0.0
  0
LINE
  5
1BA
330
58E
100
AcDbEntity
  8
HATCH
  6
Continuous
 62
     7
370
    30
100
AcDbLine
 10
48.657719
 20
5.881406
 30
0.0
 11
48.602219
 21
5.936906
 31
0.0
  0
LINE
  5
1BB
330
58E
100
AcDbEntity
  8
HATCH
  6
Continuous
 62
     7
370
    30
100
AcDbLine
 10
48.927552
 20
5.788354
 30
0.0
 11
48.922885
 21
5.793021
 31
0.0
  0
LINE
  5
1BC
330
58E
100
AcDbEntity
  8
HATCH
  6
Continuous
 62
     7
370
    30
100
AcDbLine
 10
48.8345
 20
5.881406
 30
0.0
 11
48.779
 21
5.936906
 31
0.0
  0
LINE
  5
1BD
330
58E
100
AcDbEntity
  8
HATCH
  6
Continuous
 62
     7
370
    30
100
AcDbLine
 10
49.006896
 20
5.885781
 30
0.0
 11
48.955781
 21
5.936906
 31
0.0
  0
LINE
  5
1BE
330
58E
100
AcDbEntity
  8
HATCH
  6
Continuous
 62
     7
370
    30
100
AcDbLine
 10
48.45299
 20
5.445323
 30
0.0
 11
48.425698
 21
5.472615
 31
0.0
  0
LINE
  5
1BF
330
58E
100
AcDbEntity
  8
HATCH
  6
Continuous
 62
     7
370
    30
100
AcDbLine
 10
48.337312
 20
5.561
 30
0.0
 11
48.248927
 21
5.649396
 31
0.0
  0
LINE
  5
1C0
330
58E
100
AcDbEntity
  8
HATCH
  6
Continuous
 62
     7
370
    30
100
AcDbLine
 10
47.969885
 20
5.928427
 30
0.0
 11
47.961406
 21
5.936906
 31
0.0
  0
LINE
  5
1C1
330
58E
100
AcDbEntity
  8
HATCH
  6
Continuous
 62
     7
370
    30
100
AcDbLine
 10
48.306542
 20
5.415
 30
0.0
 11
48.248927
 21
5.472615
 31
0.0
  0
LINE
  5
1C2
330
58E
100
AcDbEntity
  8
HATCH
  6
Continuous
 62
     7
370
    30
100
AcDbLine
 10
48.160531
 20
5.561
 30
0.0
 11
48.072146
 21
5.649396
 31
0.0
  0
LINE
  5
1C3
330
58E
100
AcDbEntity
  8
HATCH
  6
Continuous
 62
     7
370
    30
100
AcDbLine
 10
47.98376
 20
5.737781
 30
0.0
 11
47.895365
 21
5.826167
 31
0.0
  0
LINE
  5
1C4
330
58E
100
AcDbEntity
  8
HATCH
  6
Continuous
 62
     7
370
    30
100
AcDbLine
 10
47.806979
 20
5.914552
 30
0.0
 11
47.784635
 21
5.936906
 31
0.0
  0
LINE
  5
1C5
330
58E
100
AcDbEntity
  8
HATCH
  6
Continuous
 62
     7
370
    30
100
AcDbLine
 10
48.074344
 20
5.470417
 30
0.0
 11
48.072146
 21
5.472615
 31
0.0
  0
LINE
  5
1C6
330
58E
100
AcDbEntity
  8
HATCH
  6
Continuous
 62
     7
370
    30
100
AcDbLine
 10
47.98376
 20
5.561
 30
0.0
 11
47.942365
 21
5.602396
 31
0.0
  0
LINE
  5
1C7
330
58E
100
AcDbEntity
  8
HATCH
  6
Continuous
 62
     7
370
    30
100
AcDbLine
 10
47.806979
 20
5.737781
 30
0.0
 11
47.718594
 21
5.826167
 31
0.0
  0
LINE
  5
1C8
330
58E
100
AcDbEntity
  8
HATCH
  6
Continuous
 62
     7
370
    30
100
AcDbLine
 10
47.630208
 20
5.914552
 30
0.0
 11
47.607854
 21
5.936906
 31
0.0
  0
LINE
  5
1C9
330
58E
100
AcDbEntity
  8
HATCH
  6
Continuous
 62
     7
370
    30
100
AcDbLine
 10
47.627917
 20
5.740073
 30
0.0
 11
47.554021
 21
5.813958
 31
0.0
  0
LINE
  5
1CA
330
58E
100
AcDbEntity
  8
HATCH
  6
Continuous
 62
     7
370
    30
100
AcDbLine
 10
48.514083
 20
5.561
 30
0.0
 11
48.425698
 21
5.649396
 31
0.0
  0
LINE
  5
1CB
330
58E
100
AcDbEntity
  8
HATCH
  6
Continuous
 62
     7
370
    30
100
AcDbLine
 10
48.616417
 20
5.635458
 30
0.0
 11
48.602479
 21
5.649396
 31
0.0
  0
LINE
  5
1CC
330
58E
100
AcDbEntity
  8
HATCH
  6
Continuous
 62
     7
370
    30
100
AcDbLine
 10
48.514083
 20
5.737781
 30
0.0
 11
48.44426
 21
5.807604
 31
0.0
  0
LINE
  5
1CD
330
58E
100
AcDbEntity
  8
HATCH
  6
Continuous
 62
     7
370
    30
100
AcDbLine
 10
48.68625
 20
5.742396
 30
0.0
 11
48.602479
 21
5.826167
 31
0.0
  0
LINE
  5
1CE
330
58E
100
AcDbEntity
  8
HATCH
  6
Continuous
 62
     7
370
    30
100
AcDbLine
 10
48.514083
 20
5.914552
 30
0.0
 11
48.50651
 21
5.922135
 31
0.0
  0
LINE
  5
1CF
330
58E
100
AcDbEntity
  8
HATCH
  6
Continuous
 62
     7
370
    30
100
AcDbLine
 10
48.83474
 20
5.770677
 30
0.0
 11
48.77925
 21
5.826167
 31
0.0
  0
LINE
  5
1D0
330
58E
100
AcDbEntity
  8
HATCH
  6
Continuous
 62
     7
370
    30
100
AcDbLine
 10
48.690865
 20
5.914552
 30
0.0
 11
48.66851
 21
5.936906
 31
0.0
  0
LINE
  5
1D1
330
58E
100
AcDbEntity
  8
HATCH
  6
Continuous
 62
     7
370
    30
100
AcDbLine
 10
48.975052
 20
5.807146
 30
0.0
 11
48.956031
 21
5.826167
 31
0.0
  0
LINE
  5
1D2
330
58E
100
AcDbEntity
  8
HATCH
  6
Continuous
 62
     7
370
    30
100
AcDbLine
 10
48.867646
 20
5.914552
 30
0.0
 11
48.845292
 21
5.936906
 31
0.0
  0
LINE
  5
1D3
330
58E
100
AcDbEntity
  8
HATCH
  6
Continuous
 62
     7
370
    30
100
AcDbLine
 10
49.02601
 20
5.932958
 30
0.0
 11
49.022073
 21
5.936906
 31
0.0
  0
LINE
  5
1D5
330
58E
100
AcDbEntity
  8
TITLE
  6
Continuous
 62
     7
370
    13
100
AcDbLine
 10
47.397531
 20
7.210615
 30
0.0
 11
46.932042
 21
6.834635
 31
0.0
  0
LINE
  5
1D6
330
58E
100
AcDbEntity
  8
TITLE
  6
Continuous
 62
     7
370
    13
100
AcDbLine
 10
46.932042
 20
6.834635
 30
0.0
 11
46.781302
 21
6.834635
 31
0.0
  0
LINE
  5
1D7
330
58E
100
AcDbEntity
  8
TITLE
  6
Continuous
 62
     7
370
    13
100
AcDbLine
 10
46.563021
 20
8.212042
 30
0.0
 11
46.367469
 21
8.712281
 31
0.0
  0
LINE
  5
1D8
330
58E
100
AcDbEntity
  8
TITLE
  6
Continuous
 62
     7
370
    13
100
AcDbLine
 10
46.367469
 20
8.712281
 30
0.0
 11
46.187469
 21
8.712281
 31
0.0
  0
LINE
  5
1D9
330
58E
100
AcDbEntity
  8
TITLE
  6
Continuous
 62
     7
370
    13
100
AcDbLine
 10
48.304146
 20
8.38176
 30
0.0
 11
48.152979
 21
8.919417
 31
0.0
  0
LINE
  5
1DA
330
58E
100
AcDbEntity
  8
TITLE
  6
Continuous
 62
     7
370
    13
100
AcDbLine
 10
48.152979
 20
8.919417
 30
0.0
 11
47.972979
 21
8.919417
 31
0.0
  0
LINE
  5
1DB
330
58E
100
AcDbEntity
  8
TITLE
  6
Continuous
 62
     7
370
    13
100
AcDbLine
 10
50.016531
 20
8.222854
 30
0.0
 11
49.88101
 21
8.792854
 31
0.0
  0
LINE
  5
1DC
330
58E
100
AcDbEntity
  8
TITLE
  6
Continuous
 62
     7
370
    13
100
AcDbLine
 10
49.88101
 20
8.792854
 30
0.0
 11
49.70101
 21
8.792854
 31
0.0
  0
LINE
  5
1DD
330
58E
100
AcDbEntity
  8
TITLE
  6
Continuous
 62
     7
370
    13
100
AcDbLine
 10
50.45526
 20
8.383229
 30
0.0
 11
50.652781
 21
8.884833
 31
0.0
  0
LINE
  5
1DE
330
58E
100
AcDbEntity
  8
TITLE
  6
Continuous
 62
     7
370
    13
100
AcDbLine
 10
50.652781
 20
8.884833
 30
0.0
 11
50.832781
 21
8.884833
 31
0.0
  0
LINE
  5
1DF
330
58E
100
AcDbEntity
  8
DIM
  6
Continuous
 62
     7
370
    30
100
AcDbLine
 10
47.388417
 20
7.824406
 30
0.0
 11
47.388417
 21
7.401594
 31
0.0
  0
LINE
  5
1E0
330
58E
100
AcDbEntity
  8
DIM
  6
Continuous
 62
     7
370
    13
100
AcDbLine
 10
46.688417
 20
7.824406
 30
0.0
 11
46.688417
 21
7.472333
 31
0.0
  0
LINE
  5
1E1
330
58E
100
AcDbEntity
  8
DIM
  6
Continuous
 62
     7
370
    13
100
AcDbLine
 10
47.388417
 20
7.581594
 30
0.0
 11
46.688417
 21
7.581594
 31
0.0
  0
LINE
  5
1E2
330
58E
100
AcDbEntity
  8
LEGEND
  6
Continuous
 62
     7
370
    30
100
AcDbLine
 10
47.388417
 20
7.886906
 30
0.0
 11
47.388417
 21
7.886906
 31
0.0
  0
LINE
  5
1E3
330
58E
100
AcDbEntity
  8
LEGEND
  6
Continuous
 62
     7
370
    30
100
AcDbLine
 10
46.688417
 20
7.886906
 30
0.0
 11
46.688417
 21
7.886906
 31
0.0
  0
LINE
  5
1E4
330
58E
100
AcDbEntity
  8
DIM
  6
Continuous
 62
     7
370
    30
100
AcDbLine
 10
49.088417
 20
7.824406
 30
0.0
 11
49.088417
 21
7.401594
 31
0.0
  0
LINE
  5
1E5
330
58E
100
AcDbEntity
  8
DIM
  6
Continuous
 62
     7
370
    13
100
AcDbLine
 10
49.788417
 20
7.824406
 30
0.0
 11
49.788417
 21
7.472333
 31
0.0
  0
LINE
  5
1E6
330
58E
100
AcDbEntity
  8
DIM
  6
Continuous
 62
     7
370
    13
100
AcDbLine
 10
49.088417
 20
7.581594
 30
0.0
 11
49.788417
 21
7.581594
 31
0.0
  0
LINE
  5
1E7
330
58E
100
AcDbEntity
  8
LEGEND
  6
Continuous
 62
     7
370
    30
100
AcDbLine
 10
49.088417
 20
7.886906
 30
0.0
 11
49.088417
 21
7.886906
 31
0.0
  0
LINE
  5
1E8
330
58E
100
AcDbEntity
  8
LEGEND
  6
Continuous
 62
     7
370
    30
100
AcDbLine
 10
49.788417
 20
7.886906
 30
0.0
 11
49.788417
 21
7.886906
 31
0.0
  0
ARC
  5
1E9
330
58E
100
AcDbEntity
  8
DIM
  6
Continuous
 62
     7
370
    30
100
AcDbCircle
 10
48.238416
 20
6.010297
 30
0.0
 40
0.2814948814077473
100
AcDbArc
 50
344.887061
 51
195.112939
  0
LINE
  5
1EA
330
58E
100
AcDbEntity
  8
HATCH
  6
Continuous
 62
     7
370
    30
100
AcDbLine
 10
49.088417
 20
6.048521
 30
0.0
 11
48.383208
 21
6.753719
 31
0.0
  0
LINE
  5
1EB
330
58E
100
AcDbEntity
  8
HATCH
  6
Continuous
 62
     7
370
    30
100
AcDbLine
 10
48.12974
 20
7.007187
 30
0.0
 11
47.388417
 21
7.748521
 31
0.0
  0
LINE
  5
1EC
330
58E
100
AcDbEntity
  8
HATCH
  6
Continuous
 62
     7
370
    30
100
AcDbLine
 10
49.02325
 20
5.936906
 30
0.0
 11
48.206427
 21
6.753719
 31
0.0
  0
LINE
  5
1ED
330
58E
100
AcDbEntity
  8
HATCH
  6
Continuous
 62
     7
370
    30
100
AcDbLine
 10
47.952969
 20
7.007187
 30
0.0
 11
47.388417
 21
7.57174
 31
0.0
  0
LINE
  5
1EE
330
58E
100
AcDbEntity
  8
HATCH
  6
Continuous
 62
     7
370
    30
100
AcDbLine
 10
48.846469
 20
5.936906
 30
0.0
 11
48.029656
 21
6.753719
 31
0.0
  0
LINE
  5
1EF
330
58E
100
AcDbEntity
  8
HATCH
  6
Continuous
 62
     7
370
    30
100
AcDbLine
 10
47.776187
 20
7.007187
 30
0.0
 11
47.388417
 21
7.394958
 31
0.0
  0
LINE
  5
1F0
330
58E
100
AcDbEntity
  8
HATCH
  6
Continuous
 62
     7
370
    30
100
AcDbLine
 10
48.669698
 20
5.936906
 30
0.0
 11
48.504531
 21
6.102073
 31
0.0
  0
LINE
  5
1F1
330
58E
100
AcDbEntity
  8
HATCH
  6
Continuous
 62
     7
370
    30
100
AcDbLine
 10
47.772885
 20
6.833719
 30
0.0
 11
47.388417
 21
7.218187
 31
0.0
  0
LINE
  5
1F2
330
58E
100
AcDbEntity
  8
HATCH
  6
Continuous
 62
     7
370
    30
100
AcDbLine
 10
48.330188
 20
6.276406
 30
0.0
 11
47.852875
 21
6.753719
 31
0.0
  0
LINE
  5
1F3
330
58E
100
AcDbEntity
  8
HATCH
  6
Continuous
 62
     7
370
    30
100
AcDbLine
 10
48.151719
 20
6.278104
 30
0.0
 11
47.388417
 21
7.041406
 31
0.0
  0
LINE
  5
1F4
330
58E
100
AcDbEntity
  8
HATCH
  6
Continuous
 62
     7
370
    30
100
AcDbLine
 10
48.041552
 20
6.2115
 30
0.0
 11
47.388417
 21
6.864635
 31
0.0
  0
LINE
  5
1F5
330
58E
100
AcDbEntity
  8
HATCH
  6
Continuous
 62
     7
370
    30
100
AcDbLine
 10
47.972792
 20
6.103479
 30
0.0
 11
47.388417
 21
6.687854
 31
0.0
  0
LINE
  5
1F6
330
58E
100
AcDbEntity
  8
HATCH
  6
Continuous
 62
     7
370
    30
100
AcDbLine
 10
47.962594
 20
5.936906
 30
0.0
 11
47.388417
 21
6.511083
 31
0.0
  0
LINE
  5
1F7
330
58E
100
AcDbEntity
  8
HATCH
  6
Continuous
 62
     7
370
    30
100
AcDbLine
 10
47.785812
 20
5.936906
 30
0.0
 11
47.388417
 21
6.334302
 31
0.0
  0
LINE
  5
1F8
330
58E
100
AcDbEntity
  8
HATCH
  6
Continuous
 62
     7
370
    30
100
AcDbLine
 10
47.609042
 20
5.936906
 30
0.0
 11
47.388417
 21
6.157521
 31
0.0
  0
LINE
  5
1F9
330
58E
100
AcDbEntity
  8
HATCH
  6
Continuous
 62
     7
370
    30
100
AcDbLine
 10
47.43226
 20
5.936906
 30
0.0
 11
47.388417
 21
5.98075
 31
0.0
  0
LINE
  5
1FA
330
58E
100
AcDbEntity
  8
HATCH
  6
Continuous
 62
     7
370
    30
100
AcDbLine
 10
49.088417
 20
6.225292
 30
0.0
 11
48.55999
 21
6.753719
 31
0.0
  0
LINE
  5
1FB
330
58E
100
AcDbEntity
  8
HATCH
  6
Continuous
 62
     7
370
    30
100
AcDbLine
 10
48.306521
 20
7.007187
 30
0.0
 11
47.426802
 21
7.886906
 31
0.0
  0
LINE
  5
1FC
330
58E
100
AcDbEntity
  8
HATCH
  6
Continuous
 62
     7
370
    30
100
AcDbLine
 10
49.088417
 20
6.402073
 30
0.0
 11
48.717552
 21
6.772927
 31
0.0
  0
LINE
  5
1FD
330
58E
100
AcDbEntity
  8
HATCH
  6
Continuous
 62
     7
370
    30
100
AcDbLine
 10
48.483302
 20
7.007187
 30
0.0
 11
47.603583
 21
7.886906
 31
0.0
  0
LINE
  5
1FE
330
58E
100
AcDbEntity
  8
HATCH
  6
Continuous
 62
     7
370
    30
100
AcDbLine
 10
49.088417
 20
6.578844
 30
0.0
 11
48.717552
 21
6.949708
 31
0.0
  0
LINE
  5
1FF
330
58E
100
AcDbEntity
  8
HATCH
  6
Continuous
 62
     7
370
    30
100
AcDbLine
 10
48.660073
 20
7.007187
 30
0.0
 11
47.780354
 21
7.886906
 31
0.0
  0
LINE
  5
200
330
58E
100
AcDbEntity
  8
HATCH
  6
Continuous
 62
     7
370
    30
100
AcDbLine
 10
49.088417
 20
6.755625
 30
0.0
 11
47.957135
 21
7.886906
 31
0.0
  0
LINE
  5
201
330
58E
100
AcDbEntity
  8
HATCH
  6
Continuous
 62
     7
370
    30
100
AcDbLine
 10
49.088417
 20
6.932396
 30
0.0
 11
48.133906
 21
7.886906
 31
0.0
  0
LINE
  5
202
330
58E
100
AcDbEntity
  8
HATCH
  6
Continuous
 62
     7
370
    30
100
AcDbLine
 10
49.088417
 20
7.109177
 30
0.0
 11
48.310688
 21
7.886906
 31
0.0
  0
LINE
  5
203
330
58E
100
AcDbEntity
  8
HATCH
  6
Continuous
 62
     7
370
    30
100
AcDbLine
 10
49.088417
 20
7.285948
 30
0.0
 11
48.487469
 21
7.886906
 31
0.0
  0
LINE
  5
204
330
58E
100
AcDbEntity
  8
HATCH
  6
Continuous
 62
     7
370
    30
100
AcDbLine
 10
49.088417
 20
7.462729
 30
0.0
 11
48.66424
 21
7.886906
 31
0.0
  0
LINE
  5
205
330
58E
100
AcDbEntity
  8
HATCH
  6
Continuous
 62
     7
370
    30
100
AcDbLine
 10
49.088417
 20
7.63951
 30
0.0
 11
48.841021
 21
7.886906
 31
0.0
  0
LINE
  5
206
330
58E
100
AcDbEntity
  8
HATCH
  6
Continuous
 62
     7
370
    30
100
AcDbLine
 10
49.088417
 20
7.816281
 30
0.0
 11
49.017792
 21
7.886906
 31
0.0
  0
POINT
  5
207
330
58E
100
AcDbEntity
  8
HATCH
  6
Continuous
 62
     7
370
    30
100
AcDbPoint
 10
45.375
 20
8.125
 30
0.0
  0
POINT
  5
208
330
58E
100
AcDbEntity
  8
HATCH
  6
Continuous
 62
     7
370
    30
100
AcDbPoint
 10
45.4375
 20
8.125
 30
0.0
  0
POINT
  5
209
330
58E
100
AcDbEntity
  8
HATCH
  6
Continuous
 62
     7
370
    30
100
AcDbPoint
 10
45.5
 20
8.125
 30
0.0
  0
POINT
  5
20A
330
58E
100
AcDbEntity
  8
HATCH
  6
Continuous
 62
     7
370
    30
100
AcDbPoint
 10
45.5625
 20
8.125
 30
0.0
  0
POINT
  5
20B
330
58E
100
AcDbEntity
  8
HATCH
  6
Continuous
 62
     7
370
    30
100
AcDbPoint
 10
45.625
 20
8.125
 30
0.0
  0
POINT
  5
20C
330
58E
100
AcDbEntity
  8
HATCH
  6
Continuous
 62
     7
370
    30
100
AcDbPoint
 10
45.6875
 20
8.125
 30
0.0
  0
POINT
  5
20D
330
58E
100
AcDbEntity
  8
HATCH
  6
Continuous
 62
     7
370
    30
100
AcDbPoint
 10
45.75
 20
8.125
 30
0.0
  0
POINT
  5
20E
330
58E
100
AcDbEntity
  8
HATCH
  6
Continuous
 62
     7
370
    30
100
AcDbPoint
 10
45.8125
 20
8.125
 30
0.0
  0
POINT
  5
20F
330
58E
100
AcDbEntity
  8
HATCH
  6
Continuous
 62
     7
370
    30
100
AcDbPoint
 10
45.875
 20
8.125
 30
0.0
  0
POINT
  5
210
330
58E
100
AcDbEntity
  8
HATCH
  6
Continuous
 62
     7
370
    30
100
AcDbPoint
 10
45.9375
 20
8.125
 30
0.0
  0
POINT
  5
211
330
58E
100
AcDbEntity
  8
HATCH
  6
Continuous
 62
     7
370
    30
100
AcDbPoint
 10
46.0
 20
8.125
 30
0.0
  0
POINT
  5
212
330
58E
100
AcDbEntity
  8
HATCH
  6
Continuous
 62
     7
370
    30
100
AcDbPoint
 10
46.0625
 20
8.125
 30
0.0
  0
POINT
  5
213
330
58E
100
AcDbEntity
  8
HATCH
  6
Continuous
 62
     7
370
    30
100
AcDbPoint
 10
46.125
 20
8.125
 30
0.0
  0
POINT
  5
214
330
58E
100
AcDbEntity
  8
HATCH
  6
Continuous
 62
     7
370
    30
100
AcDbPoint
 10
46.1875
 20
8.125
 30
0.0
  0
POINT
  5
215
330
58E
100
AcDbEntity
  8
HATCH
  6
Continuous
 62
     7
370
    30
100
AcDbPoint
 10
46.25
 20
8.125
 30
0.0
  0
POINT
  5
216
330
58E
100
AcDbEntity
  8
HATCH
  6
Continuous
 62
     7
370
    30
100
AcDbPoint
 10
46.3125
 20
8.125
 30
0.0
  0
POINT
  5
217
330
58E
100
AcDbEntity
  8
HATCH
  6
Continuous
 62
     7
370
    30
100
AcDbPoint
 10
46.375
 20
8.125
 30
0.0
  0
POINT
  5
218
330
58E
100
AcDbEntity
  8
HATCH
  6
Continuous
 62
     7
370
    30
100
AcDbPoint
 10
46.4375
 20
8.125
 30
0.0
  0
POINT
  5
219
330
58E
100
AcDbEntity
  8
HATCH
  6
Continuous
 62
     7
370
    30
100
AcDbPoint
 10
46.5
 20
8.125
 30
0.0
  0
POINT
  5
21A
330
58E
100
AcDbEntity
  8
HATCH
  6
Continuous
 62
     7
370
    30
100
AcDbPoint
 10
46.5625
 20
8.125
 30
0.0
  0
POINT
  5
21B
330
58E
100
AcDbEntity
  8
HATCH
  6
Continuous
 62
     7
370
    30
100
AcDbPoint
 10
46.625
 20
8.125
 30
0.0
  0
POINT
  5
21C
330
58E
100
AcDbEntity
  8
HATCH
  6
Continuous
 62
     7
370
    30
100
AcDbPoint
 10
46.6875
 20
8.125
 30
0.0
  0
POINT
  5
21D
330
58E
100
AcDbEntity
  8
HATCH
  6
Continuous
 62
     7
370
    30
100
AcDbPoint
 10
46.75
 20
8.125
 30
0.0
  0
POINT
  5
21E
330
58E
100
AcDbEntity
  8
HATCH
  6
Continuous
 62
     7
370
    30
100
AcDbPoint
 10
46.8125
 20
8.125
 30
0.0
  0
POINT
  5
21F
330
58E
100
AcDbEntity
  8
HATCH
  6
Continuous
 62
     7
370
    30
100
AcDbPoint
 10
46.875
 20
8.125
 30
0.0
  0
POINT
  5
220
330
58E
100
AcDbEntity
  8
HATCH
  6
Continuous
 62
     7
370
    30
100
AcDbPoint
 10
46.9375
 20
8.125
 30
0.0
  0
POINT
  5
221
330
58E
100
AcDbEntity
  8
HATCH
  6
Continuous
 62
     7
370
    30
100
AcDbPoint
 10
47.0
 20
8.125
 30
0.0
  0
POINT
  5
222
330
58E
100
AcDbEntity
  8
HATCH
  6
Continuous
 62
     7
370
    30
100
AcDbPoint
 10
47.0625
 20
8.125
 30
0.0
  0
POINT
  5
223
330
58E
100
AcDbEntity
  8
HATCH
  6
Continuous
 62
     7
370
    30
100
AcDbPoint
 10
47.125
 20
8.125
 30
0.0
  0
POINT
  5
224
330
58E
100
AcDbEntity
  8
HATCH
  6
Continuous
 62
     7
370
    30
100
AcDbPoint
 10
47.1875
 20
8.125
 30
0.0
  0
POINT
  5
225
330
58E
100
AcDbEntity
  8
HATCH
  6
Continuous
 62
     7
370
    30
100
AcDbPoint
 10
47.25
 20
8.125
 30
0.0
  0
POINT
  5
226
330
58E
100
AcDbEntity
  8
HATCH
  6
Continuous
 62
     7
370
    30
100
AcDbPoint
 10
47.3125
 20
8.125
 30
0.0
  0
POINT
  5
227
330
58E
100
AcDbEntity
  8
HATCH
  6
Continuous
 62
     7
370
    30
100
AcDbPoint
 10
47.375
 20
8.125
 30
0.0
  0
POINT
  5
228
330
58E
100
AcDbEntity
  8
HATCH
  6
Continuous
 62
     7
370
    30
100
AcDbPoint
 10
47.4375
 20
8.125
 30
0.0
  0
POINT
  5
229
330
58E
100
AcDbEntity
  8
HATCH
  6
Continuous
 62
     7
370
    30
100
AcDbPoint
 10
47.5
 20
8.125
 30
0.0
  0
POINT
  5
22A
330
58E
100
AcDbEntity
  8
HATCH
  6
Continuous
 62
     7
370
    30
100
AcDbPoint
 10
47.5625
 20
8.125
 30
0.0
  0
POINT
  5
22B
330
58E
100
AcDbEntity
  8
HATCH
  6
Continuous
 62
     7
370
    30
100
AcDbPoint
 10
47.625
 20
8.125
 30
0.0
  0
POINT
  5
22C
330
58E
100
AcDbEntity
  8
HATCH
  6
Continuous
 62
     7
370
    30
100
AcDbPoint
 10
47.6875
 20
8.125
 30
0.0
  0
POINT
  5
22D
330
58E
100
AcDbEntity
  8
HATCH
  6
Continuous
 62
     7
370
    30
100
AcDbPoint
 10
47.75
 20
8.125
 30
0.0
  0
POINT
  5
22E
330
58E
100
AcDbEntity
  8
HATCH
  6
Continuous
 62
     7
370
    30
100
AcDbPoint
 10
47.8125
 20
8.125
 30
0.0
  0
POINT
  5
22F
330
58E
100
AcDbEntity
  8
HATCH
  6
Continuous
 62
     7
370
    30
100
AcDbPoint
 10
47.875
 20
8.125
 30
0.0
  0
POINT
  5
230
330
58E
100
AcDbEntity
  8
HATCH
  6
Continuous
 62
     7
370
    30
100
AcDbPoint
 10
47.9375
 20
8.125
 30
0.0
  0
POINT
  5
231
330
58E
100
AcDbEntity
  8
HATCH
  6
Continuous
 62
     7
370
    30
100
AcDbPoint
 10
48.0
 20
8.125
 30
0.0
  0
POINT
  5
232
330
58E
100
AcDbEntity
  8
HATCH
  6
Continuous
 62
     7
370
    30
100
AcDbPoint
 10
48.0625
 20
8.125
 30
0.0
  0
POINT
  5
233
330
58E
100
AcDbEntity
  8
HATCH
  6
Continuous
 62
     7
370
    30
100
AcDbPoint
 10
48.125
 20
8.125
 30
0.0
  0
POINT
  5
234
330
58E
100
AcDbEntity
  8
HATCH
  6
Continuous
 62
     7
370
    30
100
AcDbPoint
 10
48.1875
 20
8.125
 30
0.0
  0
POINT
  5
235
330
58E
100
AcDbEntity
  8
HATCH
  6
Continuous
 62
     7
370
    30
100
AcDbPoint
 10
48.25
 20
8.125
 30
0.0
  0
POINT
  5
236
330
58E
100
AcDbEntity
  8
HATCH
  6
Continuous
 62
     7
370
    30
100
AcDbPoint
 10
48.3125
 20
8.125
 30
0.0
  0
POINT
  5
237
330
58E
100
AcDbEntity
  8
HATCH
  6
Continuous
 62
     7
370
    30
100
AcDbPoint
 10
48.375
 20
8.125
 30
0.0
  0
POINT
  5
238
330
58E
100
AcDbEntity
  8
HATCH
  6
Continuous
 62
     7
370
    30
100
AcDbPoint
 10
48.4375
 20
8.125
 30
0.0
  0
POINT
  5
239
330
58E
100
AcDbEntity
  8
HATCH
  6
Continuous
 62
     7
370
    30
100
AcDbPoint
 10
48.5
 20
8.125
 30
0.0
  0
POINT
  5
23A
330
58E
100
AcDbEntity
  8
HATCH
  6
Continuous
 62
     7
370
    30
100
AcDbPoint
 10
48.5625
 20
8.125
 30
0.0
  0
POINT
  5
23B
330
58E
100
AcDbEntity
  8
HATCH
  6
Continuous
 62
     7
370
    30
100
AcDbPoint
 10
48.625
 20
8.125
 30
0.0
  0
POINT
  5
23C
330
58E
100
AcDbEntity
  8
HATCH
  6
Continuous
 62
     7
370
    30
100
AcDbPoint
 10
48.6875
 20
8.125
 30
0.0
  0
POINT
  5
23D
330
58E
100
AcDbEntity
  8
HATCH
  6
Continuous
 62
     7
370
    30
100
AcDbPoint
 10
48.75
 20
8.125
 30
0.0
  0
POINT
  5
23E
330
58E
100
AcDbEntity
  8
HATCH
  6
Continuous
 62
     7
370
    30
100
AcDbPoint
 10
48.8125
 20
8.125
 30
0.0
  0
POINT
  5
23F
330
58E
100
AcDbEntity
  8
HATCH
  6
Continuous
 62
     7
370
    30
100
AcDbPoint
 10
48.875
 20
8.125
 30
0.0
  0
POINT
  5
240
330
58E
100
AcDbEntity
  8
HATCH
  6
Continuous
 62
     7
370
    30
100
AcDbPoint
 10
48.9375
 20
8.125
 30
0.0
  0
POINT
  5
241
330
58E
100
AcDbEntity
  8
HATCH
  6
Continuous
 62
     7
370
    30
100
AcDbPoint
 10
49.0
 20
8.125
 30
0.0
  0
POINT
  5
242
330
58E
100
AcDbEntity
  8
HATCH
  6
Continuous
 62
     7
370
    30
100
AcDbPoint
 10
49.0625
 20
8.125
 30
0.0
  0
POINT
  5
243
330
58E
100
AcDbEntity
  8
HATCH
  6
Continuous
 62
     7
370
    30
100
AcDbPoint
 10
49.125
 20
8.125
 30
0.0
  0
POINT
  5
244
330
58E
100
AcDbEntity
  8
HATCH
  6
Continuous
 62
     7
370
    30
100
AcDbPoint
 10
49.1875
 20
8.125
 30
0.0
  0
POINT
  5
245
330
58E
100
AcDbEntity
  8
HATCH
  6
Continuous
 62
     7
370
    30
100
AcDbPoint
 10
49.25
 20
8.125
 30
0.0
  0
POINT
  5
246
330
58E
100
AcDbEntity
  8
HATCH
  6
Continuous
 62
     7
370
    30
100
AcDbPoint
 10
49.3125
 20
8.125
 30
0.0
  0
POINT
  5
247
330
58E
100
AcDbEntity
  8
HATCH
  6
Continuous
 62
     7
370
    30
100
AcDbPoint
 10
49.375
 20
8.125
 30
0.0
  0
POINT
  5
248
330
58E
100
AcDbEntity
  8
HATCH
  6
Continuous
 62
     7
370
    30
100
AcDbPoint
 10
49.4375
 20
8.125
 30
0.0
  0
POINT
  5
249
330
58E
100
AcDbEntity
  8
HATCH
  6
Continuous
 62
     7
370
    30
100
AcDbPoint
 10
49.5
 20
8.125
 30
0.0
  0
POINT
  5
24A
330
58E
100
AcDbEntity
  8
HATCH
  6
Continuous
 62
     7
370
    30
100
AcDbPoint
 10
49.5625
 20
8.125
 30
0.0
  0
POINT
  5
24B
330
58E
100
AcDbEntity
  8
HATCH
  6
Continuous
 62
     7
370
    30
100
AcDbPoint
 10
49.625
 20
8.125
 30
0.0
  0
POINT
  5
24C
330
58E
100
AcDbEntity
  8
HATCH
  6
Continuous
 62
     7
370
    30
100
AcDbPoint
 10
49.6875
 20
8.125
 30
0.0
  0
POINT
  5
24D
330
58E
100
AcDbEntity
  8
HATCH
  6
Continuous
 62
     7
370
    30
100
AcDbPoint
 10
49.75
 20
8.125
 30
0.0
  0
POINT
  5
24E
330
58E
100
AcDbEntity
  8
HATCH
  6
Continuous
 62
     7
370
    30
100
AcDbPoint
 10
49.8125
 20
8.125
 30
0.0
  0
POINT
  5
24F
330
58E
100
AcDbEntity
  8
HATCH
  6
Continuous
 62
     7
370
    30
100
AcDbPoint
 10
49.875
 20
8.125
 30
0.0
  0
POINT
  5
250
330
58E
100
AcDbEntity
  8
HATCH
  6
Continuous
 62
     7
370
    30
100
AcDbPoint
 10
49.9375
 20
8.125
 30
0.0
  0
POINT
  5
251
330
58E
100
AcDbEntity
  8
HATCH
  6
Continuous
 62
     7
370
    30
100
AcDbPoint
 10
50.0
 20
8.125
 30
0.0
  0
POINT
  5
252
330
58E
100
AcDbEntity
  8
HATCH
  6
Continuous
 62
     7
370
    30
100
AcDbPoint
 10
50.0625
 20
8.125
 30
0.0
  0
POINT
  5
253
330
58E
100
AcDbEntity
  8
HATCH
  6
Continuous
 62
     7
370
    30
100
AcDbPoint
 10
50.125
 20
8.125
 30
0.0
  0
POINT
  5
254
330
58E
100
AcDbEntity
  8
HATCH
  6
Continuous
 62
     7
370
    30
100
AcDbPoint
 10
50.1875
 20
8.125
 30
0.0
  0
POINT
  5
255
330
58E
100
AcDbEntity
  8
HATCH
  6
Continuous
 62
     7
370
    30
100
AcDbPoint
 10
50.25
 20
8.125
 30
0.0
  0
POINT
  5
256
330
58E
100
AcDbEntity
  8
HATCH
  6
Continuous
 62
     7
370
    30
100
AcDbPoint
 10
50.3125
 20
8.125
 30
0.0
  0
POINT
  5
257
330
58E
100
AcDbEntity
  8
HATCH
  6
Continuous
 62
     7
370
    30
100
AcDbPoint
 10
50.375
 20
8.125
 30
0.0
  0
POINT
  5
258
330
58E
100
AcDbEntity
  8
HATCH
  6
Continuous
 62
     7
370
    30
100
AcDbPoint
 10
50.4375
 20
8.125
 30
0.0
  0
POINT
  5
259
330
58E
100
AcDbEntity
  8
HATCH
  6
Continuous
 62
     7
370
    30
100
AcDbPoint
 10
50.5
 20
8.125
 30
0.0
  0
POINT
  5
25A
330
58E
100
AcDbEntity
  8
HATCH
  6
Continuous
 62
     7
370
    30
100
AcDbPoint
 10
50.5625
 20
8.125
 30
0.0
  0
POINT
  5
25B
330
58E
100
AcDbEntity
  8
HATCH
  6
Continuous
 62
     7
370
    30
100
AcDbPoint
 10
50.625
 20
8.125
 30
0.0
  0
POINT
  5
25C
330
58E
100
AcDbEntity
  8
HATCH
  6
Continuous
 62
     7
370
    30
100
AcDbPoint
 10
50.6875
 20
8.125
 30
0.0
  0
POINT
  5
25D
330
58E
100
AcDbEntity
  8
HATCH
  6
Continuous
 62
     7
370
    30
100
AcDbPoint
 10
50.75
 20
8.125
 30
0.0
  0
POINT
  5
25E
330
58E
100
AcDbEntity
  8
HATCH
  6
Continuous
 62
     7
370
    30
100
AcDbPoint
 10
50.8125
 20
8.125
 30
0.0
  0
POINT
  5
25F
330
58E
100
AcDbEntity
  8
HATCH
  6
Continuous
 62
     7
370
    30
100
AcDbPoint
 10
50.875
 20
8.125
 30
0.0
  0
POINT
  5
260
330
58E
100
AcDbEntity
  8
HATCH
  6
Continuous
 62
     7
370
    30
100
AcDbPoint
 10
50.9375
 20
8.125
 30
0.0
  0
POINT
  5
261
330
58E
100
AcDbEntity
  8
HATCH
  6
Continuous
 62
     7
370
    30
100
AcDbPoint
 10
51.0
 20
8.125
 30
0.0
  0
POINT
  5
262
330
58E
100
AcDbEntity
  8
HATCH
  6
Continuous
 62
     7
370
    30
100
AcDbPoint
 10
51.0625
 20
8.125
 30
0.0
  0
POINT
  5
263
330
58E
100
AcDbEntity
  8
HATCH
  6
Continuous
 62
     7
370
    30
100
AcDbPoint
 10
51.125
 20
8.125
 30
0.0
  0
POINT
  5
264
330
58E
100
AcDbEntity
  8
HATCH
  6
Continuous
 62
     7
370
    30
100
AcDbPoint
 10
45.34375
 20
8.1875
 30
0.0
  0
POINT
  5
265
330
58E
100
AcDbEntity
  8
HATCH
  6
Continuous
 62
     7
370
    30
100
AcDbPoint
 10
45.40625
 20
8.1875
 30
0.0
  0
POINT
  5
266
330
58E
100
AcDbEntity
  8
HATCH
  6
Continuous
 62
     7
370
    30
100
AcDbPoint
 10
45.46875
 20
8.1875
 30
0.0
  0
POINT
  5
267
330
58E
100
AcDbEntity
  8
HATCH
  6
Continuous
 62
     7
370
    30
100
AcDbPoint
 10
45.53125
 20
8.1875
 30
0.0
  0
POINT
  5
268
330
58E
100
AcDbEntity
  8
HATCH
  6
Continuous
 62
     7
370
    30
100
AcDbPoint
 10
45.59375
 20
8.1875
 30
0.0
  0
POINT
  5
269
330
58E
100
AcDbEntity
  8
HATCH
  6
Continuous
 62
     7
370
    30
100
AcDbPoint
 10
45.65625
 20
8.1875
 30
0.0
  0
POINT
  5
26A
330
58E
100
AcDbEntity
  8
HATCH
  6
Continuous
 62
     7
370
    30
100
AcDbPoint
 10
45.71875
 20
8.1875
 30
0.0
  0
POINT
  5
26B
330
58E
100
AcDbEntity
  8
HATCH
  6
Continuous
 62
     7
370
    30
100
AcDbPoint
 10
45.78125
 20
8.1875
 30
0.0
  0
POINT
  5
26C
330
58E
100
AcDbEntity
  8
HATCH
  6
Continuous
 62
     7
370
    30
100
AcDbPoint
 10
45.84375
 20
8.1875
 30
0.0
  0
POINT
  5
26D
330
58E
100
AcDbEntity
  8
HATCH
  6
Continuous
 62
     7
370
    30
100
AcDbPoint
 10
45.90625
 20
8.1875
 30
0.0
  0
POINT
  5
26E
330
58E
100
AcDbEntity
  8
HATCH
  6
Continuous
 62
     7
370
    30
100
AcDbPoint
 10
45.96875
 20
8.1875
 30
0.0
  0
POINT
  5
26F
330
58E
100
AcDbEntity
  8
HATCH
  6
Continuous
 62
     7
370
    30
100
AcDbPoint
 10
46.03125
 20
8.1875
 30
0.0
  0
POINT
  5
270
330
58E
100
AcDbEntity
  8
HATCH
  6
Continuous
 62
     7
370
    30
100
AcDbPoint
 10
46.09375
 20
8.1875
 30
0.0
  0
POINT
  5
271
330
58E
100
AcDbEntity
  8
HATCH
  6
Continuous
 62
     7
370
    30
100
AcDbPoint
 10
46.15625
 20
8.1875
 30
0.0
  0
POINT
  5
272
330
58E
100
AcDbEntity
  8
HATCH
  6
Continuous
 62
     7
370
    30
100
AcDbPoint
 10
46.21875
 20
8.1875
 30
0.0
  0
POINT
  5
273
330
58E
100
AcDbEntity
  8
HATCH
  6
Continuous
 62
     7
370
    30
100
AcDbPoint
 10
46.28125
 20
8.1875
 30
0.0
  0
POINT
  5
274
330
58E
100
AcDbEntity
  8
HATCH
  6
Continuous
 62
     7
370
    30
100
AcDbPoint
 10
46.34375
 20
8.1875
 30
0.0
  0
POINT
  5
275
330
58E
100
AcDbEntity
  8
HATCH
  6
Continuous
 62
     7
370
    30
100
AcDbPoint
 10
50.09375
 20
8.1875
 30
0.0
  0
POINT
  5
276
330
58E
100
AcDbEntity
  8
HATCH
  6
Continuous
 62
     7
370
    30
100
AcDbPoint
 10
50.15625
 20
8.1875
 30
0.0
  0
POINT
  5
277
330
58E
100
AcDbEntity
  8
HATCH
  6
Continuous
 62
     7
370
    30
100
AcDbPoint
 10
50.21875
 20
8.1875
 30
0.0
  0
POINT
  5
278
330
58E
100
AcDbEntity
  8
HATCH
  6
Continuous
 62
     7
370
    30
100
AcDbPoint
 10
50.28125
 20
8.1875
 30
0.0
  0
POINT
  5
279
330
58E
100
AcDbEntity
  8
HATCH
  6
Continuous
 62
     7
370
    30
100
AcDbPoint
 10
50.34375
 20
8.1875
 30
0.0
  0
POINT
  5
27A
330
58E
100
AcDbEntity
  8
HATCH
  6
Continuous
 62
     7
370
    30
100
AcDbPoint
 10
50.40625
 20
8.1875
 30
0.0
  0
POINT
  5
27B
330
58E
100
AcDbEntity
  8
HATCH
  6
Continuous
 62
     7
370
    30
100
AcDbPoint
 10
50.46875
 20
8.1875
 30
0.0
  0
POINT
  5
27C
330
58E
100
AcDbEntity
  8
HATCH
  6
Continuous
 62
     7
370
    30
100
AcDbPoint
 10
50.53125
 20
8.1875
 30
0.0
  0
POINT
  5
27D
330
58E
100
AcDbEntity
  8
HATCH
  6
Continuous
 62
     7
370
    30
100
AcDbPoint
 10
50.59375
 20
8.1875
 30
0.0
  0
POINT
  5
27E
330
58E
100
AcDbEntity
  8
HATCH
  6
Continuous
 62
     7
370
    30
100
AcDbPoint
 10
50.65625
 20
8.1875
 30
0.0
  0
POINT
  5
27F
330
58E
100
AcDbEntity
  8
HATCH
  6
Continuous
 62
     7
370
    30
100
AcDbPoint
 10
50.71875
 20
8.1875
 30
0.0
  0
POINT
  5
280
330
58E
100
AcDbEntity
  8
HATCH
  6
Continuous
 62
     7
370
    30
100
AcDbPoint
 10
50.78125
 20
8.1875
 30
0.0
  0
POINT
  5
281
330
58E
100
AcDbEntity
  8
HATCH
  6
Continuous
 62
     7
370
    30
100
AcDbPoint
 10
50.84375
 20
8.1875
 30
0.0
  0
POINT
  5
282
330
58E
100
AcDbEntity
  8
HATCH
  6
Continuous
 62
     7
370
    30
100
AcDbPoint
 10
50.90625
 20
8.1875
 30
0.0
  0
POINT
  5
283
330
58E
100
AcDbEntity
  8
HATCH
  6
Continuous
 62
     7
370
    30
100
AcDbPoint
 10
50.96875
 20
8.1875
 30
0.0
  0
POINT
  5
284
330
58E
100
AcDbEntity
  8
HATCH
  6
Continuous
 62
     7
370
    30
100
AcDbPoint
 10
51.03125
 20
8.1875
 30
0.0
  0
POINT
  5
285
330
58E
100
AcDbEntity
  8
HATCH
  6
Continuous
 62
     7
370
    30
100
AcDbPoint
 10
51.09375
 20
8.1875
 30
0.0
  0
POINT
  5
286
330
58E
100
AcDbEntity
  8
HATCH
  6
Continuous
 62
     7
370
    30
100
AcDbPoint
 10
51.15625
 20
8.1875
 30
0.0
  0
POINT
  5
287
330
58E
100
AcDbEntity
  8
HATCH
  6
Continuous
 62
     7
370
    30
100
AcDbPoint
 10
47.03125
 20
8.1875
 30
0.0
  0
POINT
  5
288
330
58E
100
AcDbEntity
  8
HATCH
  6
Continuous
 62
     7
370
    30
100
AcDbPoint
 10
47.09375
 20
8.1875
 30
0.0
  0
POINT
  5
289
330
58E
100
AcDbEntity
  8
HATCH
  6
Continuous
 62
     7
370
    30
100
AcDbPoint
 10
47.15625
 20
8.1875
 30
0.0
  0
POINT
  5
28A
330
58E
100
AcDbEntity
  8
HATCH
  6
Continuous
 62
     7
370
    30
100
AcDbPoint
 10
47.21875
 20
8.1875
 30
0.0
  0
POINT
  5
28B
330
58E
100
AcDbEntity
  8
HATCH
  6
Continuous
 62
     7
370
    30
100
AcDbPoint
 10
47.28125
 20
8.1875
 30
0.0
  0
POINT
  5
28C
330
58E
100
AcDbEntity
  8
HATCH
  6
Continuous
 62
     7
370
    30
100
AcDbPoint
 10
47.34375
 20
8.1875
 30
0.0
  0
POINT
  5
28D
330
58E
100
AcDbEntity
  8
HATCH
  6
Continuous
 62
     7
370
    30
100
AcDbPoint
 10
47.40625
 20
8.1875
 30
0.0
  0
POINT
  5
28E
330
58E
100
AcDbEntity
  8
HATCH
  6
Continuous
 62
     7
370
    30
100
AcDbPoint
 10
47.46875
 20
8.1875
 30
0.0
  0
POINT
  5
28F
330
58E
100
AcDbEntity
  8
HATCH
  6
Continuous
 62
     7
370
    30
100
AcDbPoint
 10
47.53125
 20
8.1875
 30
0.0
  0
POINT
  5
290
330
58E
100
AcDbEntity
  8
HATCH
  6
Continuous
 62
     7
370
    30
100
AcDbPoint
 10
47.59375
 20
8.1875
 30
0.0
  0
POINT
  5
291
330
58E
100
AcDbEntity
  8
HATCH
  6
Continuous
 62
     7
370
    30
100
AcDbPoint
 10
47.65625
 20
8.1875
 30
0.0
  0
POINT
  5
292
330
58E
100
AcDbEntity
  8
HATCH
  6
Continuous
 62
     7
370
    30
100
AcDbPoint
 10
47.71875
 20
8.1875
 30
0.0
  0
POINT
  5
293
330
58E
100
AcDbEntity
  8
HATCH
  6
Continuous
 62
     7
370
    30
100
AcDbPoint
 10
47.78125
 20
8.1875
 30
0.0
  0
POINT
  5
294
330
58E
100
AcDbEntity
  8
HATCH
  6
Continuous
 62
     7
370
    30
100
AcDbPoint
 10
47.84375
 20
8.1875
 30
0.0
  0
POINT
  5
295
330
58E
100
AcDbEntity
  8
HATCH
  6
Continuous
 62
     7
370
    30
100
AcDbPoint
 10
47.90625
 20
8.1875
 30
0.0
  0
POINT
  5
296
330
58E
100
AcDbEntity
  8
HATCH
  6
Continuous
 62
     7
370
    30
100
AcDbPoint
 10
47.96875
 20
8.1875
 30
0.0
  0
POINT
  5
297
330
58E
100
AcDbEntity
  8
HATCH
  6
Continuous
 62
     7
370
    30
100
AcDbPoint
 10
48.03125
 20
8.1875
 30
0.0
  0
POINT
  5
298
330
58E
100
AcDbEntity
  8
HATCH
  6
Continuous
 62
     7
370
    30
100
AcDbPoint
 10
48.09375
 20
8.1875
 30
0.0
  0
POINT
  5
299
330
58E
100
AcDbEntity
  8
HATCH
  6
Continuous
 62
     7
370
    30
100
AcDbPoint
 10
48.15625
 20
8.1875
 30
0.0
  0
POINT
  5
29A
330
58E
100
AcDbEntity
  8
HATCH
  6
Continuous
 62
     7
370
    30
100
AcDbPoint
 10
48.21875
 20
8.1875
 30
0.0
  0
POINT
  5
29B
330
58E
100
AcDbEntity
  8
HATCH
  6
Continuous
 62
     7
370
    30
100
AcDbPoint
 10
48.28125
 20
8.1875
 30
0.0
  0
POINT
  5
29C
330
58E
100
AcDbEntity
  8
HATCH
  6
Continuous
 62
     7
370
    30
100
AcDbPoint
 10
48.34375
 20
8.1875
 30
0.0
  0
POINT
  5
29D
330
58E
100
AcDbEntity
  8
HATCH
  6
Continuous
 62
     7
370
    30
100
AcDbPoint
 10
48.40625
 20
8.1875
 30
0.0
  0
POINT
  5
29E
330
58E
100
AcDbEntity
  8
HATCH
  6
Continuous
 62
     7
370
    30
100
AcDbPoint
 10
48.46875
 20
8.1875
 30
0.0
  0
POINT
  5
29F
330
58E
100
AcDbEntity
  8
HATCH
  6
Continuous
 62
     7
370
    30
100
AcDbPoint
 10
48.53125
 20
8.1875
 30
0.0
  0
POINT
  5
2A0
330
58E
100
AcDbEntity
  8
HATCH
  6
Continuous
 62
     7
370
    30
100
AcDbPoint
 10
48.59375
 20
8.1875
 30
0.0
  0
POINT
  5
2A1
330
58E
100
AcDbEntity
  8
HATCH
  6
Continuous
 62
     7
370
    30
100
AcDbPoint
 10
48.65625
 20
8.1875
 30
0.0
  0
POINT
  5
2A2
330
58E
100
AcDbEntity
  8
HATCH
  6
Continuous
 62
     7
370
    30
100
AcDbPoint
 10
48.71875
 20
8.1875
 30
0.0
  0
POINT
  5
2A3
330
58E
100
AcDbEntity
  8
HATCH
  6
Continuous
 62
     7
370
    30
100
AcDbPoint
 10
48.78125
 20
8.1875
 30
0.0
  0
POINT
  5
2A4
330
58E
100
AcDbEntity
  8
HATCH
  6
Continuous
 62
     7
370
    30
100
AcDbPoint
 10
48.84375
 20
8.1875
 30
0.0
  0
POINT
  5
2A5
330
58E
100
AcDbEntity
  8
HATCH
  6
Continuous
 62
     7
370
    30
100
AcDbPoint
 10
48.90625
 20
8.1875
 30
0.0
  0
POINT
  5
2A6
330
58E
100
AcDbEntity
  8
HATCH
  6
Continuous
 62
     7
370
    30
100
AcDbPoint
 10
48.96875
 20
8.1875
 30
0.0
  0
POINT
  5
2A7
330
58E
100
AcDbEntity
  8
HATCH
  6
Continuous
 62
     7
370
    30
100
AcDbPoint
 10
49.03125
 20
8.1875
 30
0.0
  0
POINT
  5
2A8
330
58E
100
AcDbEntity
  8
HATCH
  6
Continuous
 62
     7
370
    30
100
AcDbPoint
 10
49.09375
 20
8.1875
 30
0.0
  0
POINT
  5
2A9
330
58E
100
AcDbEntity
  8
HATCH
  6
Continuous
 62
     7
370
    30
100
AcDbPoint
 10
49.15625
 20
8.1875
 30
0.0
  0
POINT
  5
2AA
330
58E
100
AcDbEntity
  8
HATCH
  6
Continuous
 62
     7
370
    30
100
AcDbPoint
 10
49.21875
 20
8.1875
 30
0.0
  0
POINT
  5
2AB
330
58E
100
AcDbEntity
  8
HATCH
  6
Continuous
 62
     7
370
    30
100
AcDbPoint
 10
49.28125
 20
8.1875
 30
0.0
  0
POINT
  5
2AC
330
58E
100
AcDbEntity
  8
HATCH
  6
Continuous
 62
     7
370
    30
100
AcDbPoint
 10
49.34375
 20
8.1875
 30
0.0
  0
POINT
  5
2AD
330
58E
100
AcDbEntity
  8
HATCH
  6
Continuous
 62
     7
370
    30
100
AcDbPoint
 10
49.40625
 20
8.1875
 30
0.0
  0
POINT
  5
2AE
330
58E
100
AcDbEntity
  8
HATCH
  6
Continuous
 62
     7
370
    30
100
AcDbPoint
 10
49.46875
 20
8.1875
 30
0.0
  0
POINT
  5
2AF
330
58E
100
AcDbEntity
  8
HATCH
  6
Continuous
 62
     7
370
    30
100
AcDbPoint
 10
45.375
 20
8.25
 30
0.0
  0
POINT
  5
2B0
330
58E
100
AcDbEntity
  8
HATCH
  6
Continuous
 62
     7
370
    30
100
AcDbPoint
 10
45.4375
 20
8.25
 30
0.0
  0
POINT
  5
2B1
330
58E
100
AcDbEntity
  8
HATCH
  6
Continuous
 62
     7
370
    30
100
AcDbPoint
 10
45.5
 20
8.25
 30
0.0
  0
POINT
  5
2B2
330
58E
100
AcDbEntity
  8
HATCH
  6
Continuous
 62
     7
370
    30
100
AcDbPoint
 10
45.5625
 20
8.25
 30
0.0
  0
POINT
  5
2B3
330
58E
100
AcDbEntity
  8
HATCH
  6
Continuous
 62
     7
370
    30
100
AcDbPoint
 10
45.625
 20
8.25
 30
0.0
  0
POINT
  5
2B4
330
58E
100
AcDbEntity
  8
HATCH
  6
Continuous
 62
     7
370
    30
100
AcDbPoint
 10
45.6875
 20
8.25
 30
0.0
  0
POINT
  5
2B5
330
58E
100
AcDbEntity
  8
HATCH
  6
Continuous
 62
     7
370
    30
100
AcDbPoint
 10
45.75
 20
8.25
 30
0.0
  0
POINT
  5
2B6
330
58E
100
AcDbEntity
  8
HATCH
  6
Continuous
 62
     7
370
    30
100
AcDbPoint
 10
45.8125
 20
8.25
 30
0.0
  0
POINT
  5
2B7
330
58E
100
AcDbEntity
  8
HATCH
  6
Continuous
 62
     7
370
    30
100
AcDbPoint
 10
45.875
 20
8.25
 30
0.0
  0
POINT
  5
2B8
330
58E
100
AcDbEntity
  8
HATCH
  6
Continuous
 62
     7
370
    30
100
AcDbPoint
 10
45.9375
 20
8.25
 30
0.0
  0
POINT
  5
2B9
330
58E
100
AcDbEntity
  8
HATCH
  6
Continuous
 62
     7
370
    30
100
AcDbPoint
 10
46.0
 20
8.25
 30
0.0
  0
POINT
  5
2BA
330
58E
100
AcDbEntity
  8
HATCH
  6
Continuous
 62
     7
370
    30
100
AcDbPoint
 10
46.0625
 20
8.25
 30
0.0
  0
POINT
  5
2BB
330
58E
100
AcDbEntity
  8
HATCH
  6
Continuous
 62
     7
370
    30
100
AcDbPoint
 10
46.125
 20
8.25
 30
0.0
  0
POINT
  5
2BC
330
58E
100
AcDbEntity
  8
HATCH
  6
Continuous
 62
     7
370
    30
100
AcDbPoint
 10
46.1875
 20
8.25
 30
0.0
  0
POINT
  5
2BD
330
58E
100
AcDbEntity
  8
HATCH
  6
Continuous
 62
     7
370
    30
100
AcDbPoint
 10
46.25
 20
8.25
 30
0.0
  0
POINT
  5
2BE
330
58E
100
AcDbEntity
  8
HATCH
  6
Continuous
 62
     7
370
    30
100
AcDbPoint
 10
46.3125
 20
8.25
 30
0.0
  0
POINT
  5
2BF
330
58E
100
AcDbEntity
  8
HATCH
  6
Continuous
 62
     7
370
    30
100
AcDbPoint
 10
46.375
 20
8.25
 30
0.0
  0
POINT
  5
2C0
330
58E
100
AcDbEntity
  8
HATCH
  6
Continuous
 62
     7
370
    30
100
AcDbPoint
 10
46.4375
 20
8.25
 30
0.0
  0
POINT
  5
2C1
330
58E
100
AcDbEntity
  8
HATCH
  6
Continuous
 62
     7
370
    30
100
AcDbPoint
 10
46.5
 20
8.25
 30
0.0
  0
POINT
  5
2C2
330
58E
100
AcDbEntity
  8
HATCH
  6
Continuous
 62
     7
370
    30
100
AcDbPoint
 10
46.5625
 20
8.25
 30
0.0
  0
POINT
  5
2C3
330
58E
100
AcDbEntity
  8
HATCH
  6
Continuous
 62
     7
370
    30
100
AcDbPoint
 10
46.625
 20
8.25
 30
0.0
  0
POINT
  5
2C4
330
58E
100
AcDbEntity
  8
HATCH
  6
Continuous
 62
     7
370
    30
100
AcDbPoint
 10
46.6875
 20
8.25
 30
0.0
  0
POINT
  5
2C5
330
58E
100
AcDbEntity
  8
HATCH
  6
Continuous
 62
     7
370
    30
100
AcDbPoint
 10
46.75
 20
8.25
 30
0.0
  0
POINT
  5
2C6
330
58E
100
AcDbEntity
  8
HATCH
  6
Continuous
 62
     7
370
    30
100
AcDbPoint
 10
46.8125
 20
8.25
 30
0.0
  0
POINT
  5
2C7
330
58E
100
AcDbEntity
  8
HATCH
  6
Continuous
 62
     7
370
    30
100
AcDbPoint
 10
46.875
 20
8.25
 30
0.0
  0
POINT
  5
2C8
330
58E
100
AcDbEntity
  8
HATCH
  6
Continuous
 62
     7
370
    30
100
AcDbPoint
 10
46.9375
 20
8.25
 30
0.0
  0
POINT
  5
2C9
330
58E
100
AcDbEntity
  8
HATCH
  6
Continuous
 62
     7
370
    30
100
AcDbPoint
 10
47.0
 20
8.25
 30
0.0
  0
POINT
  5
2CA
330
58E
100
AcDbEntity
  8
HATCH
  6
Continuous
 62
     7
370
    30
100
AcDbPoint
 10
47.0625
 20
8.25
 30
0.0
  0
POINT
  5
2CB
330
58E
100
AcDbEntity
  8
HATCH
  6
Continuous
 62
     7
370
    30
100
AcDbPoint
 10
47.125
 20
8.25
 30
0.0
  0
POINT
  5
2CC
330
58E
100
AcDbEntity
  8
HATCH
  6
Continuous
 62
     7
370
    30
100
AcDbPoint
 10
47.1875
 20
8.25
 30
0.0
  0
POINT
  5
2CD
330
58E
100
AcDbEntity
  8
HATCH
  6
Continuous
 62
     7
370
    30
100
AcDbPoint
 10
47.25
 20
8.25
 30
0.0
  0
POINT
  5
2CE
330
58E
100
AcDbEntity
  8
HATCH
  6
Continuous
 62
     7
370
    30
100
AcDbPoint
 10
47.3125
 20
8.25
 30
0.0
  0
POINT
  5
2CF
330
58E
100
AcDbEntity
  8
HATCH
  6
Continuous
 62
     7
370
    30
100
AcDbPoint
 10
47.375
 20
8.25
 30
0.0
  0
POINT
  5
2D0
330
58E
100
AcDbEntity
  8
HATCH
  6
Continuous
 62
     7
370
    30
100
AcDbPoint
 10
47.4375
 20
8.25
 30
0.0
  0
POINT
  5
2D1
330
58E
100
AcDbEntity
  8
HATCH
  6
Continuous
 62
     7
370
    30
100
AcDbPoint
 10
47.5
 20
8.25
 30
0.0
  0
POINT
  5
2D2
330
58E
100
AcDbEntity
  8
HATCH
  6
Continuous
 62
     7
370
    30
100
AcDbPoint
 10
47.5625
 20
8.25
 30
0.0
  0
POINT
  5
2D3
330
58E
100
AcDbEntity
  8
HATCH
  6
Continuous
 62
     7
370
    30
100
AcDbPoint
 10
47.625
 20
8.25
 30
0.0
  0
POINT
  5
2D4
330
58E
100
AcDbEntity
  8
HATCH
  6
Continuous
 62
     7
370
    30
100
AcDbPoint
 10
47.6875
 20
8.25
 30
0.0
  0
POINT
  5
2D5
330
58E
100
AcDbEntity
  8
HATCH
  6
Continuous
 62
     7
370
    30
100
AcDbPoint
 10
47.75
 20
8.25
 30
0.0
  0
POINT
  5
2D6
330
58E
100
AcDbEntity
  8
HATCH
  6
Continuous
 62
     7
370
    30
100
AcDbPoint
 10
47.8125
 20
8.25
 30
0.0
  0
POINT
  5
2D7
330
58E
100
AcDbEntity
  8
HATCH
  6
Continuous
 62
     7
370
    30
100
AcDbPoint
 10
47.875
 20
8.25
 30
0.0
  0
POINT
  5
2D8
330
58E
100
AcDbEntity
  8
HATCH
  6
Continuous
 62
     7
370
    30
100
AcDbPoint
 10
47.9375
 20
8.25
 30
0.0
  0
POINT
  5
2D9
330
58E
100
AcDbEntity
  8
HATCH
  6
Continuous
 62
     7
370
    30
100
AcDbPoint
 10
48.0
 20
8.25
 30
0.0
  0
POINT
  5
2DA
330
58E
100
AcDbEntity
  8
HATCH
  6
Continuous
 62
     7
370
    30
100
AcDbPoint
 10
48.0625
 20
8.25
 30
0.0
  0
POINT
  5
2DB
330
58E
100
AcDbEntity
  8
HATCH
  6
Continuous
 62
     7
370
    30
100
AcDbPoint
 10
48.125
 20
8.25
 30
0.0
  0
POINT
  5
2DC
330
58E
100
AcDbEntity
  8
HATCH
  6
Continuous
 62
     7
370
    30
100
AcDbPoint
 10
48.1875
 20
8.25
 30
0.0
  0
POINT
  5
2DD
330
58E
100
AcDbEntity
  8
HATCH
  6
Continuous
 62
     7
370
    30
100
AcDbPoint
 10
48.25
 20
8.25
 30
0.0
  0
POINT
  5
2DE
330
58E
100
AcDbEntity
  8
HATCH
  6
Continuous
 62
     7
370
    30
100
AcDbPoint
 10
48.3125
 20
8.25
 30
0.0
  0
POINT
  5
2DF
330
58E
100
AcDbEntity
  8
HATCH
  6
Continuous
 62
     7
370
    30
100
AcDbPoint
 10
48.375
 20
8.25
 30
0.0
  0
POINT
  5
2E0
330
58E
100
AcDbEntity
  8
HATCH
  6
Continuous
 62
     7
370
    30
100
AcDbPoint
 10
48.4375
 20
8.25
 30
0.0
  0
POINT
  5
2E1
330
58E
100
AcDbEntity
  8
HATCH
  6
Continuous
 62
     7
370
    30
100
AcDbPoint
 10
48.5
 20
8.25
 30
0.0
  0
POINT
  5
2E2
330
58E
100
AcDbEntity
  8
HATCH
  6
Continuous
 62
     7
370
    30
100
AcDbPoint
 10
48.5625
 20
8.25
 30
0.0
  0
POINT
  5
2E3
330
58E
100
AcDbEntity
  8
HATCH
  6
Continuous
 62
     7
370
    30
100
AcDbPoint
 10
48.625
 20
8.25
 30
0.0
  0
POINT
  5
2E4
330
58E
100
AcDbEntity
  8
HATCH
  6
Continuous
 62
     7
370
    30
100
AcDbPoint
 10
48.6875
 20
8.25
 30
0.0
  0
POINT
  5
2E5
330
58E
100
AcDbEntity
  8
HATCH
  6
Continuous
 62
     7
370
    30
100
AcDbPoint
 10
48.75
 20
8.25
 30
0.0
  0
POINT
  5
2E6
330
58E
100
AcDbEntity
  8
HATCH
  6
Continuous
 62
     7
370
    30
100
AcDbPoint
 10
48.8125
 20
8.25
 30
0.0
  0
POINT
  5
2E7
330
58E
100
AcDbEntity
  8
HATCH
  6
Continuous
 62
     7
370
    30
100
AcDbPoint
 10
48.875
 20
8.25
 30
0.0
  0
POINT
  5
2E8
330
58E
100
AcDbEntity
  8
HATCH
  6
Continuous
 62
     7
370
    30
100
AcDbPoint
 10
48.9375
 20
8.25
 30
0.0
  0
POINT
  5
2E9
330
58E
100
AcDbEntity
  8
HATCH
  6
Continuous
 62
     7
370
    30
100
AcDbPoint
 10
49.0
 20
8.25
 30
0.0
  0
POINT
  5
2EA
330
58E
100
AcDbEntity
  8
HATCH
  6
Continuous
 62
     7
370
    30
100
AcDbPoint
 10
49.0625
 20
8.25
 30
0.0
  0
POINT
  5
2EB
330
58E
100
AcDbEntity
  8
HATCH
  6
Continuous
 62
     7
370
    30
100
AcDbPoint
 10
49.125
 20
8.25
 30
0.0
  0
POINT
  5
2EC
330
58E
100
AcDbEntity
  8
HATCH
  6
Continuous
 62
     7
370
    30
100
AcDbPoint
 10
49.1875
 20
8.25
 30
0.0
  0
POINT
  5
2ED
330
58E
100
AcDbEntity
  8
HATCH
  6
Continuous
 62
     7
370
    30
100
AcDbPoint
 10
49.25
 20
8.25
 30
0.0
  0
POINT
  5
2EE
330
58E
100
AcDbEntity
  8
HATCH
  6
Continuous
 62
     7
370
    30
100
AcDbPoint
 10
49.3125
 20
8.25
 30
0.0
  0
POINT
  5
2EF
330
58E
100
AcDbEntity
  8
HATCH
  6
Continuous
 62
     7
370
    30
100
AcDbPoint
 10
49.375
 20
8.25
 30
0.0
  0
POINT
  5
2F0
330
58E
100
AcDbEntity
  8
HATCH
  6
Continuous
 62
     7
370
    30
100
AcDbPoint
 10
49.4375
 20
8.25
 30
0.0
  0
POINT
  5
2F1
330
58E
100
AcDbEntity
  8
HATCH
  6
Continuous
 62
     7
370
    30
100
AcDbPoint
 10
49.5
 20
8.25
 30
0.0
  0
POINT
  5
2F2
330
58E
100
AcDbEntity
  8
HATCH
  6
Continuous
 62
     7
370
    30
100
AcDbPoint
 10
49.5625
 20
8.25
 30
0.0
  0
POINT
  5
2F3
330
58E
100
AcDbEntity
  8
HATCH
  6
Continuous
 62
     7
370
    30
100
AcDbPoint
 10
49.625
 20
8.25
 30
0.0
  0
POINT
  5
2F4
330
58E
100
AcDbEntity
  8
HATCH
  6
Continuous
 62
     7
370
    30
100
AcDbPoint
 10
49.6875
 20
8.25
 30
0.0
  0
POINT
  5
2F5
330
58E
100
AcDbEntity
  8
HATCH
  6
Continuous
 62
     7
370
    30
100
AcDbPoint
 10
49.75
 20
8.25
 30
0.0
  0
POINT
  5
2F6
330
58E
100
AcDbEntity
  8
HATCH
  6
Continuous
 62
     7
370
    30
100
AcDbPoint
 10
49.8125
 20
8.25
 30
0.0
  0
POINT
  5
2F7
330
58E
100
AcDbEntity
  8
HATCH
  6
Continuous
 62
     7
370
    30
100
AcDbPoint
 10
49.875
 20
8.25
 30
0.0
  0
POINT
  5
2F8
330
58E
100
AcDbEntity
  8
HATCH
  6
Continuous
 62
     7
370
    30
100
AcDbPoint
 10
49.9375
 20
8.25
 30
0.0
  0
POINT
  5
2F9
330
58E
100
AcDbEntity
  8
HATCH
  6
Continuous
 62
     7
370
    30
100
AcDbPoint
 10
50.0
 20
8.25
 30
0.0
  0
POINT
  5
2FA
330
58E
100
AcDbEntity
  8
HATCH
  6
Continuous
 62
     7
370
    30
100
AcDbPoint
 10
50.0625
 20
8.25
 30
0.0
  0
POINT
  5
2FB
330
58E
100
AcDbEntity
  8
HATCH
  6
Continuous
 62
     7
370
    30
100
AcDbPoint
 10
50.125
 20
8.25
 30
0.0
  0
POINT
  5
2FC
330
58E
100
AcDbEntity
  8
HATCH
  6
Continuous
 62
     7
370
    30
100
AcDbPoint
 10
50.1875
 20
8.25
 30
0.0
  0
POINT
  5
2FD
330
58E
100
AcDbEntity
  8
HATCH
  6
Continuous
 62
     7
370
    30
100
AcDbPoint
 10
50.25
 20
8.25
 30
0.0
  0
POINT
  5
2FE
330
58E
100
AcDbEntity
  8
HATCH
  6
Continuous
 62
     7
370
    30
100
AcDbPoint
 10
50.3125
 20
8.25
 30
0.0
  0
POINT
  5
2FF
330
58E
100
AcDbEntity
  8
HATCH
  6
Continuous
 62
     7
370
    30
100
AcDbPoint
 10
50.375
 20
8.25
 30
0.0
  0
POINT
  5
300
330
58E
100
AcDbEntity
  8
HATCH
  6
Continuous
 62
     7
370
    30
100
AcDbPoint
 10
50.4375
 20
8.25
 30
0.0
  0
POINT
  5
301
330
58E
100
AcDbEntity
  8
HATCH
  6
Continuous
 62
     7
370
    30
100
AcDbPoint
 10
50.5
 20
8.25
 30
0.0
  0
POINT
  5
302
330
58E
100
AcDbEntity
  8
HATCH
  6
Continuous
 62
     7
370
    30
100
AcDbPoint
 10
50.5625
 20
8.25
 30
0.0
  0
POINT
  5
303
330
58E
100
AcDbEntity
  8
HATCH
  6
Continuous
 62
     7
370
    30
100
AcDbPoint
 10
50.625
 20
8.25
 30
0.0
  0
POINT
  5
304
330
58E
100
AcDbEntity
  8
HATCH
  6
Continuous
 62
     7
370
    30
100
AcDbPoint
 10
50.6875
 20
8.25
 30
0.0
  0
POINT
  5
305
330
58E
100
AcDbEntity
  8
HATCH
  6
Continuous
 62
     7
370
    30
100
AcDbPoint
 10
50.75
 20
8.25
 30
0.0
  0
POINT
  5
306
330
58E
100
AcDbEntity
  8
HATCH
  6
Continuous
 62
     7
370
    30
100
AcDbPoint
 10
50.8125
 20
8.25
 30
0.0
  0
POINT
  5
307
330
58E
100
AcDbEntity
  8
HATCH
  6
Continuous
 62
     7
370
    30
100
AcDbPoint
 10
50.875
 20
8.25
 30
0.0
  0
POINT
  5
308
330
58E
100
AcDbEntity
  8
HATCH
  6
Continuous
 62
     7
370
    30
100
AcDbPoint
 10
50.9375
 20
8.25
 30
0.0
  0
POINT
  5
309
330
58E
100
AcDbEntity
  8
HATCH
  6
Continuous
 62
     7
370
    30
100
AcDbPoint
 10
51.0
 20
8.25
 30
0.0
  0
POINT
  5
30A
330
58E
100
AcDbEntity
  8
HATCH
  6
Continuous
 62
     7
370
    30
100
AcDbPoint
 10
51.0625
 20
8.25
 30
0.0
  0
POINT
  5
30B
330
58E
100
AcDbEntity
  8
HATCH
  6
Continuous
 62
     7
370
    30
100
AcDbPoint
 10
51.125
 20
8.25
 30
0.0
  0
POINT
  5
30C
330
58E
100
AcDbEntity
  8
HATCH
  6
Continuous
 62
     7
370
    30
100
AcDbPoint
 10
45.34375
 20
8.3125
 30
0.0
  0
POINT
  5
30D
330
58E
100
AcDbEntity
  8
HATCH
  6
Continuous
 62
     7
370
    30
100
AcDbPoint
 10
45.40625
 20
8.3125
 30
0.0
  0
POINT
  5
30E
330
58E
100
AcDbEntity
  8
HATCH
  6
Continuous
 62
     7
370
    30
100
AcDbPoint
 10
45.46875
 20
8.3125
 30
0.0
  0
POINT
  5
30F
330
58E
100
AcDbEntity
  8
HATCH
  6
Continuous
 62
     7
370
    30
100
AcDbPoint
 10
45.53125
 20
8.3125
 30
0.0
  0
POINT
  5
310
330
58E
100
AcDbEntity
  8
HATCH
  6
Continuous
 62
     7
370
    30
100
AcDbPoint
 10
45.59375
 20
8.3125
 30
0.0
  0
POINT
  5
311
330
58E
100
AcDbEntity
  8
HATCH
  6
Continuous
 62
     7
370
    30
100
AcDbPoint
 10
45.65625
 20
8.3125
 30
0.0
  0
POINT
  5
312
330
58E
100
AcDbEntity
  8
HATCH
  6
Continuous
 62
     7
370
    30
100
AcDbPoint
 10
45.71875
 20
8.3125
 30
0.0
  0
POINT
  5
313
330
58E
100
AcDbEntity
  8
HATCH
  6
Continuous
 62
     7
370
    30
100
AcDbPoint
 10
45.78125
 20
8.3125
 30
0.0
  0
POINT
  5
314
330
58E
100
AcDbEntity
  8
HATCH
  6
Continuous
 62
     7
370
    30
100
AcDbPoint
 10
45.84375
 20
8.3125
 30
0.0
  0
POINT
  5
315
330
58E
100
AcDbEntity
  8
HATCH
  6
Continuous
 62
     7
370
    30
100
AcDbPoint
 10
45.90625
 20
8.3125
 30
0.0
  0
POINT
  5
316
330
58E
100
AcDbEntity
  8
HATCH
  6
Continuous
 62
     7
370
    30
100
AcDbPoint
 10
45.96875
 20
8.3125
 30
0.0
  0
POINT
  5
317
330
58E
100
AcDbEntity
  8
HATCH
  6
Continuous
 62
     7
370
    30
100
AcDbPoint
 10
46.03125
 20
8.3125
 30
0.0
  0
POINT
  5
318
330
58E
100
AcDbEntity
  8
HATCH
  6
Continuous
 62
     7
370
    30
100
AcDbPoint
 10
46.09375
 20
8.3125
 30
0.0
  0
POINT
  5
319
330
58E
100
AcDbEntity
  8
HATCH
  6
Continuous
 62
     7
370
    30
100
AcDbPoint
 10
46.15625
 20
8.3125
 30
0.0
  0
POINT
  5
31A
330
58E
100
AcDbEntity
  8
HATCH
  6
Continuous
 62
     7
370
    30
100
AcDbPoint
 10
46.21875
 20
8.3125
 30
0.0
  0
POINT
  5
31B
330
58E
100
AcDbEntity
  8
HATCH
  6
Continuous
 62
     7
370
    30
100
AcDbPoint
 10
46.28125
 20
8.3125
 30
0.0
  0
POINT
  5
31C
330
58E
100
AcDbEntity
  8
HATCH
  6
Continuous
 62
     7
370
    30
100
AcDbPoint
 10
46.34375
 20
8.3125
 30
0.0
  0
POINT
  5
31D
330
58E
100
AcDbEntity
  8
HATCH
  6
Continuous
 62
     7
370
    30
100
AcDbPoint
 10
46.40625
 20
8.3125
 30
0.0
  0
POINT
  5
31E
330
58E
100
AcDbEntity
  8
HATCH
  6
Continuous
 62
     7
370
    30
100
AcDbPoint
 10
46.46875
 20
8.3125
 30
0.0
  0
POINT
  5
31F
330
58E
100
AcDbEntity
  8
HATCH
  6
Continuous
 62
     7
370
    30
100
AcDbPoint
 10
46.53125
 20
8.3125
 30
0.0
  0
POINT
  5
320
330
58E
100
AcDbEntity
  8
HATCH
  6
Continuous
 62
     7
370
    30
100
AcDbPoint
 10
46.59375
 20
8.3125
 30
0.0
  0
POINT
  5
321
330
58E
100
AcDbEntity
  8
HATCH
  6
Continuous
 62
     7
370
    30
100
AcDbPoint
 10
46.65625
 20
8.3125
 30
0.0
  0
POINT
  5
322
330
58E
100
AcDbEntity
  8
HATCH
  6
Continuous
 62
     7
370
    30
100
AcDbPoint
 10
46.71875
 20
8.3125
 30
0.0
  0
POINT
  5
323
330
58E
100
AcDbEntity
  8
HATCH
  6
Continuous
 62
     7
370
    30
100
AcDbPoint
 10
46.78125
 20
8.3125
 30
0.0
  0
POINT
  5
324
330
58E
100
AcDbEntity
  8
HATCH
  6
Continuous
 62
     7
370
    30
100
AcDbPoint
 10
46.84375
 20
8.3125
 30
0.0
  0
POINT
  5
325
330
58E
100
AcDbEntity
  8
HATCH
  6
Continuous
 62
     7
370
    30
100
AcDbPoint
 10
46.90625
 20
8.3125
 30
0.0
  0
POINT
  5
326
330
58E
100
AcDbEntity
  8
HATCH
  6
Continuous
 62
     7
370
    30
100
AcDbPoint
 10
46.96875
 20
8.3125
 30
0.0
  0
POINT
  5
327
330
58E
100
AcDbEntity
  8
HATCH
  6
Continuous
 62
     7
370
    30
100
AcDbPoint
 10
47.03125
 20
8.3125
 30
0.0
  0
POINT
  5
328
330
58E
100
AcDbEntity
  8
HATCH
  6
Continuous
 62
     7
370
    30
100
AcDbPoint
 10
47.09375
 20
8.3125
 30
0.0
  0
POINT
  5
329
330
58E
100
AcDbEntity
  8
HATCH
  6
Continuous
 62
     7
370
    30
100
AcDbPoint
 10
47.15625
 20
8.3125
 30
0.0
  0
POINT
  5
32A
330
58E
100
AcDbEntity
  8
HATCH
  6
Continuous
 62
     7
370
    30
100
AcDbPoint
 10
47.21875
 20
8.3125
 30
0.0
  0
POINT
  5
32B
330
58E
100
AcDbEntity
  8
HATCH
  6
Continuous
 62
     7
370
    30
100
AcDbPoint
 10
47.28125
 20
8.3125
 30
0.0
  0
POINT
  5
32C
330
58E
100
AcDbEntity
  8
HATCH
  6
Continuous
 62
     7
370
    30
100
AcDbPoint
 10
47.34375
 20
8.3125
 30
0.0
  0
POINT
  5
32D
330
58E
100
AcDbEntity
  8
HATCH
  6
Continuous
 62
     7
370
    30
100
AcDbPoint
 10
47.40625
 20
8.3125
 30
0.0
  0
POINT
  5
32E
330
58E
100
AcDbEntity
  8
HATCH
  6
Continuous
 62
     7
370
    30
100
AcDbPoint
 10
47.46875
 20
8.3125
 30
0.0
  0
POINT
  5
32F
330
58E
100
AcDbEntity
  8
HATCH
  6
Continuous
 62
     7
370
    30
100
AcDbPoint
 10
47.53125
 20
8.3125
 30
0.0
  0
POINT
  5
330
330
58E
100
AcDbEntity
  8
HATCH
  6
Continuous
 62
     7
370
    30
100
AcDbPoint
 10
47.59375
 20
8.3125
 30
0.0
  0
POINT
  5
331
330
58E
100
AcDbEntity
  8
HATCH
  6
Continuous
 62
     7
370
    30
100
AcDbPoint
 10
47.65625
 20
8.3125
 30
0.0
  0
POINT
  5
332
330
58E
100
AcDbEntity
  8
HATCH
  6
Continuous
 62
     7
370
    30
100
AcDbPoint
 10
47.71875
 20
8.3125
 30
0.0
  0
POINT
  5
333
330
58E
100
AcDbEntity
  8
HATCH
  6
Continuous
 62
     7
370
    30
100
AcDbPoint
 10
47.78125
 20
8.3125
 30
0.0
  0
POINT
  5
334
330
58E
100
AcDbEntity
  8
HATCH
  6
Continuous
 62
     7
370
    30
100
AcDbPoint
 10
47.84375
 20
8.3125
 30
0.0
  0
POINT
  5
335
330
58E
100
AcDbEntity
  8
HATCH
  6
Continuous
 62
     7
370
    30
100
AcDbPoint
 10
47.90625
 20
8.3125
 30
0.0
  0
POINT
  5
336
330
58E
100
AcDbEntity
  8
HATCH
  6
Continuous
 62
     7
370
    30
100
AcDbPoint
 10
47.96875
 20
8.3125
 30
0.0
  0
POINT
  5
337
330
58E
100
AcDbEntity
  8
HATCH
  6
Continuous
 62
     7
370
    30
100
AcDbPoint
 10
48.03125
 20
8.3125
 30
0.0
  0
POINT
  5
338
330
58E
100
AcDbEntity
  8
HATCH
  6
Continuous
 62
     7
370
    30
100
AcDbPoint
 10
48.09375
 20
8.3125
 30
0.0
  0
POINT
  5
339
330
58E
100
AcDbEntity
  8
HATCH
  6
Continuous
 62
     7
370
    30
100
AcDbPoint
 10
48.15625
 20
8.3125
 30
0.0
  0
POINT
  5
33A
330
58E
100
AcDbEntity
  8
HATCH
  6
Continuous
 62
     7
370
    30
100
AcDbPoint
 10
48.21875
 20
8.3125
 30
0.0
  0
POINT
  5
33B
330
58E
100
AcDbEntity
  8
HATCH
  6
Continuous
 62
     7
370
    30
100
AcDbPoint
 10
48.28125
 20
8.3125
 30
0.0
  0
POINT
  5
33C
330
58E
100
AcDbEntity
  8
HATCH
  6
Continuous
 62
     7
370
    30
100
AcDbPoint
 10
48.34375
 20
8.3125
 30
0.0
  0
POINT
  5
33D
330
58E
100
AcDbEntity
  8
HATCH
  6
Continuous
 62
     7
370
    30
100
AcDbPoint
 10
48.40625
 20
8.3125
 30
0.0
  0
POINT
  5
33E
330
58E
100
AcDbEntity
  8
HATCH
  6
Continuous
 62
     7
370
    30
100
AcDbPoint
 10
48.46875
 20
8.3125
 30
0.0
  0
POINT
  5
33F
330
58E
100
AcDbEntity
  8
HATCH
  6
Continuous
 62
     7
370
    30
100
AcDbPoint
 10
48.53125
 20
8.3125
 30
0.0
  0
POINT
  5
340
330
58E
100
AcDbEntity
  8
HATCH
  6
Continuous
 62
     7
370
    30
100
AcDbPoint
 10
48.59375
 20
8.3125
 30
0.0
  0
POINT
  5
341
330
58E
100
AcDbEntity
  8
HATCH
  6
Continuous
 62
     7
370
    30
100
AcDbPoint
 10
48.65625
 20
8.3125
 30
0.0
  0
POINT
  5
342
330
58E
100
AcDbEntity
  8
HATCH
  6
Continuous
 62
     7
370
    30
100
AcDbPoint
 10
48.71875
 20
8.3125
 30
0.0
  0
POINT
  5
343
330
58E
100
AcDbEntity
  8
HATCH
  6
Continuous
 62
     7
370
    30
100
AcDbPoint
 10
48.78125
 20
8.3125
 30
0.0
  0
POINT
  5
344
330
58E
100
AcDbEntity
  8
HATCH
  6
Continuous
 62
     7
370
    30
100
AcDbPoint
 10
48.84375
 20
8.3125
 30
0.0
  0
POINT
  5
345
330
58E
100
AcDbEntity
  8
HATCH
  6
Continuous
 62
     7
370
    30
100
AcDbPoint
 10
48.90625
 20
8.3125
 30
0.0
  0
POINT
  5
346
330
58E
100
AcDbEntity
  8
HATCH
  6
Continuous
 62
     7
370
    30
100
AcDbPoint
 10
48.96875
 20
8.3125
 30
0.0
  0
POINT
  5
347
330
58E
100
AcDbEntity
  8
HATCH
  6
Continuous
 62
     7
370
    30
100
AcDbPoint
 10
49.03125
 20
8.3125
 30
0.0
  0
POINT
  5
348
330
58E
100
AcDbEntity
  8
HATCH
  6
Continuous
 62
     7
370
    30
100
AcDbPoint
 10
49.09375
 20
8.3125
 30
0.0
  0
POINT
  5
349
330
58E
100
AcDbEntity
  8
HATCH
  6
Continuous
 62
     7
370
    30
100
AcDbPoint
 10
49.15625
 20
8.3125
 30
0.0
  0
POINT
  5
34A
330
58E
100
AcDbEntity
  8
HATCH
  6
Continuous
 62
     7
370
    30
100
AcDbPoint
 10
49.21875
 20
8.3125
 30
0.0
  0
POINT
  5
34B
330
58E
100
AcDbEntity
  8
HATCH
  6
Continuous
 62
     7
370
    30
100
AcDbPoint
 10
49.28125
 20
8.3125
 30
0.0
  0
POINT
  5
34C
330
58E
100
AcDbEntity
  8
HATCH
  6
Continuous
 62
     7
370
    30
100
AcDbPoint
 10
49.34375
 20
8.3125
 30
0.0
  0
POINT
  5
34D
330
58E
100
AcDbEntity
  8
HATCH
  6
Continuous
 62
     7
370
    30
100
AcDbPoint
 10
49.40625
 20
8.3125
 30
0.0
  0
POINT
  5
34E
330
58E
100
AcDbEntity
  8
HATCH
  6
Continuous
 62
     7
370
    30
100
AcDbPoint
 10
49.46875
 20
8.3125
 30
0.0
  0
POINT
  5
34F
330
58E
100
AcDbEntity
  8
HATCH
  6
Continuous
 62
     7
370
    30
100
AcDbPoint
 10
49.53125
 20
8.3125
 30
0.0
  0
POINT
  5
350
330
58E
100
AcDbEntity
  8
HATCH
  6
Continuous
 62
     7
370
    30
100
AcDbPoint
 10
49.59375
 20
8.3125
 30
0.0
  0
POINT
  5
351
330
58E
100
AcDbEntity
  8
HATCH
  6
Continuous
 62
     7
370
    30
100
AcDbPoint
 10
49.65625
 20
8.3125
 30
0.0
  0
POINT
  5
352
330
58E
100
AcDbEntity
  8
HATCH
  6
Continuous
 62
     7
370
    30
100
AcDbPoint
 10
49.71875
 20
8.3125
 30
0.0
  0
POINT
  5
353
330
58E
100
AcDbEntity
  8
HATCH
  6
Continuous
 62
     7
370
    30
100
AcDbPoint
 10
49.78125
 20
8.3125
 30
0.0
  0
POINT
  5
354
330
58E
100
AcDbEntity
  8
HATCH
  6
Continuous
 62
     7
370
    30
100
AcDbPoint
 10
49.84375
 20
8.3125
 30
0.0
  0
POINT
  5
355
330
58E
100
AcDbEntity
  8
HATCH
  6
Continuous
 62
     7
370
    30
100
AcDbPoint
 10
49.90625
 20
8.3125
 30
0.0
  0
POINT
  5
356
330
58E
100
AcDbEntity
  8
HATCH
  6
Continuous
 62
     7
370
    30
100
AcDbPoint
 10
49.96875
 20
8.3125
 30
0.0
  0
POINT
  5
357
330
58E
100
AcDbEntity
  8
HATCH
  6
Continuous
 62
     7
370
    30
100
AcDbPoint
 10
50.03125
 20
8.3125
 30
0.0
  0
POINT
  5
358
330
58E
100
AcDbEntity
  8
HATCH
  6
Continuous
 62
     7
370
    30
100
AcDbPoint
 10
50.09375
 20
8.3125
 30
0.0
  0
POINT
  5
359
330
58E
100
AcDbEntity
  8
HATCH
  6
Continuous
 62
     7
370
    30
100
AcDbPoint
 10
50.15625
 20
8.3125
 30
0.0
  0
POINT
  5
35A
330
58E
100
AcDbEntity
  8
HATCH
  6
Continuous
 62
     7
370
    30
100
AcDbPoint
 10
50.21875
 20
8.3125
 30
0.0
  0
POINT
  5
35B
330
58E
100
AcDbEntity
  8
HATCH
  6
Continuous
 62
     7
370
    30
100
AcDbPoint
 10
50.28125
 20
8.3125
 30
0.0
  0
POINT
  5
35C
330
58E
100
AcDbEntity
  8
HATCH
  6
Continuous
 62
     7
370
    30
100
AcDbPoint
 10
50.34375
 20
8.3125
 30
0.0
  0
POINT
  5
35D
330
58E
100
AcDbEntity
  8
HATCH
  6
Continuous
 62
     7
370
    30
100
AcDbPoint
 10
50.40625
 20
8.3125
 30
0.0
  0
POINT
  5
35E
330
58E
100
AcDbEntity
  8
HATCH
  6
Continuous
 62
     7
370
    30
100
AcDbPoint
 10
50.46875
 20
8.3125
 30
0.0
  0
POINT
  5
35F
330
58E
100
AcDbEntity
  8
HATCH
  6
Continuous
 62
     7
370
    30
100
AcDbPoint
 10
50.53125
 20
8.3125
 30
0.0
  0
POINT
  5
360
330
58E
100
AcDbEntity
  8
HATCH
  6
Continuous
 62
     7
370
    30
100
AcDbPoint
 10
50.59375
 20
8.3125
 30
0.0
  0
POINT
  5
361
330
58E
100
AcDbEntity
  8
HATCH
  6
Continuous
 62
     7
370
    30
100
AcDbPoint
 10
50.65625
 20
8.3125
 30
0.0
  0
POINT
  5
362
330
58E
100
AcDbEntity
  8
HATCH
  6
Continuous
 62
     7
370
    30
100
AcDbPoint
 10
50.71875
 20
8.3125
 30
0.0
  0
POINT
  5
363
330
58E
100
AcDbEntity
  8
HATCH
  6
Continuous
 62
     7
370
    30
100
AcDbPoint
 10
50.78125
 20
8.3125
 30
0.0
  0
POINT
  5
364
330
58E
100
AcDbEntity
  8
HATCH
  6
Continuous
 62
     7
370
    30
100
AcDbPoint
 10
50.84375
 20
8.3125
 30
0.0
  0
POINT
  5
365
330
58E
100
AcDbEntity
  8
HATCH
  6
Continuous
 62
     7
370
    30
100
AcDbPoint
 10
50.90625
 20
8.3125
 30
0.0
  0
POINT
  5
366
330
58E
100
AcDbEntity
  8
HATCH
  6
Continuous
 62
     7
370
    30
100
AcDbPoint
 10
50.96875
 20
8.3125
 30
0.0
  0
POINT
  5
367
330
58E
100
AcDbEntity
  8
HATCH
  6
Continuous
 62
     7
370
    30
100
AcDbPoint
 10
51.03125
 20
8.3125
 30
0.0
  0
POINT
  5
368
330
58E
100
AcDbEntity
  8
HATCH
  6
Continuous
 62
     7
370
    30
100
AcDbPoint
 10
51.09375
 20
8.3125
 30
0.0
  0
POINT
  5
369
330
58E
100
AcDbEntity
  8
HATCH
  6
Continuous
 62
     7
370
    30
100
AcDbPoint
 10
51.15625
 20
8.3125
 30
0.0
  0
POINT
  5
36A
330
58E
100
AcDbEntity
  8
HATCH
  6
Continuous
 62
     7
370
    30
100
AcDbPoint
 10
45.375
 20
8.375
 30
0.0
  0
POINT
  5
36B
330
58E
100
AcDbEntity
  8
HATCH
  6
Continuous
 62
     7
370
    30
100
AcDbPoint
 10
45.4375
 20
8.375
 30
0.0
  0
POINT
  5
36C
330
58E
100
AcDbEntity
  8
HATCH
  6
Continuous
 62
     7
370
    30
100
AcDbPoint
 10
45.5
 20
8.375
 30
0.0
  0
POINT
  5
36D
330
58E
100
AcDbEntity
  8
HATCH
  6
Continuous
 62
     7
370
    30
100
AcDbPoint
 10
45.5625
 20
8.375
 30
0.0
  0
POINT
  5
36E
330
58E
100
AcDbEntity
  8
HATCH
  6
Continuous
 62
     7
370
    30
100
AcDbPoint
 10
45.625
 20
8.375
 30
0.0
  0
POINT
  5
36F
330
58E
100
AcDbEntity
  8
HATCH
  6
Continuous
 62
     7
370
    30
100
AcDbPoint
 10
45.6875
 20
8.375
 30
0.0
  0
POINT
  5
370
330
58E
100
AcDbEntity
  8
HATCH
  6
Continuous
 62
     7
370
    30
100
AcDbPoint
 10
45.75
 20
8.375
 30
0.0
  0
POINT
  5
371
330
58E
100
AcDbEntity
  8
HATCH
  6
Continuous
 62
     7
370
    30
100
AcDbPoint
 10
45.8125
 20
8.375
 30
0.0
  0
POINT
  5
372
330
58E
100
AcDbEntity
  8
HATCH
  6
Continuous
 62
     7
370
    30
100
AcDbPoint
 10
45.875
 20
8.375
 30
0.0
  0
POINT
  5
373
330
58E
100
AcDbEntity
  8
HATCH
  6
Continuous
 62
     7
370
    30
100
AcDbPoint
 10
45.9375
 20
8.375
 30
0.0
  0
POINT
  5
374
330
58E
100
AcDbEntity
  8
HATCH
  6
Continuous
 62
     7
370
    30
100
AcDbPoint
 10
46.0
 20
8.375
 30
0.0
  0
POINT
  5
375
330
58E
100
AcDbEntity
  8
HATCH
  6
Continuous
 62
     7
370
    30
100
AcDbPoint
 10
46.0625
 20
8.375
 30
0.0
  0
POINT
  5
376
330
58E
100
AcDbEntity
  8
HATCH
  6
Continuous
 62
     7
370
    30
100
AcDbPoint
 10
46.125
 20
8.375
 30
0.0
  0
POINT
  5
377
330
58E
100
AcDbEntity
  8
HATCH
  6
Continuous
 62
     7
370
    30
100
AcDbPoint
 10
46.1875
 20
8.375
 30
0.0
  0
POINT
  5
378
330
58E
100
AcDbEntity
  8
HATCH
  6
Continuous
 62
     7
370
    30
100
AcDbPoint
 10
46.25
 20
8.375
 30
0.0
  0
POINT
  5
379
330
58E
100
AcDbEntity
  8
HATCH
  6
Continuous
 62
     7
370
    30
100
AcDbPoint
 10
46.3125
 20
8.375
 30
0.0
  0
POINT
  5
37A
330
58E
100
AcDbEntity
  8
HATCH
  6
Continuous
 62
     7
370
    30
100
AcDbPoint
 10
46.375
 20
8.375
 30
0.0
  0
POINT
  5
37B
330
58E
100
AcDbEntity
  8
HATCH
  6
Continuous
 62
     7
370
    30
100
AcDbPoint
 10
46.4375
 20
8.375
 30
0.0
  0
POINT
  5
37C
330
58E
100
AcDbEntity
  8
HATCH
  6
Continuous
 62
     7
370
    30
100
AcDbPoint
 10
46.5
 20
8.375
 30
0.0
  0
POINT
  5
37D
330
58E
100
AcDbEntity
  8
HATCH
  6
Continuous
 62
     7
370
    30
100
AcDbPoint
 10
46.5625
 20
8.375
 30
0.0
  0
POINT
  5
37E
330
58E
100
AcDbEntity
  8
HATCH
  6
Continuous
 62
     7
370
    30
100
AcDbPoint
 10
46.625
 20
8.375
 30
0.0
  0
POINT
  5
37F
330
58E
100
AcDbEntity
  8
HATCH
  6
Continuous
 62
     7
370
    30
100
AcDbPoint
 10
46.6875
 20
8.375
 30
0.0
  0
POINT
  5
380
330
58E
100
AcDbEntity
  8
HATCH
  6
Continuous
 62
     7
370
    30
100
AcDbPoint
 10
46.75
 20
8.375
 30
0.0
  0
POINT
  5
381
330
58E
100
AcDbEntity
  8
HATCH
  6
Continuous
 62
     7
370
    30
100
AcDbPoint
 10
46.8125
 20
8.375
 30
0.0
  0
POINT
  5
382
330
58E
100
AcDbEntity
  8
HATCH
  6
Continuous
 62
     7
370
    30
100
AcDbPoint
 10
46.875
 20
8.375
 30
0.0
  0
POINT
  5
383
330
58E
100
AcDbEntity
  8
HATCH
  6
Continuous
 62
     7
370
    30
100
AcDbPoint
 10
46.9375
 20
8.375
 30
0.0
  0
POINT
  5
384
330
58E
100
AcDbEntity
  8
HATCH
  6
Continuous
 62
     7
370
    30
100
AcDbPoint
 10
47.0
 20
8.375
 30
0.0
  0
POINT
  5
385
330
58E
100
AcDbEntity
  8
HATCH
  6
Continuous
 62
     7
370
    30
100
AcDbPoint
 10
47.0625
 20
8.375
 30
0.0
  0
POINT
  5
386
330
58E
100
AcDbEntity
  8
HATCH
  6
Continuous
 62
     7
370
    30
100
AcDbPoint
 10
47.125
 20
8.375
 30
0.0
  0
POINT
  5
387
330
58E
100
AcDbEntity
  8
HATCH
  6
Continuous
 62
     7
370
    30
100
AcDbPoint
 10
47.1875
 20
8.375
 30
0.0
  0
POINT
  5
388
330
58E
100
AcDbEntity
  8
HATCH
  6
Continuous
 62
     7
370
    30
100
AcDbPoint
 10
47.25
 20
8.375
 30
0.0
  0
POINT
  5
389
330
58E
100
AcDbEntity
  8
HATCH
  6
Continuous
 62
     7
370
    30
100
AcDbPoint
 10
47.3125
 20
8.375
 30
0.0
  0
POINT
  5
38A
330
58E
100
AcDbEntity
  8
HATCH
  6
Continuous
 62
     7
370
    30
100
AcDbPoint
 10
47.375
 20
8.375
 30
0.0
  0
POINT
  5
38B
330
58E
100
AcDbEntity
  8
HATCH
  6
Continuous
 62
     7
370
    30
100
AcDbPoint
 10
47.4375
 20
8.375
 30
0.0
  0
POINT
  5
38C
330
58E
100
AcDbEntity
  8
HATCH
  6
Continuous
 62
     7
370
    30
100
AcDbPoint
 10
47.5
 20
8.375
 30
0.0
  0
POINT
  5
38D
330
58E
100
AcDbEntity
  8
HATCH
  6
Continuous
 62
     7
370
    30
100
AcDbPoint
 10
47.5625
 20
8.375
 30
0.0
  0
POINT
  5
38E
330
58E
100
AcDbEntity
  8
HATCH
  6
Continuous
 62
     7
370
    30
100
AcDbPoint
 10
47.625
 20
8.375
 30
0.0
  0
POINT
  5
38F
330
58E
100
AcDbEntity
  8
HATCH
  6
Continuous
 62
     7
370
    30
100
AcDbPoint
 10
47.6875
 20
8.375
 30
0.0
  0
POINT
  5
390
330
58E
100
AcDbEntity
  8
HATCH
  6
Continuous
 62
     7
370
    30
100
AcDbPoint
 10
47.75
 20
8.375
 30
0.0
  0
POINT
  5
391
330
58E
100
AcDbEntity
  8
HATCH
  6
Continuous
 62
     7
370
    30
100
AcDbPoint
 10
47.8125
 20
8.375
 30
0.0
  0
POINT
  5
392
330
58E
100
AcDbEntity
  8
HATCH
  6
Continuous
 62
     7
370
    30
100
AcDbPoint
 10
47.875
 20
8.375
 30
0.0
  0
POINT
  5
393
330
58E
100
AcDbEntity
  8
HATCH
  6
Continuous
 62
     7
370
    30
100
AcDbPoint
 10
47.9375
 20
8.375
 30
0.0
  0
POINT
  5
394
330
58E
100
AcDbEntity
  8
HATCH
  6
Continuous
 62
     7
370
    30
100
AcDbPoint
 10
48.0
 20
8.375
 30
0.0
  0
POINT
  5
395
330
58E
100
AcDbEntity
  8
HATCH
  6
Continuous
 62
     7
370
    30
100
AcDbPoint
 10
48.0625
 20
8.375
 30
0.0
  0
POINT
  5
396
330
58E
100
AcDbEntity
  8
HATCH
  6
Continuous
 62
     7
370
    30
100
AcDbPoint
 10
48.125
 20
8.375
 30
0.0
  0
POINT
  5
397
330
58E
100
AcDbEntity
  8
HATCH
  6
Continuous
 62
     7
370
    30
100
AcDbPoint
 10
48.1875
 20
8.375
 30
0.0
  0
POINT
  5
398
330
58E
100
AcDbEntity
  8
HATCH
  6
Continuous
 62
     7
370
    30
100
AcDbPoint
 10
48.25
 20
8.375
 30
0.0
  0
POINT
  5
399
330
58E
100
AcDbEntity
  8
HATCH
  6
Continuous
 62
     7
370
    30
100
AcDbPoint
 10
48.3125
 20
8.375
 30
0.0
  0
POINT
  5
39A
330
58E
100
AcDbEntity
  8
HATCH
  6
Continuous
 62
     7
370
    30
100
AcDbPoint
 10
48.375
 20
8.375
 30
0.0
  0
POINT
  5
39B
330
58E
100
AcDbEntity
  8
HATCH
  6
Continuous
 62
     7
370
    30
100
AcDbPoint
 10
48.4375
 20
8.375
 30
0.0
  0
POINT
  5
39C
330
58E
100
AcDbEntity
  8
HATCH
  6
Continuous
 62
     7
370
    30
100
AcDbPoint
 10
48.5
 20
8.375
 30
0.0
  0
POINT
  5
39D
330
58E
100
AcDbEntity
  8
HATCH
  6
Continuous
 62
     7
370
    30
100
AcDbPoint
 10
48.5625
 20
8.375
 30
0.0
  0
POINT
  5
39E
330
58E
100
AcDbEntity
  8
HATCH
  6
Continuous
 62
     7
370
    30
100
AcDbPoint
 10
48.625
 20
8.375
 30
0.0
  0
POINT
  5
39F
330
58E
100
AcDbEntity
  8
HATCH
  6
Continuous
 62
     7
370
    30
100
AcDbPoint
 10
48.6875
 20
8.375
 30
0.0
  0
POINT
  5
3A0
330
58E
100
AcDbEntity
  8
HATCH
  6
Continuous
 62
     7
370
    30
100
AcDbPoint
 10
48.75
 20
8.375
 30
0.0
  0
POINT
  5
3A1
330
58E
100
AcDbEntity
  8
HATCH
  6
Continuous
 62
     7
370
    30
100
AcDbPoint
 10
48.8125
 20
8.375
 30
0.0
  0
POINT
  5
3A2
330
58E
100
AcDbEntity
  8
HATCH
  6
Continuous
 62
     7
370
    30
100
AcDbPoint
 10
48.875
 20
8.375
 30
0.0
  0
POINT
  5
3A3
330
58E
100
AcDbEntity
  8
HATCH
  6
Continuous
 62
     7
370
    30
100
AcDbPoint
 10
48.9375
 20
8.375
 30
0.0
  0
POINT
  5
3A4
330
58E
100
AcDbEntity
  8
HATCH
  6
Continuous
 62
     7
370
    30
100
AcDbPoint
 10
49.0
 20
8.375
 30
0.0
  0
POINT
  5
3A5
330
58E
100
AcDbEntity
  8
HATCH
  6
Continuous
 62
     7
370
    30
100
AcDbPoint
 10
49.0625
 20
8.375
 30
0.0
  0
POINT
  5
3A6
330
58E
100
AcDbEntity
  8
HATCH
  6
Continuous
 62
     7
370
    30
100
AcDbPoint
 10
49.125
 20
8.375
 30
0.0
  0
POINT
  5
3A7
330
58E
100
AcDbEntity
  8
HATCH
  6
Continuous
 62
     7
370
    30
100
AcDbPoint
 10
49.1875
 20
8.375
 30
0.0
  0
POINT
  5
3A8
330
58E
100
AcDbEntity
  8
HATCH
  6
Continuous
 62
     7
370
    30
100
AcDbPoint
 10
49.25
 20
8.375
 30
0.0
  0
POINT
  5
3A9
330
58E
100
AcDbEntity
  8
HATCH
  6
Continuous
 62
     7
370
    30
100
AcDbPoint
 10
49.3125
 20
8.375
 30
0.0
  0
POINT
  5
3AA
330
58E
100
AcDbEntity
  8
HATCH
  6
Continuous
 62
     7
370
    30
100
AcDbPoint
 10
49.375
 20
8.375
 30
0.0
  0
POINT
  5
3AB
330
58E
100
AcDbEntity
  8
HATCH
  6
Continuous
 62
     7
370
    30
100
AcDbPoint
 10
49.4375
 20
8.375
 30
0.0
  0
POINT
  5
3AC
330
58E
100
AcDbEntity
  8
HATCH
  6
Continuous
 62
     7
370
    30
100
AcDbPoint
 10
49.5
 20
8.375
 30
0.0
  0
POINT
  5
3AD
330
58E
100
AcDbEntity
  8
HATCH
  6
Continuous
 62
     7
370
    30
100
AcDbPoint
 10
49.5625
 20
8.375
 30
0.0
  0
POINT
  5
3AE
330
58E
100
AcDbEntity
  8
HATCH
  6
Continuous
 62
     7
370
    30
100
AcDbPoint
 10
49.625
 20
8.375
 30
0.0
  0
POINT
  5
3AF
330
58E
100
AcDbEntity
  8
HATCH
  6
Continuous
 62
     7
370
    30
100
AcDbPoint
 10
49.6875
 20
8.375
 30
0.0
  0
POINT
  5
3B0
330
58E
100
AcDbEntity
  8
HATCH
  6
Continuous
 62
     7
370
    30
100
AcDbPoint
 10
49.75
 20
8.375
 30
0.0
  0
POINT
  5
3B1
330
58E
100
AcDbEntity
  8
HATCH
  6
Continuous
 62
     7
370
    30
100
AcDbPoint
 10
49.8125
 20
8.375
 30
0.0
  0
POINT
  5
3B2
330
58E
100
AcDbEntity
  8
HATCH
  6
Continuous
 62
     7
370
    30
100
AcDbPoint
 10
49.875
 20
8.375
 30
0.0
  0
POINT
  5
3B3
330
58E
100
AcDbEntity
  8
HATCH
  6
Continuous
 62
     7
370
    30
100
AcDbPoint
 10
49.9375
 20
8.375
 30
0.0
  0
POINT
  5
3B4
330
58E
100
AcDbEntity
  8
HATCH
  6
Continuous
 62
     7
370
    30
100
AcDbPoint
 10
50.0
 20
8.375
 30
0.0
  0
POINT
  5
3B5
330
58E
100
AcDbEntity
  8
HATCH
  6
Continuous
 62
     7
370
    30
100
AcDbPoint
 10
50.0625
 20
8.375
 30
0.0
  0
POINT
  5
3B6
330
58E
100
AcDbEntity
  8
HATCH
  6
Continuous
 62
     7
370
    30
100
AcDbPoint
 10
50.125
 20
8.375
 30
0.0
  0
POINT
  5
3B7
330
58E
100
AcDbEntity
  8
HATCH
  6
Continuous
 62
     7
370
    30
100
AcDbPoint
 10
50.1875
 20
8.375
 30
0.0
  0
POINT
  5
3B8
330
58E
100
AcDbEntity
  8
HATCH
  6
Continuous
 62
     7
370
    30
100
AcDbPoint
 10
50.25
 20
8.375
 30
0.0
  0
POINT
  5
3B9
330
58E
100
AcDbEntity
  8
HATCH
  6
Continuous
 62
     7
370
    30
100
AcDbPoint
 10
50.3125
 20
8.375
 30
0.0
  0
POINT
  5
3BA
330
58E
100
AcDbEntity
  8
HATCH
  6
Continuous
 62
     7
370
    30
100
AcDbPoint
 10
50.375
 20
8.375
 30
0.0
  0
POINT
  5
3BB
330
58E
100
AcDbEntity
  8
HATCH
  6
Continuous
 62
     7
370
    30
100
AcDbPoint
 10
50.4375
 20
8.375
 30
0.0
  0
POINT
  5
3BC
330
58E
100
AcDbEntity
  8
HATCH
  6
Continuous
 62
     7
370
    30
100
AcDbPoint
 10
50.5
 20
8.375
 30
0.0
  0
POINT
  5
3BD
330
58E
100
AcDbEntity
  8
HATCH
  6
Continuous
 62
     7
370
    30
100
AcDbPoint
 10
50.5625
 20
8.375
 30
0.0
  0
POINT
  5
3BE
330
58E
100
AcDbEntity
  8
HATCH
  6
Continuous
 62
     7
370
    30
100
AcDbPoint
 10
50.625
 20
8.375
 30
0.0
  0
POINT
  5
3BF
330
58E
100
AcDbEntity
  8
HATCH
  6
Continuous
 62
     7
370
    30
100
AcDbPoint
 10
50.6875
 20
8.375
 30
0.0
  0
POINT
  5
3C0
330
58E
100
AcDbEntity
  8
HATCH
  6
Continuous
 62
     7
370
    30
100
AcDbPoint
 10
50.75
 20
8.375
 30
0.0
  0
POINT
  5
3C1
330
58E
100
AcDbEntity
  8
HATCH
  6
Continuous
 62
     7
370
    30
100
AcDbPoint
 10
50.8125
 20
8.375
 30
0.0
  0
POINT
  5
3C2
330
58E
100
AcDbEntity
  8
HATCH
  6
Continuous
 62
     7
370
    30
100
AcDbPoint
 10
50.875
 20
8.375
 30
0.0
  0
POINT
  5
3C3
330
58E
100
AcDbEntity
  8
HATCH
  6
Continuous
 62
     7
370
    30
100
AcDbPoint
 10
50.9375
 20
8.375
 30
0.0
  0
POINT
  5
3C4
330
58E
100
AcDbEntity
  8
HATCH
  6
Continuous
 62
     7
370
    30
100
AcDbPoint
 10
51.0
 20
8.375
 30
0.0
  0
POINT
  5
3C5
330
58E
100
AcDbEntity
  8
HATCH
  6
Continuous
 62
     7
370
    30
100
AcDbPoint
 10
51.0625
 20
8.375
 30
0.0
  0
POINT
  5
3C6
330
58E
100
AcDbEntity
  8
HATCH
  6
Continuous
 62
     7
370
    30
100
AcDbPoint
 10
51.125
 20
8.375
 30
0.0
  0
POINT
  5
3C7
330
58E
100
AcDbEntity
  8
HATCH
  6
Continuous
 62
     7
370
    30
100
AcDbPoint
 10
45.34375
 20
8.0625
 30
0.0
  0
POINT
  5
3C8
330
58E
100
AcDbEntity
  8
HATCH
  6
Continuous
 62
     7
370
    30
100
AcDbPoint
 10
45.40625
 20
8.0625
 30
0.0
  0
POINT
  5
3C9
330
58E
100
AcDbEntity
  8
HATCH
  6
Continuous
 62
     7
370
    30
100
AcDbPoint
 10
45.46875
 20
8.0625
 30
0.0
  0
POINT
  5
3CA
330
58E
100
AcDbEntity
  8
HATCH
  6
Continuous
 62
     7
370
    30
100
AcDbPoint
 10
45.53125
 20
8.0625
 30
0.0
  0
POINT
  5
3CB
330
58E
100
AcDbEntity
  8
HATCH
  6
Continuous
 62
     7
370
    30
100
AcDbPoint
 10
45.59375
 20
8.0625
 30
0.0
  0
POINT
  5
3CC
330
58E
100
AcDbEntity
  8
HATCH
  6
Continuous
 62
     7
370
    30
100
AcDbPoint
 10
45.65625
 20
8.0625
 30
0.0
  0
POINT
  5
3CD
330
58E
100
AcDbEntity
  8
HATCH
  6
Continuous
 62
     7
370
    30
100
AcDbPoint
 10
45.71875
 20
8.0625
 30
0.0
  0
POINT
  5
3CE
330
58E
100
AcDbEntity
  8
HATCH
  6
Continuous
 62
     7
370
    30
100
AcDbPoint
 10
45.78125
 20
8.0625
 30
0.0
  0
POINT
  5
3CF
330
58E
100
AcDbEntity
  8
HATCH
  6
Continuous
 62
     7
370
    30
100
AcDbPoint
 10
45.84375
 20
8.0625
 30
0.0
  0
POINT
  5
3D0
330
58E
100
AcDbEntity
  8
HATCH
  6
Continuous
 62
     7
370
    30
100
AcDbPoint
 10
45.90625
 20
8.0625
 30
0.0
  0
POINT
  5
3D1
330
58E
100
AcDbEntity
  8
HATCH
  6
Continuous
 62
     7
370
    30
100
AcDbPoint
 10
45.96875
 20
8.0625
 30
0.0
  0
POINT
  5
3D2
330
58E
100
AcDbEntity
  8
HATCH
  6
Continuous
 62
     7
370
    30
100
AcDbPoint
 10
46.03125
 20
8.0625
 30
0.0
  0
POINT
  5
3D3
330
58E
100
AcDbEntity
  8
HATCH
  6
Continuous
 62
     7
370
    30
100
AcDbPoint
 10
46.09375
 20
8.0625
 30
0.0
  0
POINT
  5
3D4
330
58E
100
AcDbEntity
  8
HATCH
  6
Continuous
 62
     7
370
    30
100
AcDbPoint
 10
46.15625
 20
8.0625
 30
0.0
  0
POINT
  5
3D5
330
58E
100
AcDbEntity
  8
HATCH
  6
Continuous
 62
     7
370
    30
100
AcDbPoint
 10
46.21875
 20
8.0625
 30
0.0
  0
POINT
  5
3D6
330
58E
100
AcDbEntity
  8
HATCH
  6
Continuous
 62
     7
370
    30
100
AcDbPoint
 10
46.28125
 20
8.0625
 30
0.0
  0
POINT
  5
3D7
330
58E
100
AcDbEntity
  8
HATCH
  6
Continuous
 62
     7
370
    30
100
AcDbPoint
 10
46.34375
 20
8.0625
 30
0.0
  0
POINT
  5
3D8
330
58E
100
AcDbEntity
  8
HATCH
  6
Continuous
 62
     7
370
    30
100
AcDbPoint
 10
46.40625
 20
8.0625
 30
0.0
  0
POINT
  5
3D9
330
58E
100
AcDbEntity
  8
HATCH
  6
Continuous
 62
     7
370
    30
100
AcDbPoint
 10
46.46875
 20
8.0625
 30
0.0
  0
POINT
  5
3DA
330
58E
100
AcDbEntity
  8
HATCH
  6
Continuous
 62
     7
370
    30
100
AcDbPoint
 10
46.53125
 20
8.0625
 30
0.0
  0
POINT
  5
3DB
330
58E
100
AcDbEntity
  8
HATCH
  6
Continuous
 62
     7
370
    30
100
AcDbPoint
 10
46.59375
 20
8.0625
 30
0.0
  0
POINT
  5
3DC
330
58E
100
AcDbEntity
  8
HATCH
  6
Continuous
 62
     7
370
    30
100
AcDbPoint
 10
46.65625
 20
8.0625
 30
0.0
  0
POINT
  5
3DD
330
58E
100
AcDbEntity
  8
HATCH
  6
Continuous
 62
     7
370
    30
100
AcDbPoint
 10
46.71875
 20
8.0625
 30
0.0
  0
POINT
  5
3DE
330
58E
100
AcDbEntity
  8
HATCH
  6
Continuous
 62
     7
370
    30
100
AcDbPoint
 10
46.78125
 20
8.0625
 30
0.0
  0
POINT
  5
3DF
330
58E
100
AcDbEntity
  8
HATCH
  6
Continuous
 62
     7
370
    30
100
AcDbPoint
 10
46.84375
 20
8.0625
 30
0.0
  0
POINT
  5
3E0
330
58E
100
AcDbEntity
  8
HATCH
  6
Continuous
 62
     7
370
    30
100
AcDbPoint
 10
46.90625
 20
8.0625
 30
0.0
  0
POINT
  5
3E1
330
58E
100
AcDbEntity
  8
HATCH
  6
Continuous
 62
     7
370
    30
100
AcDbPoint
 10
46.96875
 20
8.0625
 30
0.0
  0
POINT
  5
3E2
330
58E
100
AcDbEntity
  8
HATCH
  6
Continuous
 62
     7
370
    30
100
AcDbPoint
 10
47.03125
 20
8.0625
 30
0.0
  0
POINT
  5
3E3
330
58E
100
AcDbEntity
  8
HATCH
  6
Continuous
 62
     7
370
    30
100
AcDbPoint
 10
47.09375
 20
8.0625
 30
0.0
  0
POINT
  5
3E4
330
58E
100
AcDbEntity
  8
HATCH
  6
Continuous
 62
     7
370
    30
100
AcDbPoint
 10
47.15625
 20
8.0625
 30
0.0
  0
POINT
  5
3E5
330
58E
100
AcDbEntity
  8
HATCH
  6
Continuous
 62
     7
370
    30
100
AcDbPoint
 10
47.21875
 20
8.0625
 30
0.0
  0
POINT
  5
3E6
330
58E
100
AcDbEntity
  8
HATCH
  6
Continuous
 62
     7
370
    30
100
AcDbPoint
 10
47.28125
 20
8.0625
 30
0.0
  0
POINT
  5
3E7
330
58E
100
AcDbEntity
  8
HATCH
  6
Continuous
 62
     7
370
    30
100
AcDbPoint
 10
47.34375
 20
8.0625
 30
0.0
  0
POINT
  5
3E8
330
58E
100
AcDbEntity
  8
HATCH
  6
Continuous
 62
     7
370
    30
100
AcDbPoint
 10
47.40625
 20
8.0625
 30
0.0
  0
POINT
  5
3E9
330
58E
100
AcDbEntity
  8
HATCH
  6
Continuous
 62
     7
370
    30
100
AcDbPoint
 10
47.46875
 20
8.0625
 30
0.0
  0
POINT
  5
3EA
330
58E
100
AcDbEntity
  8
HATCH
  6
Continuous
 62
     7
370
    30
100
AcDbPoint
 10
47.53125
 20
8.0625
 30
0.0
  0
POINT
  5
3EB
330
58E
100
AcDbEntity
  8
HATCH
  6
Continuous
 62
     7
370
    30
100
AcDbPoint
 10
47.59375
 20
8.0625
 30
0.0
  0
POINT
  5
3EC
330
58E
100
AcDbEntity
  8
HATCH
  6
Continuous
 62
     7
370
    30
100
AcDbPoint
 10
47.65625
 20
8.0625
 30
0.0
  0
POINT
  5
3ED
330
58E
100
AcDbEntity
  8
HATCH
  6
Continuous
 62
     7
370
    30
100
AcDbPoint
 10
47.71875
 20
8.0625
 30
0.0
  0
POINT
  5
3EE
330
58E
100
AcDbEntity
  8
HATCH
  6
Continuous
 62
     7
370
    30
100
AcDbPoint
 10
47.78125
 20
8.0625
 30
0.0
  0
POINT
  5
3EF
330
58E
100
AcDbEntity
  8
HATCH
  6
Continuous
 62
     7
370
    30
100
AcDbPoint
 10
47.84375
 20
8.0625
 30
0.0
  0
POINT
  5
3F0
330
58E
100
AcDbEntity
  8
HATCH
  6
Continuous
 62
     7
370
    30
100
AcDbPoint
 10
47.90625
 20
8.0625
 30
0.0
  0
POINT
  5
3F1
330
58E
100
AcDbEntity
  8
HATCH
  6
Continuous
 62
     7
370
    30
100
AcDbPoint
 10
47.96875
 20
8.0625
 30
0.0
  0
POINT
  5
3F2
330
58E
100
AcDbEntity
  8
HATCH
  6
Continuous
 62
     7
370
    30
100
AcDbPoint
 10
48.03125
 20
8.0625
 30
0.0
  0
POINT
  5
3F3
330
58E
100
AcDbEntity
  8
HATCH
  6
Continuous
 62
     7
370
    30
100
AcDbPoint
 10
48.09375
 20
8.0625
 30
0.0
  0
POINT
  5
3F4
330
58E
100
AcDbEntity
  8
HATCH
  6
Continuous
 62
     7
370
    30
100
AcDbPoint
 10
48.15625
 20
8.0625
 30
0.0
  0
POINT
  5
3F5
330
58E
100
AcDbEntity
  8
HATCH
  6
Continuous
 62
     7
370
    30
100
AcDbPoint
 10
48.21875
 20
8.0625
 30
0.0
  0
POINT
  5
3F6
330
58E
100
AcDbEntity
  8
HATCH
  6
Continuous
 62
     7
370
    30
100
AcDbPoint
 10
48.28125
 20
8.0625
 30
0.0
  0
POINT
  5
3F7
330
58E
100
AcDbEntity
  8
HATCH
  6
Continuous
 62
     7
370
    30
100
AcDbPoint
 10
48.34375
 20
8.0625
 30
0.0
  0
POINT
  5
3F8
330
58E
100
AcDbEntity
  8
HATCH
  6
Continuous
 62
     7
370
    30
100
AcDbPoint
 10
48.40625
 20
8.0625
 30
0.0
  0
POINT
  5
3F9
330
58E
100
AcDbEntity
  8
HATCH
  6
Continuous
 62
     7
370
    30
100
AcDbPoint
 10
48.46875
 20
8.0625
 30
0.0
  0
POINT
  5
3FA
330
58E
100
AcDbEntity
  8
HATCH
  6
Continuous
 62
     7
370
    30
100
AcDbPoint
 10
48.53125
 20
8.0625
 30
0.0
  0
POINT
  5
3FB
330
58E
100
AcDbEntity
  8
HATCH
  6
Continuous
 62
     7
370
    30
100
AcDbPoint
 10
48.59375
 20
8.0625
 30
0.0
  0
POINT
  5
3FC
330
58E
100
AcDbEntity
  8
HATCH
  6
Continuous
 62
     7
370
    30
100
AcDbPoint
 10
48.65625
 20
8.0625
 30
0.0
  0
POINT
  5
3FD
330
58E
100
AcDbEntity
  8
HATCH
  6
Continuous
 62
     7
370
    30
100
AcDbPoint
 10
48.71875
 20
8.0625
 30
0.0
  0
POINT
  5
3FE
330
58E
100
AcDbEntity
  8
HATCH
  6
Continuous
 62
     7
370
    30
100
AcDbPoint
 10
48.78125
 20
8.0625
 30
0.0
  0
POINT
  5
3FF
330
58E
100
AcDbEntity
  8
HATCH
  6
Continuous
 62
     7
370
    30
100
AcDbPoint
 10
48.84375
 20
8.0625
 30
0.0
  0
POINT
  5
400
330
58E
100
AcDbEntity
  8
HATCH
  6
Continuous
 62
     7
370
    30
100
AcDbPoint
 10
48.90625
 20
8.0625
 30
0.0
  0
POINT
  5
401
330
58E
100
AcDbEntity
  8
HATCH
  6
Continuous
 62
     7
370
    30
100
AcDbPoint
 10
48.96875
 20
8.0625
 30
0.0
  0
POINT
  5
402
330
58E
100
AcDbEntity
  8
HATCH
  6
Continuous
 62
     7
370
    30
100
AcDbPoint
 10
49.03125
 20
8.0625
 30
0.0
  0
POINT
  5
403
330
58E
100
AcDbEntity
  8
HATCH
  6
Continuous
 62
     7
370
    30
100
AcDbPoint
 10
49.09375
 20
8.0625
 30
0.0
  0
POINT
  5
404
330
58E
100
AcDbEntity
  8
HATCH
  6
Continuous
 62
     7
370
    30
100
AcDbPoint
 10
49.15625
 20
8.0625
 30
0.0
  0
POINT
  5
405
330
58E
100
AcDbEntity
  8
HATCH
  6
Continuous
 62
     7
370
    30
100
AcDbPoint
 10
49.21875
 20
8.0625
 30
0.0
  0
POINT
  5
406
330
58E
100
AcDbEntity
  8
HATCH
  6
Continuous
 62
     7
370
    30
100
AcDbPoint
 10
49.28125
 20
8.0625
 30
0.0
  0
POINT
  5
407
330
58E
100
AcDbEntity
  8
HATCH
  6
Continuous
 62
     7
370
    30
100
AcDbPoint
 10
49.34375
 20
8.0625
 30
0.0
  0
POINT
  5
408
330
58E
100
AcDbEntity
  8
HATCH
  6
Continuous
 62
     7
370
    30
100
AcDbPoint
 10
49.40625
 20
8.0625
 30
0.0
  0
POINT
  5
409
330
58E
100
AcDbEntity
  8
HATCH
  6
Continuous
 62
     7
370
    30
100
AcDbPoint
 10
49.46875
 20
8.0625
 30
0.0
  0
POINT
  5
40A
330
58E
100
AcDbEntity
  8
HATCH
  6
Continuous
 62
     7
370
    30
100
AcDbPoint
 10
49.53125
 20
8.0625
 30
0.0
  0
POINT
  5
40B
330
58E
100
AcDbEntity
  8
HATCH
  6
Continuous
 62
     7
370
    30
100
AcDbPoint
 10
49.59375
 20
8.0625
 30
0.0
  0
POINT
  5
40C
330
58E
100
AcDbEntity
  8
HATCH
  6
Continuous
 62
     7
370
    30
100
AcDbPoint
 10
49.65625
 20
8.0625
 30
0.0
  0
POINT
  5
40D
330
58E
100
AcDbEntity
  8
HATCH
  6
Continuous
 62
     7
370
    30
100
AcDbPoint
 10
49.71875
 20
8.0625
 30
0.0
  0
POINT
  5
40E
330
58E
100
AcDbEntity
  8
HATCH
  6
Continuous
 62
     7
370
    30
100
AcDbPoint
 10
49.78125
 20
8.0625
 30
0.0
  0
POINT
  5
40F
330
58E
100
AcDbEntity
  8
HATCH
  6
Continuous
 62
     7
370
    30
100
AcDbPoint
 10
49.84375
 20
8.0625
 30
0.0
  0
POINT
  5
410
330
58E
100
AcDbEntity
  8
HATCH
  6
Continuous
 62
     7
370
    30
100
AcDbPoint
 10
49.90625
 20
8.0625
 30
0.0
  0
POINT
  5
411
330
58E
100
AcDbEntity
  8
HATCH
  6
Continuous
 62
     7
370
    30
100
AcDbPoint
 10
49.96875
 20
8.0625
 30
0.0
  0
POINT
  5
412
330
58E
100
AcDbEntity
  8
HATCH
  6
Continuous
 62
     7
370
    30
100
AcDbPoint
 10
50.03125
 20
8.0625
 30
0.0
  0
POINT
  5
413
330
58E
100
AcDbEntity
  8
HATCH
  6
Continuous
 62
     7
370
    30
100
AcDbPoint
 10
50.09375
 20
8.0625
 30
0.0
  0
POINT
  5
414
330
58E
100
AcDbEntity
  8
HATCH
  6
Continuous
 62
     7
370
    30
100
AcDbPoint
 10
50.15625
 20
8.0625
 30
0.0
  0
POINT
  5
415
330
58E
100
AcDbEntity
  8
HATCH
  6
Continuous
 62
     7
370
    30
100
AcDbPoint
 10
50.21875
 20
8.0625
 30
0.0
  0
POINT
  5
416
330
58E
100
AcDbEntity
  8
HATCH
  6
Continuous
 62
     7
370
    30
100
AcDbPoint
 10
50.28125
 20
8.0625
 30
0.0
  0
POINT
  5
417
330
58E
100
AcDbEntity
  8
HATCH
  6
Continuous
 62
     7
370
    30
100
AcDbPoint
 10
50.34375
 20
8.0625
 30
0.0
  0
POINT
  5
418
330
58E
100
AcDbEntity
  8
HATCH
  6
Continuous
 62
     7
370
    30
100
AcDbPoint
 10
50.40625
 20
8.0625
 30
0.0
  0
POINT
  5
419
330
58E
100
AcDbEntity
  8
HATCH
  6
Continuous
 62
     7
370
    30
100
AcDbPoint
 10
50.46875
 20
8.0625
 30
0.0
  0
POINT
  5
41A
330
58E
100
AcDbEntity
  8
HATCH
  6
Continuous
 62
     7
370
    30
100
AcDbPoint
 10
50.53125
 20
8.0625
 30
0.0
  0
POINT
  5
41B
330
58E
100
AcDbEntity
  8
HATCH
  6
Continuous
 62
     7
370
    30
100
AcDbPoint
 10
50.59375
 20
8.0625
 30
0.0
  0
POINT
  5
41C
330
58E
100
AcDbEntity
  8
HATCH
  6
Continuous
 62
     7
370
    30
100
AcDbPoint
 10
50.65625
 20
8.0625
 30
0.0
  0
POINT
  5
41D
330
58E
100
AcDbEntity
  8
HATCH
  6
Continuous
 62
     7
370
    30
100
AcDbPoint
 10
50.71875
 20
8.0625
 30
0.0
  0
POINT
  5
41E
330
58E
100
AcDbEntity
  8
HATCH
  6
Continuous
 62
     7
370
    30
100
AcDbPoint
 10
50.78125
 20
8.0625
 30
0.0
  0
POINT
  5
41F
330
58E
100
AcDbEntity
  8
HATCH
  6
Continuous
 62
     7
370
    30
100
AcDbPoint
 10
50.84375
 20
8.0625
 30
0.0
  0
POINT
  5
420
330
58E
100
AcDbEntity
  8
HATCH
  6
Continuous
 62
     7
370
    30
100
AcDbPoint
 10
50.90625
 20
8.0625
 30
0.0
  0
POINT
  5
421
330
58E
100
AcDbEntity
  8
HATCH
  6
Continuous
 62
     7
370
    30
100
AcDbPoint
 10
50.96875
 20
8.0625
 30
0.0
  0
POINT
  5
422
330
58E
100
AcDbEntity
  8
HATCH
  6
Continuous
 62
     7
370
    30
100
AcDbPoint
 10
51.03125
 20
8.0625
 30
0.0
  0
POINT
  5
423
330
58E
100
AcDbEntity
  8
HATCH
  6
Continuous
 62
     7
370
    30
100
AcDbPoint
 10
51.09375
 20
8.0625
 30
0.0
  0
POINT
  5
424
330
58E
100
AcDbEntity
  8
HATCH
  6
Continuous
 62
     7
370
    30
100
AcDbPoint
 10
51.15625
 20
8.0625
 30
0.0
  0
POINT
  5
425
330
58E
100
AcDbEntity
  8
HATCH
  6
Continuous
 62
     7
370
    30
100
AcDbPoint
 10
45.375
 20
8.0
 30
0.0
  0
POINT
  5
426
330
58E
100
AcDbEntity
  8
HATCH
  6
Continuous
 62
     7
370
    30
100
AcDbPoint
 10
45.4375
 20
8.0
 30
0.0
  0
POINT
  5
427
330
58E
100
AcDbEntity
  8
HATCH
  6
Continuous
 62
     7
370
    30
100
AcDbPoint
 10
45.5
 20
8.0
 30
0.0
  0
POINT
  5
428
330
58E
100
AcDbEntity
  8
HATCH
  6
Continuous
 62
     7
370
    30
100
AcDbPoint
 10
45.5625
 20
8.0
 30
0.0
  0
POINT
  5
429
330
58E
100
AcDbEntity
  8
HATCH
  6
Continuous
 62
     7
370
    30
100
AcDbPoint
 10
45.625
 20
8.0
 30
0.0
  0
POINT
  5
42A
330
58E
100
AcDbEntity
  8
HATCH
  6
Continuous
 62
     7
370
    30
100
AcDbPoint
 10
45.6875
 20
8.0
 30
0.0
  0
POINT
  5
42B
330
58E
100
AcDbEntity
  8
HATCH
  6
Continuous
 62
     7
370
    30
100
AcDbPoint
 10
45.75
 20
8.0
 30
0.0
  0
POINT
  5
42C
330
58E
100
AcDbEntity
  8
HATCH
  6
Continuous
 62
     7
370
    30
100
AcDbPoint
 10
45.8125
 20
8.0
 30
0.0
  0
POINT
  5
42D
330
58E
100
AcDbEntity
  8
HATCH
  6
Continuous
 62
     7
370
    30
100
AcDbPoint
 10
45.875
 20
8.0
 30
0.0
  0
POINT
  5
42E
330
58E
100
AcDbEntity
  8
HATCH
  6
Continuous
 62
     7
370
    30
100
AcDbPoint
 10
45.9375
 20
8.0
 30
0.0
  0
POINT
  5
42F
330
58E
100
AcDbEntity
  8
HATCH
  6
Continuous
 62
     7
370
    30
100
AcDbPoint
 10
46.0
 20
8.0
 30
0.0
  0
POINT
  5
430
330
58E
100
AcDbEntity
  8
HATCH
  6
Continuous
 62
     7
370
    30
100
AcDbPoint
 10
46.0625
 20
8.0
 30
0.0
  0
POINT
  5
431
330
58E
100
AcDbEntity
  8
HATCH
  6
Continuous
 62
     7
370
    30
100
AcDbPoint
 10
46.125
 20
8.0
 30
0.0
  0
POINT
  5
432
330
58E
100
AcDbEntity
  8
HATCH
  6
Continuous
 62
     7
370
    30
100
AcDbPoint
 10
46.1875
 20
8.0
 30
0.0
  0
POINT
  5
433
330
58E
100
AcDbEntity
  8
HATCH
  6
Continuous
 62
     7
370
    30
100
AcDbPoint
 10
46.25
 20
8.0
 30
0.0
  0
POINT
  5
434
330
58E
100
AcDbEntity
  8
HATCH
  6
Continuous
 62
     7
370
    30
100
AcDbPoint
 10
46.3125
 20
8.0
 30
0.0
  0
POINT
  5
435
330
58E
100
AcDbEntity
  8
HATCH
  6
Continuous
 62
     7
370
    30
100
AcDbPoint
 10
46.375
 20
8.0
 30
0.0
  0
POINT
  5
436
330
58E
100
AcDbEntity
  8
HATCH
  6
Continuous
 62
     7
370
    30
100
AcDbPoint
 10
46.4375
 20
8.0
 30
0.0
  0
POINT
  5
437
330
58E
100
AcDbEntity
  8
HATCH
  6
Continuous
 62
     7
370
    30
100
AcDbPoint
 10
46.5
 20
8.0
 30
0.0
  0
POINT
  5
438
330
58E
100
AcDbEntity
  8
HATCH
  6
Continuous
 62
     7
370
    30
100
AcDbPoint
 10
46.5625
 20
8.0
 30
0.0
  0
POINT
  5
439
330
58E
100
AcDbEntity
  8
HATCH
  6
Continuous
 62
     7
370
    30
100
AcDbPoint
 10
46.625
 20
8.0
 30
0.0
  0
POINT
  5
43A
330
58E
100
AcDbEntity
  8
HATCH
  6
Continuous
 62
     7
370
    30
100
AcDbPoint
 10
46.6875
 20
8.0
 30
0.0
  0
POINT
  5
43B
330
58E
100
AcDbEntity
  8
HATCH
  6
Continuous
 62
     7
370
    30
100
AcDbPoint
 10
46.75
 20
8.0
 30
0.0
  0
POINT
  5
43C
330
58E
100
AcDbEntity
  8
HATCH
  6
Continuous
 62
     7
370
    30
100
AcDbPoint
 10
46.8125
 20
8.0
 30
0.0
  0
POINT
  5
43D
330
58E
100
AcDbEntity
  8
HATCH
  6
Continuous
 62
     7
370
    30
100
AcDbPoint
 10
46.875
 20
8.0
 30
0.0
  0
POINT
  5
43E
330
58E
100
AcDbEntity
  8
HATCH
  6
Continuous
 62
     7
370
    30
100
AcDbPoint
 10
46.9375
 20
8.0
 30
0.0
  0
POINT
  5
43F
330
58E
100
AcDbEntity
  8
HATCH
  6
Continuous
 62
     7
370
    30
100
AcDbPoint
 10
47.0
 20
8.0
 30
0.0
  0
POINT
  5
440
330
58E
100
AcDbEntity
  8
HATCH
  6
Continuous
 62
     7
370
    30
100
AcDbPoint
 10
47.0625
 20
8.0
 30
0.0
  0
POINT
  5
441
330
58E
100
AcDbEntity
  8
HATCH
  6
Continuous
 62
     7
370
    30
100
AcDbPoint
 10
47.125
 20
8.0
 30
0.0
  0
POINT
  5
442
330
58E
100
AcDbEntity
  8
HATCH
  6
Continuous
 62
     7
370
    30
100
AcDbPoint
 10
47.1875
 20
8.0
 30
0.0
  0
POINT
  5
443
330
58E
100
AcDbEntity
  8
HATCH
  6
Continuous
 62
     7
370
    30
100
AcDbPoint
 10
47.25
 20
8.0
 30
0.0
  0
POINT
  5
444
330
58E
100
AcDbEntity
  8
HATCH
  6
Continuous
 62
     7
370
    30
100
AcDbPoint
 10
47.3125
 20
8.0
 30
0.0
  0
POINT
  5
445
330
58E
100
AcDbEntity
  8
HATCH
  6
Continuous
 62
     7
370
    30
100
AcDbPoint
 10
47.375
 20
8.0
 30
0.0
  0
POINT
  5
446
330
58E
100
AcDbEntity
  8
HATCH
  6
Continuous
 62
     7
370
    30
100
AcDbPoint
 10
47.4375
 20
8.0
 30
0.0
  0
POINT
  5
447
330
58E
100
AcDbEntity
  8
HATCH
  6
Continuous
 62
     7
370
    30
100
AcDbPoint
 10
47.5
 20
8.0
 30
0.0
  0
POINT
  5
448
330
58E
100
AcDbEntity
  8
HATCH
  6
Continuous
 62
     7
370
    30
100
AcDbPoint
 10
47.5625
 20
8.0
 30
0.0
  0
POINT
  5
449
330
58E
100
AcDbEntity
  8
HATCH
  6
Continuous
 62
     7
370
    30
100
AcDbPoint
 10
47.625
 20
8.0
 30
0.0
  0
POINT
  5
44A
330
58E
100
AcDbEntity
  8
HATCH
  6
Continuous
 62
     7
370
    30
100
AcDbPoint
 10
47.6875
 20
8.0
 30
0.0
  0
POINT
  5
44B
330
58E
100
AcDbEntity
  8
HATCH
  6
Continuous
 62
     7
370
    30
100
AcDbPoint
 10
47.75
 20
8.0
 30
0.0
  0
POINT
  5
44C
330
58E
100
AcDbEntity
  8
HATCH
  6
Continuous
 62
     7
370
    30
100
AcDbPoint
 10
47.8125
 20
8.0
 30
0.0
  0
POINT
  5
44D
330
58E
100
AcDbEntity
  8
HATCH
  6
Continuous
 62
     7
370
    30
100
AcDbPoint
 10
47.875
 20
8.0
 30
0.0
  0
POINT
  5
44E
330
58E
100
AcDbEntity
  8
HATCH
  6
Continuous
 62
     7
370
    30
100
AcDbPoint
 10
47.9375
 20
8.0
 30
0.0
  0
POINT
  5
44F
330
58E
100
AcDbEntity
  8
HATCH
  6
Continuous
 62
     7
370
    30
100
AcDbPoint
 10
48.0
 20
8.0
 30
0.0
  0
POINT
  5
450
330
58E
100
AcDbEntity
  8
HATCH
  6
Continuous
 62
     7
370
    30
100
AcDbPoint
 10
48.0625
 20
8.0
 30
0.0
  0
POINT
  5
451
330
58E
100
AcDbEntity
  8
HATCH
  6
Continuous
 62
     7
370
    30
100
AcDbPoint
 10
48.125
 20
8.0
 30
0.0
  0
POINT
  5
452
330
58E
100
AcDbEntity
  8
HATCH
  6
Continuous
 62
     7
370
    30
100
AcDbPoint
 10
48.1875
 20
8.0
 30
0.0
  0
POINT
  5
453
330
58E
100
AcDbEntity
  8
HATCH
  6
Continuous
 62
     7
370
    30
100
AcDbPoint
 10
48.25
 20
8.0
 30
0.0
  0
POINT
  5
454
330
58E
100
AcDbEntity
  8
HATCH
  6
Continuous
 62
     7
370
    30
100
AcDbPoint
 10
48.3125
 20
8.0
 30
0.0
  0
POINT
  5
455
330
58E
100
AcDbEntity
  8
HATCH
  6
Continuous
 62
     7
370
    30
100
AcDbPoint
 10
48.375
 20
8.0
 30
0.0
  0
POINT
  5
456
330
58E
100
AcDbEntity
  8
HATCH
  6
Continuous
 62
     7
370
    30
100
AcDbPoint
 10
48.4375
 20
8.0
 30
0.0
  0
POINT
  5
457
330
58E
100
AcDbEntity
  8
HATCH
  6
Continuous
 62
     7
370
    30
100
AcDbPoint
 10
48.5
 20
8.0
 30
0.0
  0
POINT
  5
458
330
58E
100
AcDbEntity
  8
HATCH
  6
Continuous
 62
     7
370
    30
100
AcDbPoint
 10
48.5625
 20
8.0
 30
0.0
  0
POINT
  5
459
330
58E
100
AcDbEntity
  8
HATCH
  6
Continuous
 62
     7
370
    30
100
AcDbPoint
 10
48.625
 20
8.0
 30
0.0
  0
POINT
  5
45A
330
58E
100
AcDbEntity
  8
HATCH
  6
Continuous
 62
     7
370
    30
100
AcDbPoint
 10
48.6875
 20
8.0
 30
0.0
  0
POINT
  5
45B
330
58E
100
AcDbEntity
  8
HATCH
  6
Continuous
 62
     7
370
    30
100
AcDbPoint
 10
48.75
 20
8.0
 30
0.0
  0
POINT
  5
45C
330
58E
100
AcDbEntity
  8
HATCH
  6
Continuous
 62
     7
370
    30
100
AcDbPoint
 10
48.8125
 20
8.0
 30
0.0
  0
POINT
  5
45D
330
58E
100
AcDbEntity
  8
HATCH
  6
Continuous
 62
     7
370
    30
100
AcDbPoint
 10
48.875
 20
8.0
 30
0.0
  0
POINT
  5
45E
330
58E
100
AcDbEntity
  8
HATCH
  6
Continuous
 62
     7
370
    30
100
AcDbPoint
 10
48.9375
 20
8.0
 30
0.0
  0
POINT
  5
45F
330
58E
100
AcDbEntity
  8
HATCH
  6
Continuous
 62
     7
370
    30
100
AcDbPoint
 10
49.0
 20
8.0
 30
0.0
  0
POINT
  5
460
330
58E
100
AcDbEntity
  8
HATCH
  6
Continuous
 62
     7
370
    30
100
AcDbPoint
 10
49.0625
 20
8.0
 30
0.0
  0
POINT
  5
461
330
58E
100
AcDbEntity
  8
HATCH
  6
Continuous
 62
     7
370
    30
100
AcDbPoint
 10
49.125
 20
8.0
 30
0.0
  0
POINT
  5
462
330
58E
100
AcDbEntity
  8
HATCH
  6
Continuous
 62
     7
370
    30
100
AcDbPoint
 10
49.1875
 20
8.0
 30
0.0
  0
POINT
  5
463
330
58E
100
AcDbEntity
  8
HATCH
  6
Continuous
 62
     7
370
    30
100
AcDbPoint
 10
49.25
 20
8.0
 30
0.0
  0
POINT
  5
464
330
58E
100
AcDbEntity
  8
HATCH
  6
Continuous
 62
     7
370
    30
100
AcDbPoint
 10
49.3125
 20
8.0
 30
0.0
  0
POINT
  5
465
330
58E
100
AcDbEntity
  8
HATCH
  6
Continuous
 62
     7
370
    30
100
AcDbPoint
 10
49.375
 20
8.0
 30
0.0
  0
POINT
  5
466
330
58E
100
AcDbEntity
  8
HATCH
  6
Continuous
 62
     7
370
    30
100
AcDbPoint
 10
49.4375
 20
8.0
 30
0.0
  0
POINT
  5
467
330
58E
100
AcDbEntity
  8
HATCH
  6
Continuous
 62
     7
370
    30
100
AcDbPoint
 10
49.5
 20
8.0
 30
0.0
  0
POINT
  5
468
330
58E
100
AcDbEntity
  8
HATCH
  6
Continuous
 62
     7
370
    30
100
AcDbPoint
 10
49.5625
 20
8.0
 30
0.0
  0
POINT
  5
469
330
58E
100
AcDbEntity
  8
HATCH
  6
Continuous
 62
     7
370
    30
100
AcDbPoint
 10
49.625
 20
8.0
 30
0.0
  0
POINT
  5
46A
330
58E
100
AcDbEntity
  8
HATCH
  6
Continuous
 62
     7
370
    30
100
AcDbPoint
 10
49.6875
 20
8.0
 30
0.0
  0
POINT
  5
46B
330
58E
100
AcDbEntity
  8
HATCH
  6
Continuous
 62
     7
370
    30
100
AcDbPoint
 10
49.75
 20
8.0
 30
0.0
  0
POINT
  5
46C
330
58E
100
AcDbEntity
  8
HATCH
  6
Continuous
 62
     7
370
    30
100
AcDbPoint
 10
49.8125
 20
8.0
 30
0.0
  0
POINT
  5
46D
330
58E
100
AcDbEntity
  8
HATCH
  6
Continuous
 62
     7
370
    30
100
AcDbPoint
 10
49.875
 20
8.0
 30
0.0
  0
POINT
  5
46E
330
58E
100
AcDbEntity
  8
HATCH
  6
Continuous
 62
     7
370
    30
100
AcDbPoint
 10
49.9375
 20
8.0
 30
0.0
  0
POINT
  5
46F
330
58E
100
AcDbEntity
  8
HATCH
  6
Continuous
 62
     7
370
    30
100
AcDbPoint
 10
50.0
 20
8.0
 30
0.0
  0
POINT
  5
470
330
58E
100
AcDbEntity
  8
HATCH
  6
Continuous
 62
     7
370
    30
100
AcDbPoint
 10
50.0625
 20
8.0
 30
0.0
  0
POINT
  5
471
330
58E
100
AcDbEntity
  8
HATCH
  6
Continuous
 62
     7
370
    30
100
AcDbPoint
 10
50.125
 20
8.0
 30
0.0
  0
POINT
  5
472
330
58E
100
AcDbEntity
  8
HATCH
  6
Continuous
 62
     7
370
    30
100
AcDbPoint
 10
50.1875
 20
8.0
 30
0.0
  0
POINT
  5
473
330
58E
100
AcDbEntity
  8
HATCH
  6
Continuous
 62
     7
370
    30
100
AcDbPoint
 10
50.25
 20
8.0
 30
0.0
  0
POINT
  5
474
330
58E
100
AcDbEntity
  8
HATCH
  6
Continuous
 62
     7
370
    30
100
AcDbPoint
 10
50.3125
 20
8.0
 30
0.0
  0
POINT
  5
475
330
58E
100
AcDbEntity
  8
HATCH
  6
Continuous
 62
     7
370
    30
100
AcDbPoint
 10
50.375
 20
8.0
 30
0.0
  0
POINT
  5
476
330
58E
100
AcDbEntity
  8
HATCH
  6
Continuous
 62
     7
370
    30
100
AcDbPoint
 10
50.4375
 20
8.0
 30
0.0
  0
POINT
  5
477
330
58E
100
AcDbEntity
  8
HATCH
  6
Continuous
 62
     7
370
    30
100
AcDbPoint
 10
50.5
 20
8.0
 30
0.0
  0
POINT
  5
478
330
58E
100
AcDbEntity
  8
HATCH
  6
Continuous
 62
     7
370
    30
100
AcDbPoint
 10
50.5625
 20
8.0
 30
0.0
  0
POINT
  5
479
330
58E
100
AcDbEntity
  8
HATCH
  6
Continuous
 62
     7
370
    30
100
AcDbPoint
 10
50.625
 20
8.0
 30
0.0
  0
POINT
  5
47A
330
58E
100
AcDbEntity
  8
HATCH
  6
Continuous
 62
     7
370
    30
100
AcDbPoint
 10
50.6875
 20
8.0
 30
0.0
  0
POINT
  5
47B
330
58E
100
AcDbEntity
  8
HATCH
  6
Continuous
 62
     7
370
    30
100
AcDbPoint
 10
50.75
 20
8.0
 30
0.0
  0
POINT
  5
47C
330
58E
100
AcDbEntity
  8
HATCH
  6
Continuous
 62
     7
370
    30
100
AcDbPoint
 10
50.8125
 20
8.0
 30
0.0
  0
POINT
  5
47D
330
58E
100
AcDbEntity
  8
HATCH
  6
Continuous
 62
     7
370
    30
100
AcDbPoint
 10
50.875
 20
8.0
 30
0.0
  0
POINT
  5
47E
330
58E
100
AcDbEntity
  8
HATCH
  6
Continuous
 62
     7
370
    30
100
AcDbPoint
 10
50.9375
 20
8.0
 30
0.0
  0
POINT
  5
47F
330
58E
100
AcDbEntity
  8
HATCH
  6
Continuous
 62
     7
370
    30
100
AcDbPoint
 10
51.0
 20
8.0
 30
0.0
  0
POINT
  5
480
330
58E
100
AcDbEntity
  8
HATCH
  6
Continuous
 62
     7
370
    30
100
AcDbPoint
 10
51.0625
 20
8.0
 30
0.0
  0
POINT
  5
481
330
58E
100
AcDbEntity
  8
HATCH
  6
Continuous
 62
     7
370
    30
100
AcDbPoint
 10
51.125
 20
8.0
 30
0.0
  0
POINT
  5
482
330
58E
100
AcDbEntity
  8
HATCH
  6
Continuous
 62
     7
370
    30
100
AcDbPoint
 10
45.34375
 20
7.9375
 30
0.0
  0
POINT
  5
483
330
58E
100
AcDbEntity
  8
HATCH
  6
Continuous
 62
     7
370
    30
100
AcDbPoint
 10
45.40625
 20
7.9375
 30
0.0
  0
POINT
  5
484
330
58E
100
AcDbEntity
  8
HATCH
  6
Continuous
 62
     7
370
    30
100
AcDbPoint
 10
45.46875
 20
7.9375
 30
0.0
  0
POINT
  5
485
330
58E
100
AcDbEntity
  8
HATCH
  6
Continuous
 62
     7
370
    30
100
AcDbPoint
 10
45.53125
 20
7.9375
 30
0.0
  0
POINT
  5
486
330
58E
100
AcDbEntity
  8
HATCH
  6
Continuous
 62
     7
370
    30
100
AcDbPoint
 10
45.59375
 20
7.9375
 30
0.0
  0
POINT
  5
487
330
58E
100
AcDbEntity
  8
HATCH
  6
Continuous
 62
     7
370
    30
100
AcDbPoint
 10
45.65625
 20
7.9375
 30
0.0
  0
POINT
  5
488
330
58E
100
AcDbEntity
  8
HATCH
  6
Continuous
 62
     7
370
    30
100
AcDbPoint
 10
45.71875
 20
7.9375
 30
0.0
  0
POINT
  5
489
330
58E
100
AcDbEntity
  8
HATCH
  6
Continuous
 62
     7
370
    30
100
AcDbPoint
 10
45.78125
 20
7.9375
 30
0.0
  0
POINT
  5
48A
330
58E
100
AcDbEntity
  8
HATCH
  6
Continuous
 62
     7
370
    30
100
AcDbPoint
 10
45.84375
 20
7.9375
 30
0.0
  0
POINT
  5
48B
330
58E
100
AcDbEntity
  8
HATCH
  6
Continuous
 62
     7
370
    30
100
AcDbPoint
 10
45.90625
 20
7.9375
 30
0.0
  0
POINT
  5
48C
330
58E
100
AcDbEntity
  8
HATCH
  6
Continuous
 62
     7
370
    30
100
AcDbPoint
 10
45.96875
 20
7.9375
 30
0.0
  0
POINT
  5
48D
330
58E
100
AcDbEntity
  8
HATCH
  6
Continuous
 62
     7
370
    30
100
AcDbPoint
 10
46.03125
 20
7.9375
 30
0.0
  0
POINT
  5
48E
330
58E
100
AcDbEntity
  8
HATCH
  6
Continuous
 62
     7
370
    30
100
AcDbPoint
 10
46.09375
 20
7.9375
 30
0.0
  0
POINT
  5
48F
330
58E
100
AcDbEntity
  8
HATCH
  6
Continuous
 62
     7
370
    30
100
AcDbPoint
 10
46.15625
 20
7.9375
 30
0.0
  0
POINT
  5
490
330
58E
100
AcDbEntity
  8
HATCH
  6
Continuous
 62
     7
370
    30
100
AcDbPoint
 10
46.21875
 20
7.9375
 30
0.0
  0
POINT
  5
491
330
58E
100
AcDbEntity
  8
HATCH
  6
Continuous
 62
     7
370
    30
100
AcDbPoint
 10
46.28125
 20
7.9375
 30
0.0
  0
POINT
  5
492
330
58E
100
AcDbEntity
  8
HATCH
  6
Continuous
 62
     7
370
    30
100
AcDbPoint
 10
46.34375
 20
7.9375
 30
0.0
  0
POINT
  5
493
330
58E
100
AcDbEntity
  8
HATCH
  6
Continuous
 62
     7
370
    30
100
AcDbPoint
 10
46.40625
 20
7.9375
 30
0.0
  0
POINT
  5
494
330
58E
100
AcDbEntity
  8
HATCH
  6
Continuous
 62
     7
370
    30
100
AcDbPoint
 10
46.46875
 20
7.9375
 30
0.0
  0
POINT
  5
495
330
58E
100
AcDbEntity
  8
HATCH
  6
Continuous
 62
     7
370
    30
100
AcDbPoint
 10
46.53125
 20
7.9375
 30
0.0
  0
POINT
  5
496
330
58E
100
AcDbEntity
  8
HATCH
  6
Continuous
 62
     7
370
    30
100
AcDbPoint
 10
46.59375
 20
7.9375
 30
0.0
  0
POINT
  5
497
330
58E
100
AcDbEntity
  8
HATCH
  6
Continuous
 62
     7
370
    30
100
AcDbPoint
 10
46.65625
 20
7.9375
 30
0.0
  0
POINT
  5
498
330
58E
100
AcDbEntity
  8
HATCH
  6
Continuous
 62
     7
370
    30
100
AcDbPoint
 10
46.71875
 20
7.9375
 30
0.0
  0
POINT
  5
499
330
58E
100
AcDbEntity
  8
HATCH
  6
Continuous
 62
     7
370
    30
100
AcDbPoint
 10
46.78125
 20
7.9375
 30
0.0
  0
POINT
  5
49A
330
58E
100
AcDbEntity
  8
HATCH
  6
Continuous
 62
     7
370
    30
100
AcDbPoint
 10
46.84375
 20
7.9375
 30
0.0
  0
POINT
  5
49B
330
58E
100
AcDbEntity
  8
HATCH
  6
Continuous
 62
     7
370
    30
100
AcDbPoint
 10
46.90625
 20
7.9375
 30
0.0
  0
POINT
  5
49C
330
58E
100
AcDbEntity
  8
HATCH
  6
Continuous
 62
     7
370
    30
100
AcDbPoint
 10
46.96875
 20
7.9375
 30
0.0
  0
POINT
  5
49D
330
58E
100
AcDbEntity
  8
HATCH
  6
Continuous
 62
     7
370
    30
100
AcDbPoint
 10
47.03125
 20
7.9375
 30
0.0
  0
POINT
  5
49E
330
58E
100
AcDbEntity
  8
HATCH
  6
Continuous
 62
     7
370
    30
100
AcDbPoint
 10
47.09375
 20
7.9375
 30
0.0
  0
POINT
  5
49F
330
58E
100
AcDbEntity
  8
HATCH
  6
Continuous
 62
     7
370
    30
100
AcDbPoint
 10
47.15625
 20
7.9375
 30
0.0
  0
POINT
  5
4A0
330
58E
100
AcDbEntity
  8
HATCH
  6
Continuous
 62
     7
370
    30
100
AcDbPoint
 10
47.21875
 20
7.9375
 30
0.0
  0
POINT
  5
4A1
330
58E
100
AcDbEntity
  8
HATCH
  6
Continuous
 62
     7
370
    30
100
AcDbPoint
 10
47.28125
 20
7.9375
 30
0.0
  0
POINT
  5
4A2
330
58E
100
AcDbEntity
  8
HATCH
  6
Continuous
 62
     7
370
    30
100
AcDbPoint
 10
47.34375
 20
7.9375
 30
0.0
  0
POINT
  5
4A3
330
58E
100
AcDbEntity
  8
HATCH
  6
Continuous
 62
     7
370
    30
100
AcDbPoint
 10
47.40625
 20
7.9375
 30
0.0
  0
POINT
  5
4A4
330
58E
100
AcDbEntity
  8
HATCH
  6
Continuous
 62
     7
370
    30
100
AcDbPoint
 10
47.46875
 20
7.9375
 30
0.0
  0
POINT
  5
4A5
330
58E
100
AcDbEntity
  8
HATCH
  6
Continuous
 62
     7
370
    30
100
AcDbPoint
 10
47.53125
 20
7.9375
 30
0.0
  0
POINT
  5
4A6
330
58E
100
AcDbEntity
  8
HATCH
  6
Continuous
 62
     7
370
    30
100
AcDbPoint
 10
47.59375
 20
7.9375
 30
0.0
  0
POINT
  5
4A7
330
58E
100
AcDbEntity
  8
HATCH
  6
Continuous
 62
     7
370
    30
100
AcDbPoint
 10
47.65625
 20
7.9375
 30
0.0
  0
POINT
  5
4A8
330
58E
100
AcDbEntity
  8
HATCH
  6
Continuous
 62
     7
370
    30
100
AcDbPoint
 10
47.71875
 20
7.9375
 30
0.0
  0
POINT
  5
4A9
330
58E
100
AcDbEntity
  8
HATCH
  6
Continuous
 62
     7
370
    30
100
AcDbPoint
 10
47.78125
 20
7.9375
 30
0.0
  0
POINT
  5
4AA
330
58E
100
AcDbEntity
  8
HATCH
  6
Continuous
 62
     7
370
    30
100
AcDbPoint
 10
47.84375
 20
7.9375
 30
0.0
  0
POINT
  5
4AB
330
58E
100
AcDbEntity
  8
HATCH
  6
Continuous
 62
     7
370
    30
100
AcDbPoint
 10
47.90625
 20
7.9375
 30
0.0
  0
POINT
  5
4AC
330
58E
100
AcDbEntity
  8
HATCH
  6
Continuous
 62
     7
370
    30
100
AcDbPoint
 10
47.96875
 20
7.9375
 30
0.0
  0
POINT
  5
4AD
330
58E
100
AcDbEntity
  8
HATCH
  6
Continuous
 62
     7
370
    30
100
AcDbPoint
 10
48.03125
 20
7.9375
 30
0.0
  0
POINT
  5
4AE
330
58E
100
AcDbEntity
  8
HATCH
  6
Continuous
 62
     7
370
    30
100
AcDbPoint
 10
48.09375
 20
7.9375
 30
0.0
  0
POINT
  5
4AF
330
58E
100
AcDbEntity
  8
HATCH
  6
Continuous
 62
     7
370
    30
100
AcDbPoint
 10
48.15625
 20
7.9375
 30
0.0
  0
POINT
  5
4B0
330
58E
100
AcDbEntity
  8
HATCH
  6
Continuous
 62
     7
370
    30
100
AcDbPoint
 10
48.21875
 20
7.9375
 30
0.0
  0
POINT
  5
4B1
330
58E
100
AcDbEntity
  8
HATCH
  6
Continuous
 62
     7
370
    30
100
AcDbPoint
 10
48.28125
 20
7.9375
 30
0.0
  0
POINT
  5
4B2
330
58E
100
AcDbEntity
  8
HATCH
  6
Continuous
 62
     7
370
    30
100
AcDbPoint
 10
48.34375
 20
7.9375
 30
0.0
  0
POINT
  5
4B3
330
58E
100
AcDbEntity
  8
HATCH
  6
Continuous
 62
     7
370
    30
100
AcDbPoint
 10
48.40625
 20
7.9375
 30
0.0
  0
POINT
  5
4B4
330
58E
100
AcDbEntity
  8
HATCH
  6
Continuous
 62
     7
370
    30
100
AcDbPoint
 10
48.46875
 20
7.9375
 30
0.0
  0
POINT
  5
4B5
330
58E
100
AcDbEntity
  8
HATCH
  6
Continuous
 62
     7
370
    30
100
AcDbPoint
 10
48.53125
 20
7.9375
 30
0.0
  0
POINT
  5
4B6
330
58E
100
AcDbEntity
  8
HATCH
  6
Continuous
 62
     7
370
    30
100
AcDbPoint
 10
48.59375
 20
7.9375
 30
0.0
  0
POINT
  5
4B7
330
58E
100
AcDbEntity
  8
HATCH
  6
Continuous
 62
     7
370
    30
100
AcDbPoint
 10
48.65625
 20
7.9375
 30
0.0
  0
POINT
  5
4B8
330
58E
100
AcDbEntity
  8
HATCH
  6
Continuous
 62
     7
370
    30
100
AcDbPoint
 10
48.71875
 20
7.9375
 30
0.0
  0
POINT
  5
4B9
330
58E
100
AcDbEntity
  8
HATCH
  6
Continuous
 62
     7
370
    30
100
AcDbPoint
 10
48.78125
 20
7.9375
 30
0.0
  0
POINT
  5
4BA
330
58E
100
AcDbEntity
  8
HATCH
  6
Continuous
 62
     7
370
    30
100
AcDbPoint
 10
48.84375
 20
7.9375
 30
0.0
  0
POINT
  5
4BB
330
58E
100
AcDbEntity
  8
HATCH
  6
Continuous
 62
     7
370
    30
100
AcDbPoint
 10
48.90625
 20
7.9375
 30
0.0
  0
POINT
  5
4BC
330
58E
100
AcDbEntity
  8
HATCH
  6
Continuous
 62
     7
370
    30
100
AcDbPoint
 10
48.96875
 20
7.9375
 30
0.0
  0
POINT
  5
4BD
330
58E
100
AcDbEntity
  8
HATCH
  6
Continuous
 62
     7
370
    30
100
AcDbPoint
 10
49.03125
 20
7.9375
 30
0.0
  0
POINT
  5
4BE
330
58E
100
AcDbEntity
  8
HATCH
  6
Continuous
 62
     7
370
    30
100
AcDbPoint
 10
49.09375
 20
7.9375
 30
0.0
  0
POINT
  5
4BF
330
58E
100
AcDbEntity
  8
HATCH
  6
Continuous
 62
     7
370
    30
100
AcDbPoint
 10
49.15625
 20
7.9375
 30
0.0
  0
POINT
  5
4C0
330
58E
100
AcDbEntity
  8
HATCH
  6
Continuous
 62
     7
370
    30
100
AcDbPoint
 10
49.21875
 20
7.9375
 30
0.0
  0
POINT
  5
4C1
330
58E
100
AcDbEntity
  8
HATCH
  6
Continuous
 62
     7
370
    30
100
AcDbPoint
 10
49.28125
 20
7.9375
 30
0.0
  0
POINT
  5
4C2
330
58E
100
AcDbEntity
  8
HATCH
  6
Continuous
 62
     7
370
    30
100
AcDbPoint
 10
49.34375
 20
7.9375
 30
0.0
  0
POINT
  5
4C3
330
58E
100
AcDbEntity
  8
HATCH
  6
Continuous
 62
     7
370
    30
100
AcDbPoint
 10
49.40625
 20
7.9375
 30
0.0
  0
POINT
  5
4C4
330
58E
100
AcDbEntity
  8
HATCH
  6
Continuous
 62
     7
370
    30
100
AcDbPoint
 10
49.46875
 20
7.9375
 30
0.0
  0
POINT
  5
4C5
330
58E
100
AcDbEntity
  8
HATCH
  6
Continuous
 62
     7
370
    30
100
AcDbPoint
 10
49.53125
 20
7.9375
 30
0.0
  0
POINT
  5
4C6
330
58E
100
AcDbEntity
  8
HATCH
  6
Continuous
 62
     7
370
    30
100
AcDbPoint
 10
49.59375
 20
7.9375
 30
0.0
  0
POINT
  5
4C7
330
58E
100
AcDbEntity
  8
HATCH
  6
Continuous
 62
     7
370
    30
100
AcDbPoint
 10
49.65625
 20
7.9375
 30
0.0
  0
POINT
  5
4C8
330
58E
100
AcDbEntity
  8
HATCH
  6
Continuous
 62
     7
370
    30
100
AcDbPoint
 10
49.71875
 20
7.9375
 30
0.0
  0
POINT
  5
4C9
330
58E
100
AcDbEntity
  8
HATCH
  6
Continuous
 62
     7
370
    30
100
AcDbPoint
 10
49.78125
 20
7.9375
 30
0.0
  0
POINT
  5
4CA
330
58E
100
AcDbEntity
  8
HATCH
  6
Continuous
 62
     7
370
    30
100
AcDbPoint
 10
49.84375
 20
7.9375
 30
0.0
  0
POINT
  5
4CB
330
58E
100
AcDbEntity
  8
HATCH
  6
Continuous
 62
     7
370
    30
100
AcDbPoint
 10
49.90625
 20
7.9375
 30
0.0
  0
POINT
  5
4CC
330
58E
100
AcDbEntity
  8
HATCH
  6
Continuous
 62
     7
370
    30
100
AcDbPoint
 10
49.96875
 20
7.9375
 30
0.0
  0
POINT
  5
4CD
330
58E
100
AcDbEntity
  8
HATCH
  6
Continuous
 62
     7
370
    30
100
AcDbPoint
 10
50.03125
 20
7.9375
 30
0.0
  0
POINT
  5
4CE
330
58E
100
AcDbEntity
  8
HATCH
  6
Continuous
 62
     7
370
    30
100
AcDbPoint
 10
50.09375
 20
7.9375
 30
0.0
  0
POINT
  5
4CF
330
58E
100
AcDbEntity
  8
HATCH
  6
Continuous
 62
     7
370
    30
100
AcDbPoint
 10
50.15625
 20
7.9375
 30
0.0
  0
POINT
  5
4D0
330
58E
100
AcDbEntity
  8
HATCH
  6
Continuous
 62
     7
370
    30
100
AcDbPoint
 10
50.21875
 20
7.9375
 30
0.0
  0
POINT
  5
4D1
330
58E
100
AcDbEntity
  8
HATCH
  6
Continuous
 62
     7
370
    30
100
AcDbPoint
 10
50.28125
 20
7.9375
 30
0.0
  0
POINT
  5
4D2
330
58E
100
AcDbEntity
  8
HATCH
  6
Continuous
 62
     7
370
    30
100
AcDbPoint
 10
50.34375
 20
7.9375
 30
0.0
  0
POINT
  5
4D3
330
58E
100
AcDbEntity
  8
HATCH
  6
Continuous
 62
     7
370
    30
100
AcDbPoint
 10
50.40625
 20
7.9375
 30
0.0
  0
POINT
  5
4D4
330
58E
100
AcDbEntity
  8
HATCH
  6
Continuous
 62
     7
370
    30
100
AcDbPoint
 10
50.46875
 20
7.9375
 30
0.0
  0
POINT
  5
4D5
330
58E
100
AcDbEntity
  8
HATCH
  6
Continuous
 62
     7
370
    30
100
AcDbPoint
 10
50.53125
 20
7.9375
 30
0.0
  0
POINT
  5
4D6
330
58E
100
AcDbEntity
  8
HATCH
  6
Continuous
 62
     7
370
    30
100
AcDbPoint
 10
50.59375
 20
7.9375
 30
0.0
  0
POINT
  5
4D7
330
58E
100
AcDbEntity
  8
HATCH
  6
Continuous
 62
     7
370
    30
100
AcDbPoint
 10
50.65625
 20
7.9375
 30
0.0
  0
POINT
  5
4D8
330
58E
100
AcDbEntity
  8
HATCH
  6
Continuous
 62
     7
370
    30
100
AcDbPoint
 10
50.71875
 20
7.9375
 30
0.0
  0
POINT
  5
4D9
330
58E
100
AcDbEntity
  8
HATCH
  6
Continuous
 62
     7
370
    30
100
AcDbPoint
 10
50.78125
 20
7.9375
 30
0.0
  0
POINT
  5
4DA
330
58E
100
AcDbEntity
  8
HATCH
  6
Continuous
 62
     7
370
    30
100
AcDbPoint
 10
50.84375
 20
7.9375
 30
0.0
  0
POINT
  5
4DB
330
58E
100
AcDbEntity
  8
HATCH
  6
Continuous
 62
     7
370
    30
100
AcDbPoint
 10
50.90625
 20
7.9375
 30
0.0
  0
POINT
  5
4DC
330
58E
100
AcDbEntity
  8
HATCH
  6
Continuous
 62
     7
370
    30
100
AcDbPoint
 10
50.96875
 20
7.9375
 30
0.0
  0
POINT
  5
4DD
330
58E
100
AcDbEntity
  8
HATCH
  6
Continuous
 62
     7
370
    30
100
AcDbPoint
 10
51.03125
 20
7.9375
 30
0.0
  0
POINT
  5
4DE
330
58E
100
AcDbEntity
  8
HATCH
  6
Continuous
 62
     7
370
    30
100
AcDbPoint
 10
51.09375
 20
7.9375
 30
0.0
  0
POINT
  5
4DF
330
58E
100
AcDbEntity
  8
HATCH
  6
Continuous
 62
     7
370
    30
100
AcDbPoint
 10
51.15625
 20
7.9375
 30
0.0
  0
LINE
  5
4E0
330
58E
100
AcDbEntity
  8
BORDER
  6
Continuous
 62
     7
370
    30
100
AcDbLine
 10
52.25
 20
11.081542
 30
0.0
 11
52.25
 21
10.875
 31
0.0
  0
LINE
  5
4E1
330
58E
100
AcDbEntity
  8
BORDER
  6
Continuous
 62
     7
370
    30
100
AcDbLine
 10
44.25
 20
11.081542
 30
0.0
 11
44.25
 21
10.875
 31
0.0
  0
LINE
  5
4E2
330
58E
100
AcDbEntity
  8
BORDER
  6
Continuous
 62
     7
370
    30
100
AcDbLine
 10
52.456542
 20
10.875
 30
0.0
 11
52.25
 21
10.875
 31
0.0
  0
LINE
  5
4E3
330
58E
100
AcDbEntity
  8
BORDER
  6
Continuous
 62
     7
370
    30
100
AcDbLine
 10
52.456542
 20
0.125
 30
0.0
 11
52.25
 21
0.125
 31
0.0
  0
LINE
  5
4E4
330
58E
100
AcDbEntity
  8
BORDER
  6
Continuous
 62
     7
370
    30
100
AcDbLine
 10
44.25
 20
10.875
 30
0.0
 11
44.043458
 21
10.875
 31
0.0
  0
LINE
  5
4E5
330
58E
100
AcDbEntity
  8
BORDER
  6
Continuous
 62
     7
370
    30
100
AcDbLine
 10
52.25
 20
0.125
 30
0.0
 11
52.25
 21
-0.081542
 31
0.0
  0
LINE
  5
4E6
330
58E
100
AcDbEntity
  8
BORDER
  6
Continuous
 62
     7
370
    30
100
AcDbLine
 10
44.25
 20
0.125
 30
0.0
 11
44.25
 21
-0.081542
 31
0.0
  0
LINE
  5
4E7
330
58E
100
AcDbEntity
  8
BORDER
  6
Continuous
 62
     7
370
    30
100
AcDbLine
 10
44.25
 20
0.125
 30
0.0
 11
44.043458
 21
0.125
 31
0.0
  0
LINE
  5
4E9
330
58E
100
AcDbEntity
  8
DIM
  6
Continuous
 62
     7
370
    30
100
AcDbLine
 10
47.190039
 20
9.298333
 30
0.0
 11
49.3603
 21
9.298333
 31
0.0
  0
INSERT
  5
4EA
330
58E
100
AcDbEntity
  8
DIM
  6
Continuous
 62
     7
370
    13
100
AcDbBlockReference
  2
LARROW
 10
46.563021
 20
8.212042
 30
0.0
 41
12.000001
 42
12.000001
 43
12.000001
 50
291.351368
  0
INSERT
  5
4EC
330
58E
100
AcDbEntity
  8
DIM
  6
Continuous
 62
     7
370
    13
100
AcDbBlockReference
  2
LARROW
 10
48.304146
 20
8.38176
 30
0.0
 41
11.999998
 42
11.999998
 43
11.999998
 50
285.703793
  0
INSERT
  5
4EE
330
58E
100
AcDbEntity
  8
DIM
  6
Continuous
 62
     7
370
    13
100
AcDbBlockReference
  2
LARROW
 10
50.016531
 20
8.222854
 30
0.0
 41
12.0
 42
12.0
 43
12.0
 50
283.374087
  0
INSERT
  5
4F0
330
58E
100
AcDbEntity
  8
DIM
  6
Continuous
 62
     7
370
    13
100
AcDbBlockReference
  2
LARROW
 10
50.45526
 20
8.383229
 30
0.0
 41
12.0
 42
12.0
 43
12.0
 50
248.506568
  0
INSERT
  5
4F2
330
58E
100
AcDbEntity
  8
DIM
  6
Continuous
 62
     7
370
    13
100
AcDbBlockReference
  2
LARROW
 10
47.397531
 20
7.210615
 30
0.0
 41
11.999997
 42
11.999997
 43
11.999997
 50
38.92805
  0
INSERT
  5
4F4
330
58E
100
AcDbEntity
  8
LEGEND
  6
Continuous
 62
     7
370
    13
100
AcDbBlockReference
  2
LARROW_1
 10
49.088417
 20
7.581594
 30
0.0
 41
12.0
 42
12.0
 43
12.0
 50
180.0
  0
INSERT
  5
4FF
330
58E
100
AcDbEntity
  8
LEGEND
  6
Continuous
 62
     7
370
    13
100
AcDbBlockReference
  2
LARROW_1
 10
49.788417
 20
7.581594
 30
0.0
 41
12.0
 42
12.0
 43
12.0
  0
INSERT
  5
50A
330
58E
100
AcDbEntity
  8
LEGEND
  6
Continuous
 62
     7
370
    13
100
AcDbBlockReference
  2
LARROW_1
 10
49.788417
 20
7.581594
 30
0.0
 41
12.0
 42
12.0
 43
12.0
  0
INSERT
  5
515
330
58E
100
AcDbEntity
  8
LEGEND
  6
Continuous
 62
     7
370
    13
100
AcDbBlockReference
  2
LARROW_1
 10
46.688417
 20
7.581594
 30
0.0
 41
12.0
 42
12.0
 43
12.0
 50
180.0
  0
INSERT
  5
520
330
58E
100
AcDbEntity
  8
LEGEND
  6
Continuous
 62
     7
370
    13
100
AcDbBlockReference
  2
LARROW_1
 10
47.388417
 20
7.581594
 30
0.0
 41
12.0
 42
12.0
 43
12.0
  0
TEXT
  5
5C
330
58E
100
AcDbEntity
  8
NOTES
  6
Continuous
 62
     7
370
    30
100
AcDbText
 10
44.89239
 20
4.398219
 30
0.0
 40
0.140396
  1
REPAIR METHOD:  REMOVE PAVEMENT FROM EDGES OF THE
 41
0.925953
  7
Style-Arial
 72
     1
 11
47.632794
 21
4.398219
 31
0.0
100
AcDbText
  0
TEXT
  5
5D
330
58E
100
AcDbEntity
  8
TEXT
  6
Continuous
 62
     7
370
    30
100
AcDbText
 10
46.556466
 20
1.99675
 30
0.0
 40
0.140396
  1
RIGID PAVEMENT FOR ROADS,
 41
0.925953
  7
Style-Arial
 72
     1
 11
47.915967
 21
1.99675
 31
0.0
100
AcDbText
  0
TEXT
  5
5E
330
58E
100
AcDbEntity
  8
TEXT
  6
Continuous
 62
     7
370
    30
100
AcDbText
 10
45.346372
 20
2.202708
 30
0.0
 40
0.140396
  1
REFERENCE: TM 5-822-6/AFM 88-7, CHAPTER 1,
 41
0.925953
  7
Style-Arial
 72
     1
 11
47.427413
 21
2.202708
 31
0.0
100
AcDbText
  0
TEXT
  5
5F
330
58E
100
AcDbEntity
  8
TEXT
  6
Continuous
 62
     7
370
    30
100
AcDbText
 10
46.563372
 20
1.792437
 30
0.0
 40
0.140396
  1
STREETS, WALKS AND OPEN
 41
0.925953
  7
Style-Arial
 72
     1
 11
47.842911
 21
1.792437
 31
0.0
100
AcDbText
  0
TEXT
  5
60
330
58E
100
AcDbEntity
  8
TEXT
  6
Continuous
 62
     7
370
    30
100
AcDbText
 10
46.563402
 20
1.60625
 30
0.0
 40
0.140396
  1
STORAGE AREAS
 41
0.925953
  7
Style-Arial
 72
     1
 11
47.33597
 21
1.60625
 31
0.0
100
AcDbText
  0
TEXT
  5
61
330
58E
100
AcDbEntity
  8
BORDER
  6
Continuous
 62
     7
370
    30
100
AcDbText
 10
51.062765
 20
1.32024
 30
0.0
 40
0.140396
  1
FIGURE
 41
0.925953
  7
Style-Arial
 72
     1
 11
51.401043
 21
1.32024
 31
0.0
100
AcDbText
  0
TEXT
  5
62
330
58E
100
AcDbEntity
  8
BORDER
  6
Continuous
 62
     7
370
    30
100
AcDbText
 10
51.11447
 20
1.153573
 30
0.0
 40
0.140396
  1
2-33g
 41
0.925953
  7
Style-Arial
 72
     1
 11
51.340583
 21
1.153573
 31
0.0
100
AcDbText
  0
TEXT
  5
63
330
58E
100
AcDbEntity
  8
BORDER
  6
Continuous
 62
     7
370
    30
100
AcDbText
 10
50.023951
 20
1.32024
 30
0.0
 40
0.140396
  1
DATE
 41
0.925953
  7
Style-Arial
 72
     1
 11
50.26136
 21
1.32024
 31
0.0
100
AcDbText
  0
TEXT
  5
64
330
58E
100
AcDbEntity
  8
BORDER
  6
Continuous
 62
     7
370
    30
100
AcDbText
 10
49.869581
 20
1.153573
 30
0.0
 40
0.140396
  1
AUG 1992
 41
0.925953
  7
Style-Arial
 72
     1
 11
50.288762
 21
1.153573
 31
0.0
100
AcDbText
  0
TEXT
  5
6C
330
58E
100
AcDbEntity
  8
NOTES
  6
Continuous
 62
     7
370
    30
100
AcDbText
 10
46.562571
 20
4.195188
 30
0.0
 40
0.140396
  1
CUT 6-12 INCHES, BACKFILL THE CUT WITH
 41
0.925953
  7
Style-Arial
 72
     1
 11
48.472689
 21
4.195188
 31
0.0
100
AcDbText
  0
TEXT
  5
6D
330
58E
100
AcDbEntity
  8
NOTES
  6
Continuous
 62
     7
370
    30
100
AcDbText
 10
46.569737
 20
3.993854
 30
0.0
 40
0.140396
  1
WELL-COMPACTED LAYER MEETING SPECIFIED
 41
0.925953
  7
Style-Arial
 72
     1
 11
48.68947
 21
3.993854
 31
0.0
100
AcDbText
  0
TEXT
  5
6E
330
58E
100
AcDbEntity
  8
NOTES
  6
Continuous
 62
     7
370
    30
100
AcDbText
 10
46.557637
 20
3.792865
 30
0.0
 40
0.140396
  1
DENSITY, TO THE BOTTOM OF PAVEMENT 
 41
0.925953
  7
Style-Arial
 72
     1
 11
48.422919
 21
3.792865
 31
0.0
100
AcDbText
  0
TEXT
  5
6F
330
58E
100
AcDbEntity
  8
NOTES
  6
Continuous
 62
     7
370
    30
100
AcDbText
 10
46.563211
 20
3.601271
 30
0.0
 40
0.140396
  1
STRUCTURE, PLACE A CONCRETE SLAB OF 
 41
0.925953
  7
Style-Arial
 72
     1
 11
48.497011
 21
3.601271
 31
0.0
100
AcDbText
  0
TEXT
  5
70
330
58E
100
AcDbEntity
  8
NOTES
  6
Continuous
 62
     7
370
    30
100
AcDbText
 10
46.557611
 20
3.390208
 30
0.0
 40
0.140396
  1
REQUIRED THICKNESS; INSTALL TIE BARS AS
 41
0.925953
  7
Style-Arial
 72
     1
 11
48.581727
 21
3.390208
 31
0.0
100
AcDbText
  0
TEXT
  5
71
330
58E
100
AcDbEntity
  8
NOTES
  6
Continuous
 62
     7
370
    30
100
AcDbText
 10
46.557589
 20
3.189208
 30
0.0
 40
0.140396
  1
REQUIRED BY DRILLING & EPOXYING INTO
 41
0.925953
  7
Style-Arial
 72
     1
 11
48.451061
 21
3.189208
 31
0.0
100
AcDbText
  0
TEXT
  5
72
330
58E
100
AcDbEntity
  8
NOTES
  6
Continuous
 62
     7
370
    30
100
AcDbText
 10
46.557509
 20
2.997958
 30
0.0
 40
0.140396
  1
EXISTING PCC.
 41
0.925953
  7
Style-Arial
 72
     1
 11
47.215733
 21
2.997958
 31
0.0
100
AcDbText
  0
TEXT
  5
80
330
58E
100
AcDbEntity
  8
TITLE
  6
Continuous
 62
     7
370
    30
100
AcDbText
 10
48.030837
 20
5.953896
 30
0.0
 40
0.140396
  1
PIPE
 41
0.925953
  7
Style-Arial
 72
     1
 11
48.232971
 21
5.953896
 31
0.0
100
AcDbText
  0
TEXT
  5
81
330
58E
100
AcDbEntity
  8
TITLE
  6
Continuous
 62
     7
370
    30
100
AcDbText
 10
47.867435
 20
6.819176
 30
0.0
 40
0.140396
  1
BACKFILL
 41
0.925953
  7
Style-Arial
 72
     1
 11
48.293255
 21
6.819176
 31
0.0
100
AcDbText
  0
TEXT
  5
82
330
58E
100
AcDbEntity
  8
TITLE
  6
Continuous
 62
     7
370
    30
100
AcDbText
 10
47.054586
 20
8.859667
 30
0.0
 40
0.140396
  1
NEW PCC
 41
0.925953
  7
Style-Arial
 72
     1
 11
47.47986
 21
8.859667
 31
0.0
100
AcDbText
  0
TEXT
  5
83
330
58E
100
AcDbEntity
  8
TITLE
  6
Continuous
 62
     7
370
    30
100
AcDbText
 10
50.895129
 20
8.818885
 30
0.0
 40
0.140396
  1
EXISTING 
 41
0.925953
  7
Style-Arial
 72
     1
 11
51.313368
 21
8.818885
 31
0.0
100
AcDbText
  0
TEXT
  5
84
330
58E
100
AcDbEntity
  8
TITLE
  6
Continuous
 62
     7
370
    30
100
AcDbText
 10
51.129539
 20
8.605135
 30
0.0
 40
0.140396
  1
PCC
 41
0.925953
  7
Style-Arial
 72
     1
 11
51.317702
 21
8.605135
 31
0.0
100
AcDbText
  0
TEXT
  5
85
330
58E
100
AcDbEntity
  8
TITLE
  6
Continuous
 62
     7
370
    30
100
AcDbText
 10
48.926553
 20
8.726292
 30
0.0
 40
0.140396
  1
TIE BAR
 41
0.925953
  7
Style-Arial
 72
     1
 11
49.278604
 21
8.726292
 31
0.0
100
AcDbText
  0
TEXT
  5
86
330
58E
100
AcDbEntity
  8
TITLE
  6
Continuous
 62
     7
370
    30
100
AcDbText
 10
45.393156
 20
8.657469
 30
0.0
 40
0.140396
  1
TIE BAR
 41
0.925953
  7
Style-Arial
 72
     1
 11
45.745206
 21
8.657469
 31
0.0
100
AcDbText
  0
TEXT
  5
87
330
58E
100
AcDbEntity
  8
TITLE
  6
Continuous
 62
     7
370
    30
100
AcDbText
 10
45.668486
 20
6.77376
 30
0.0
 40
0.140396
  1
UTILITY CUT
 41
0.925953
  7
Style-Arial
 72
     1
 11
46.216626
 21
6.77376
 31
0.0
100
AcDbText
  0
TEXT
  5
88
330
58E
100
AcDbEntity
  8
DIM
  6
Continuous
 62
     7
370
    30
100
AcDbText
 10
49.233774
 20
7.653
 30
0.0
 40
0.140396
  1
6-1/2"
 41
0.925953
  7
Style-Arial
 72
     1
 11
49.468656
 21
7.653
 31
0.0
100
AcDbText
  0
TEXT
  5
89
330
58E
100
AcDbEntity
  8
DIM
  6
Continuous
 62
     7
370
    30
100
AcDbText
 10
46.829995
 20
7.658958
 30
0.0
 40
0.140396
  1
6-1/2"
 41
0.925953
  7
Style-Arial
 72
     1
 11
47.064877
 21
7.658958
 31
0.0
100
AcDbText
  0
TEXT
  5
1D4
330
58E
100
AcDbEntity
  8
Level 10
  6
Continuous
 62
     7
370
    30
100
AcDbText
 10
44.86907
 20
1.158354
 30
0.0
 40
0.140396
  1
REPAIR OF CONCRETE PAVEMENTS (UTILITY CUT)
 41
0.925953
  7
Style-Arial
 72
     1
 11
47.111372
 21
1.158354
 31
0.0
100
AcDbText
  0
TEXT
  5
4E8
330
58E
100
AcDbEntity
  8
TITLE
  6
Continuous
 62
     7
370
    30
100
AcDbText
 10
47.204983
 20
9.359031
 30
0.0
 40
0.140396
  1
REPAIR TO UTILITY CUT
 41
0.925953
  7
Style-Arial
 72
     1
 11
48.267871
 21
9.359031
 31
0.0
100
AcDbText
  0
ENDSEC
  0
SECTION
  2
OBJECTS
  0
DICTIONARY
  5
582
330
0
100
AcDbDictionary
281
     1
  3
ACAD_COLOR
350
5A1
  3
ACAD_GROUP
350
59E
  3
ACAD_LAYOUT
350
592
  3
ACAD_MATERIAL
350
5A0
  3
ACAD_MLINESTYLE
350
58C
  3
ACAD_PLOTSETTINGS
350
59F
  3
ACAD_PLOTSTYLENAME
350
581
  3
ACAD_TABLESTYLE
350
5BB
  3
AcadDim
350
5AE
  3
MicroStation
350
5A6
  0
DICTIONARY
  5
57E
330
57D
100
AcDbDictionary
280
     1
281
     1
  3
ACAD_LAYERFILTERS
360
5A5
  3
ACAD_LAYERSTATES
360
57F
  0
DICTIONARY
  5
5B7
330
58E
100
AcDbDictionary
280
     1
281
     1
  3
ACAD_SORTENTS
360
5B8
  0
DICTIONARY
  5
5A1
102
{ACAD_REACTORS
330
582
102
}
330
582
100
AcDbDictionary
281
     1
  0
DICTIONARY
  5
59E
102
{ACAD_REACTORS
330
582
102
}
330
582
100
AcDbDictionary
281
     1
  0
DICTIONARY
  5
592
102
{ACAD_REACTORS
330
582
102
}
330
582
100
AcDbDictionary
281
     1
  3
Layout1
350
596
  3
Model
350
591
  0
DICTIONARY
  5
5A0
102
{ACAD_REACTORS
330
582
102
}
330
582
100
AcDbDictionary
281
     1
  0
DICTIONARY
  5
58C
102
{ACAD_REACTORS
330
582
102
}
330
582
100
AcDbDictionary
281
     1
  3
Standard
350
58B
  0
DICTIONARY
  5
59F
102
{ACAD_REACTORS
330
582
102
}
330
582
100
AcDbDictionary
281
     1
  0
ACDBDICTIONARYWDFLT
  5
581
102
{ACAD_REACTORS
330
582
102
}
330
582
100
AcDbDictionary
281
     1
  3
Normal
350
580
100
AcDbDictionaryWithDefault
340
580
  0
DICTIONARY
  5
5BB
102
{ACAD_REACTORS
330
582
102
}
330
582
100
AcDbDictionary
281
     1
  0
XRECORD
  5
5AE
102
{ACAD_REACTORS
330
582
102
}
330
582
100
AcDbXrecord
280
     1
 90
   990106
  3
 
 60
     0
 61
     0
 62
     1
 63
     1
 64
     0
 65
     0
 66
     0
 67
     3
 68
     1
 69
     1
 70
     0
 71
     0
 72
     0
 40
0.0
170
     0
  0
DICTIONARY
  5
5A6
102
{ACAD_REACTORS
330
582
102
}
330
582
100
AcDbDictionary
281
     1
  3
ApplicationElement 1397
350
575
  3
ApplicationElement 1402
350
57A
  3
ModelApplicationElement 0 1396
350
574
  0
DICTIONARY
  5
5A5
102
{ACAD_REACTORS
330
57E
102
}
330
57E
100
AcDbDictionary
281
     1
  0
DICTIONARY
  5
57F
102
{ACAD_REACTORS
330
57E
102
}
330
57E
100
AcDbDictionary
281
     1
  0
SORTENTSTABLE
  5
5B8
102
{ACAD_REACTORS
330
5B7
102
}
330
5B7
100
AcDbSortentsTable
330
58E
331
5C
  5
4D8
331
5D
  5
4D9
331
5E
  5
4DA
331
5F
  5
4DB
331
60
  5
4DC
331
61
  5
4DD
331
62
  5
4DE
331
63
  5
4DF
331
64
  5
4E0
331
65
  5
5C
331
66
  5
5D
331
67
  5
5E
331
68
  5
5F
331
69
  5
60
331
6A
  5
61
331
6B
  5
62
331
6C
  5
4E1
331
6D
  5
4E2
331
6E
  5
4E3
331
6F
  5
4E4
331
70
  5
4E5
331
71
  5
4E6
331
72
  5
4E7
331
73
  5
63
331
74
  5
64
331
75
  5
65
331
76
  5
66
331
77
  5
67
331
78
  5
68
331
79
  5
69
331
7A
  5
6A
331
7B
  5
6B
331
7C
  5
6C
331
7D
  5
6D
331
7E
  5
6E
331
7F
  5
6F
331
80
  5
4E8
331
81
  5
4E9
331
82
  5
4EA
331
83
  5
4EC
331
84
  5
4EE
331
85
  5
4F0
331
86
  5
4F2
331
87
  5
4F4
331
88
  5
4FF
331
89
  5
50A
331
8A
  5
70
331
8B
  5
71
331
8C
  5
72
331
8D
  5
73
331
8E
  5
74
331
8F
  5
75
331
90
  5
76
331
91
  5
77
331
92
  5
78
331
93
  5
79
331
94
  5
7A
331
95
  5
7B
331
96
  5
7C
331
97
  5
7D
331
98
  5
7E
331
99
  5
7F
331
9A
  5
80
331
9B
  5
81
331
9C
  5
82
331
9D
  5
83
331
9E
  5
84
331
9F
  5
85
331
A0
  5
86
331
A1
  5
87
331
A2
  5
88
331
A3
  5
89
331
A4
  5
8A
331
A5
  5
8B
331
A6
  5
8C
331
A7
  5
8D
331
A8
  5
8E
331
A9
  5
8F
331
AA
  5
90
331
AB
  5
91
331
AC
  5
92
331
AD
  5
93
331
AE
  5
94
331
AF
  5
95
331
B0
  5
96
331
B1
  5
97
331
B2
  5
98
331
B3
  5
99
331
B4
  5
9A
331
B5
  5
9B
331
B6
  5
9C
331
B7
  5
9D
331
B8
  5
9E
331
B9
  5
9F
331
BA
  5
A0
331
BB
  5
A1
331
BC
  5
A2
331
BD
  5
A3
331
BE
  5
A4
331
BF
  5
A5
331
C0
  5
A6
331
C1
  5
A7
331
C2
  5
A8
331
C3
  5
A9
331
C4
  5
AA
331
C5
  5
AB
331
C6
  5
AC
331
C7
  5
AD
331
C8
  5
AE
331
C9
  5
AF
331
CA
  5
B0
331
CB
  5
B1
331
CC
  5
B2
331
CD
  5
B3
331
CE
  5
B4
331
CF
  5
B5
331
D0
  5
B6
331
D1
  5
B7
331
D2
  5
B8
331
D3
  5
B9
331
D4
  5
BA
331
D5
  5
BB
331
D6
  5
BC
331
D7
  5
BD
331
D8
  5
BE
331
D9
  5
BF
331
DA
  5
C0
331
DB
  5
C1
331
DC
  5
C2
331
DD
  5
C3
331
DE
  5
C4
331
DF
  5
C5
331
E0
  5
C6
331
E1
  5
C7
331
E2
  5
C8
331
E3
  5
C9
331
E4
  5
CA
331
E5
  5
CB
331
E6
  5
CC
331
E7
  5
CD
331
E8
  5
CE
331
E9
  5
CF
331
EA
  5
D0
331
EB
  5
D1
331
EC
  5
D2
331
ED
  5
D3
331
EE
  5
D4
331
EF
  5
D5
331
F0
  5
D6
331
F1
  5
D7
331
F2
  5
D8
331
F3
  5
D9
331
F4
  5
DA
331
F5
  5
DB
331
F6
  5
DC
331
F7
  5
DD
331
F8
  5
DE
331
F9
  5
DF
331
FA
  5
E0
331
FB
  5
E1
331
FC
  5
E2
331
FD
  5
E3
331
FE
  5
E4
331
FF
  5
E5
331
100
  5
E6
331
101
  5
E7
331
102
  5
E8
331
103
  5
E9
331
104
  5
EA
331
105
  5
EB
331
106
  5
EC
331
107
  5
ED
331
108
  5
EE
331
109
  5
EF
331
10A
  5
F0
331
10B
  5
F1
331
10C
  5
F2
331
10D
  5
F3
331
10E
  5
F4
331
10F
  5
F5
331
110
  5
F6
331
111
  5
F7
331
112
  5
F8
331
113
  5
F9
331
114
  5
FA
331
115
  5
FB
331
116
  5
FC
331
117
  5
FD
331
118
  5
FE
331
119
  5
FF
331
11A
  5
100
331
11B
  5
101
331
11C
  5
102
331
11D
  5
103
331
11E
  5
104
331
11F
  5
105
331
120
  5
106
331
121
  5
107
331
122
  5
108
331
123
  5
109
331
124
  5
10A
331
125
  5
10B
331
126
  5
10C
331
127
  5
10D
331
128
  5
10E
331
129
  5
10F
331
12A
  5
110
331
12B
  5
111
331
12C
  5
112
331
12D
  5
113
331
12E
  5
114
331
12F
  5
115
331
130
  5
116
331
131
  5
117
331
132
  5
118
331
133
  5
119
331
134
  5
11A
331
135
  5
11B
331
136
  5
11C
331
137
  5
11D
331
138
  5
11E
331
139
  5
11F
331
13A
  5
120
331
13B
  5
121
331
13C
  5
122
331
13D
  5
123
331
13E
  5
124
331
13F
  5
125
331
140
  5
126
331
141
  5
127
331
142
  5
128
331
143
  5
129
331
144
  5
12A
331
145
  5
12B
331
146
  5
12C
331
147
  5
12D
331
148
  5
12E
331
149
  5
12F
331
14A
  5
130
331
14B
  5
131
331
14C
  5
132
331
14D
  5
133
331
14E
  5
134
331
14F
  5
135
331
150
  5
136
331
151
  5
137
331
152
  5
138
331
153
  5
139
331
154
  5
13A
331
155
  5
13B
331
156
  5
13C
331
157
  5
13D
331
158
  5
13E
331
159
  5
13F
331
15A
  5
140
331
15B
  5
141
331
15C
  5
142
331
15D
  5
143
331
15E
  5
144
331
15F
  5
145
331
160
  5
146
331
161
  5
147
331
162
  5
148
331
163
  5
149
331
164
  5
14A
331
165
  5
14B
331
166
  5
14C
331
167
  5
14D
331
168
  5
14E
331
169
  5
14F
331
16A
  5
150
331
16B
  5
151
331
16C
  5
152
331
16D
  5
153
331
16E
  5
154
331
16F
  5
155
331
170
  5
156
331
171
  5
157
331
172
  5
158
331
173
  5
159
331
174
  5
15A
331
175
  5
15B
331
176
  5
15C
331
177
  5
15D
331
178
  5
15E
331
179
  5
15F
331
17A
  5
160
331
17B
  5
161
331
17C
  5
162
331
17D
  5
163
331
17E
  5
164
331
17F
  5
165
331
180
  5
166
331
181
  5
167
331
182
  5
168
331
183
  5
169
331
184
  5
16A
331
185
  5
16B
331
186
  5
16C
331
187
  5
16D
331
188
  5
16E
331
189
  5
16F
331
18A
  5
170
331
18B
  5
171
331
18C
  5
172
331
18D
  5
173
331
18E
  5
174
331
18F
  5
175
331
190
  5
176
331
191
  5
177
331
192
  5
178
331
193
  5
179
331
194
  5
17A
331
195
  5
17B
331
196
  5
17C
331
197
  5
17D
331
198
  5
17E
331
199
  5
17F
331
19A
  5
180
331
19B
  5
181
331
19C
  5
182
331
19D
  5
183
331
19E
  5
184
331
19F
  5
185
331
1A0
  5
186
331
1A1
  5
187
331
1A2
  5
188
331
1A3
  5
189
331
1A4
  5
18A
331
1A5
  5
18B
331
1A6
  5
18C
331
1A7
  5
18D
331
1A8
  5
18E
331
1A9
  5
18F
331
1AA
  5
190
331
1AB
  5
191
331
1AC
  5
192
331
1AD
  5
193
331
1AE
  5
194
331
1AF
  5
195
331
1B0
  5
196
331
1B1
  5
197
331
1B2
  5
198
331
1B3
  5
199
331
1B4
  5
19A
331
1B5
  5
19B
331
1B6
  5
19C
331
1B7
  5
19D
331
1B8
  5
19E
331
1B9
  5
19F
331
1BA
  5
1A0
331
1BB
  5
1A1
331
1BC
  5
1A2
331
1BD
  5
1A3
331
1BE
  5
1A4
331
1BF
  5
1A5
331
1C0
  5
1A6
331
1C1
  5
1A7
331
1C2
  5
1A8
331
1C3
  5
1A9
331
1C4
  5
1AA
331
1C5
  5
1AB
331
1C6
  5
1AC
331
1C7
  5
1AD
331
1C8
  5
1AE
331
1C9
  5
1AF
331
1CA
  5
1B0
331
1CB
  5
1B1
331
1CC
  5
1B2
331
1CD
  5
1B3
331
1CE
  5
1B4
331
1CF
  5
1B5
331
1D0
  5
1B6
331
1D1
  5
1B7
331
1D2
  5
1B8
331
1D3
  5
1B9
331
1D4
  5
515
331
1D5
  5
1BA
331
1D6
  5
1BB
331
1D7
  5
1BC
331
1D8
  5
1BD
331
1D9
  5
1BE
331
1DA
  5
1BF
331
1DB
  5
1C0
331
1DC
  5
1C1
331
1DD
  5
1C2
331
1DE
  5
1C3
331
1DF
  5
1C4
331
1E0
  5
1C5
331
1E1
  5
1C6
331
1E2
  5
1C7
331
1E3
  5
1C8
331
1E4
  5
1C9
331
1E5
  5
1CA
331
1E6
  5
1CB
331
1E7
  5
1CC
331
1E8
  5
1CD
331
1E9
  5
1CE
331
1EA
  5
1CF
331
1EB
  5
1D0
331
1EC
  5
1D1
331
1ED
  5
1D2
331
1EE
  5
1D3
331
1EF
  5
1D4
331
1F0
  5
1D5
331
1F1
  5
1D6
331
1F2
  5
1D7
331
1F3
  5
1D8
331
1F4
  5
1D9
331
1F5
  5
1DA
331
1F6
  5
1DB
331
1F7
  5
1DC
331
1F8
  5
1DD
331
1F9
  5
1DE
331
1FA
  5
1DF
331
1FB
  5
1E0
331
1FC
  5
1E1
331
1FD
  5
1E2
331
1FE
  5
1E3
331
1FF
  5
1E4
331
200
  5
1E5
331
201
  5
1E6
331
202
  5
1E7
331
203
  5
1E8
331
204
  5
1E9
331
205
  5
1EA
331
206
  5
1EB
331
207
  5
1EC
331
208
  5
1ED
331
209
  5
1EE
331
20A
  5
1EF
331
20B
  5
1F0
331
20C
  5
1F1
331
20D
  5
1F2
331
20E
  5
1F3
331
20F
  5
1F4
331
210
  5
1F5
331
211
  5
1F6
331
212
  5
1F7
331
213
  5
1F8
331
214
  5
1F9
331
215
  5
1FA
331
216
  5
1FB
331
217
  5
1FC
331
218
  5
1FD
331
219
  5
1FE
331
21A
  5
1FF
331
21B
  5
200
331
21C
  5
201
331
21D
  5
202
331
21E
  5
203
331
21F
  5
204
331
220
  5
205
331
221
  5
206
331
222
  5
207
331
223
  5
208
331
224
  5
209
331
225
  5
20A
331
226
  5
20B
331
227
  5
20C
331
228
  5
20D
331
229
  5
20E
331
22A
  5
20F
331
22B
  5
210
331
22C
  5
211
331
22D
  5
212
331
22E
  5
213
331
22F
  5
214
331
230
  5
215
331
231
  5
216
331
232
  5
217
331
233
  5
218
331
234
  5
219
331
235
  5
21A
331
236
  5
21B
331
237
  5
21C
331
238
  5
21D
331
239
  5
21E
331
23A
  5
21F
331
23B
  5
220
331
23C
  5
221
331
23D
  5
222
331
23E
  5
223
331
23F
  5
224
331
240
  5
225
331
241
  5
226
331
242
  5
227
331
243
  5
228
331
244
  5
229
331
245
  5
22A
331
246
  5
22B
331
247
  5
22C
331
248
  5
22D
331
249
  5
22E
331
24A
  5
22F
331
24B
  5
230
331
24C
  5
231
331
24D
  5
232
331
24E
  5
233
331
24F
  5
234
331
250
  5
235
331
251
  5
236
331
252
  5
237
331
253
  5
238
331
254
  5
239
331
255
  5
23A
331
256
  5
23B
331
257
  5
23C
331
258
  5
23D
331
259
  5
23E
331
25A
  5
23F
331
25B
  5
240
331
25C
  5
241
331
25D
  5
242
331
25E
  5
243
331
25F
  5
244
331
260
  5
245
331
261
  5
246
331
262
  5
247
331
263
  5
248
331
264
  5
249
331
265
  5
24A
331
266
  5
24B
331
267
  5
24C
331
268
  5
24D
331
269
  5
24E
331
26A
  5
24F
331
26B
  5
250
331
26C
  5
251
331
26D
  5
252
331
26E
  5
253
331
26F
  5
254
331
270
  5
255
331
271
  5
256
331
272
  5
257
331
273
  5
258
331
274
  5
259
331
275
  5
25A
331
276
  5
25B
331
277
  5
25C
331
278
  5
25D
331
279
  5
25E
331
27A
  5
25F
331
27B
  5
260
331
27C
  5
261
331
27D
  5
262
331
27E
  5
263
331
27F
  5
264
331
280
  5
265
331
281
  5
266
331
282
  5
267
331
283
  5
268
331
284
  5
269
331
285
  5
26A
331
286
  5
26B
331
287
  5
26C
331
288
  5
26D
331
289
  5
26E
331
28A
  5
26F
331
28B
  5
270
331
28C
  5
271
331
28D
  5
272
331
28E
  5
273
331
28F
  5
274
331
290
  5
275
331
291
  5
276
331
292
  5
277
331
293
  5
278
331
294
  5
279
331
295
  5
27A
331
296
  5
27B
331
297
  5
27C
331
298
  5
27D
331
299
  5
27E
331
29A
  5
27F
331
29B
  5
280
331
29C
  5
281
331
29D
  5
282
331
29E
  5
283
331
29F
  5
284
331
2A0
  5
285
331
2A1
  5
286
331
2A2
  5
287
331
2A3
  5
288
331
2A4
  5
289
331
2A5
  5
28A
331
2A6
  5
28B
331
2A7
  5
28C
331
2A8
  5
28D
331
2A9
  5
28E
331
2AA
  5
28F
331
2AB
  5
290
331
2AC
  5
291
331
2AD
  5
292
331
2AE
  5
293
331
2AF
  5
294
331
2B0
  5
295
331
2B1
  5
296
331
2B2
  5
297
331
2B3
  5
298
331
2B4
  5
299
331
2B5
  5
29A
331
2B6
  5
29B
331
2B7
  5
29C
331
2B8
  5
29D
331
2B9
  5
29E
331
2BA
  5
29F
331
2BB
  5
2A0
331
2BC
  5
2A1
331
2BD
  5
2A2
331
2BE
  5
2A3
331
2BF
  5
2A4
331
2C0
  5
2A5
331
2C1
  5
2A6
331
2C2
  5
2A7
331
2C3
  5
2A8
331
2C4
  5
2A9
331
2C5
  5
2AA
331
2C6
  5
2AB
331
2C7
  5
2AC
331
2C8
  5
2AD
331
2C9
  5
2AE
331
2CA
  5
2AF
331
2CB
  5
2B0
331
2CC
  5
2B1
331
2CD
  5
2B2
331
2CE
  5
2B3
331
2CF
  5
2B4
331
2D0
  5
2B5
331
2D1
  5
2B6
331
2D2
  5
2B7
331
2D3
  5
2B8
331
2D4
  5
2B9
331
2D5
  5
2BA
331
2D6
  5
2BB
331
2D7
  5
2BC
331
2D8
  5
2BD
331
2D9
  5
2BE
331
2DA
  5
2BF
331
2DB
  5
2C0
331
2DC
  5
2C1
331
2DD
  5
2C2
331
2DE
  5
2C3
331
2DF
  5
2C4
331
2E0
  5
2C5
331
2E1
  5
2C6
331
2E2
  5
2C7
331
2E3
  5
2C8
331
2E4
  5
2C9
331
2E5
  5
2CA
331
2E6
  5
2CB
331
2E7
  5
2CC
331
2E8
  5
2CD
331
2E9
  5
2CE
331
2EA
  5
2CF
331
2EB
  5
2D0
331
2EC
  5
2D1
331
2ED
  5
2D2
331
2EE
  5
2D3
331
2EF
  5
2D4
331
2F0
  5
2D5
331
2F1
  5
2D6
331
2F2
  5
2D7
331
2F3
  5
2D8
331
2F4
  5
2D9
331
2F5
  5
2DA
331
2F6
  5
2DB
331
2F7
  5
2DC
331
2F8
  5
2DD
331
2F9
  5
2DE
331
2FA
  5
2DF
331
2FB
  5
2E0
331
2FC
  5
2E1
331
2FD
  5
2E2
331
2FE
  5
2E3
331
2FF
  5
2E4
331
300
  5
2E5
331
301
  5
2E6
331
302
  5
2E7
331
303
  5
2E8
331
304
  5
2E9
331
305
  5
2EA
331
306
  5
2EB
331
307
  5
2EC
331
308
  5
2ED
331
309
  5
2EE
331
30A
  5
2EF
331
30B
  5
2F0
331
30C
  5
2F1
331
30D
  5
2F2
331
30E
  5
2F3
331
30F
  5
2F4
331
310
  5
2F5
331
311
  5
2F6
331
312
  5
2F7
331
313
  5
2F8
331
314
  5
2F9
331
315
  5
2FA
331
316
  5
2FB
331
317
  5
2FC
331
318
  5
2FD
331
319
  5
2FE
331
31A
  5
2FF
331
31B
  5
300
331
31C
  5
301
331
31D
  5
302
331
31E
  5
303
331
31F
  5
304
331
320
  5
305
331
321
  5
306
331
322
  5
307
331
323
  5
308
331
324
  5
309
331
325
  5
30A
331
326
  5
30B
331
327
  5
30C
331
328
  5
30D
331
329
  5
30E
331
32A
  5
30F
331
32B
  5
310
331
32C
  5
311
331
32D
  5
312
331
32E
  5
313
331
32F
  5
314
331
330
  5
315
331
331
  5
316
331
332
  5
317
331
333
  5
318
331
334
  5
319
331
335
  5
31A
331
336
  5
31B
331
337
  5
31C
331
338
  5
31D
331
339
  5
31E
331
33A
  5
31F
331
33B
  5
320
331
33C
  5
321
331
33D
  5
322
331
33E
  5
323
331
33F
  5
324
331
340
  5
325
331
341
  5
326
331
342
  5
327
331
343
  5
328
331
344
  5
329
331
345
  5
32A
331
346
  5
32B
331
347
  5
32C
331
348
  5
32D
331
349
  5
32E
331
34A
  5
32F
331
34B
  5
330
331
34C
  5
331
331
34D
  5
332
331
34E
  5
333
331
34F
  5
334
331
350
  5
335
331
351
  5
336
331
352
  5
337
331
353
  5
338
331
354
  5
339
331
355
  5
33A
331
356
  5
33B
331
357
  5
33C
331
358
  5
33D
331
359
  5
33E
331
35A
  5
33F
331
35B
  5
340
331
35C
  5
341
331
35D
  5
342
331
35E
  5
343
331
35F
  5
344
331
360
  5
345
331
361
  5
346
331
362
  5
347
331
363
  5
348
331
364
  5
349
331
365
  5
34A
331
366
  5
34B
331
367
  5
34C
331
368
  5
34D
331
369
  5
34E
331
36A
  5
34F
331
36B
  5
350
331
36C
  5
351
331
36D
  5
352
331
36E
  5
353
331
36F
  5
354
331
370
  5
355
331
371
  5
356
331
372
  5
357
331
373
  5
358
331
374
  5
359
331
375
  5
35A
331
376
  5
35B
331
377
  5
35C
331
378
  5
35D
331
379
  5
35E
331
37A
  5
35F
331
37B
  5
360
331
37C
  5
361
331
37D
  5
362
331
37E
  5
363
331
37F
  5
364
331
380
  5
365
331
381
  5
366
331
382
  5
367
331
383
  5
368
331
384
  5
369
331
385
  5
36A
331
386
  5
36B
331
387
  5
36C
331
388
  5
36D
331
389
  5
36E
331
38A
  5
36F
331
38B
  5
370
331
38C
  5
371
331
38D
  5
372
331
38E
  5
373
331
38F
  5
374
331
390
  5
375
331
391
  5
376
331
392
  5
377
331
393
  5
378
331
394
  5
379
331
395
  5
37A
331
396
  5
37B
331
397
  5
37C
331
398
  5
37D
331
399
  5
37E
331
39A
  5
37F
331
39B
  5
380
331
39C
  5
381
331
39D
  5
382
331
39E
  5
383
331
39F
  5
384
331
3A0
  5
385
331
3A1
  5
386
331
3A2
  5
387
331
3A3
  5
388
331
3A4
  5
389
331
3A5
  5
38A
331
3A6
  5
38B
331
3A7
  5
38C
331
3A8
  5
38D
331
3A9
  5
38E
331
3AA
  5
38F
331
3AB
  5
390
331
3AC
  5
391
331
3AD
  5
392
331
3AE
  5
393
331
3AF
  5
394
331
3B0
  5
395
331
3B1
  5
396
331
3B2
  5
397
331
3B3
  5
398
331
3B4
  5
399
331
3B5
  5
39A
331
3B6
  5
39B
331
3B7
  5
39C
331
3B8
  5
39D
331
3B9
  5
39E
331
3BA
  5
39F
331
3BB
  5
3A0
331
3BC
  5
3A1
331
3BD
  5
3A2
331
3BE
  5
3A3
331
3BF
  5
3A4
331
3C0
  5
3A5
331
3C1
  5
3A6
331
3C2
  5
3A7
331
3C3
  5
3A8
331
3C4
  5
3A9
331
3C5
  5
3AA
331
3C6
  5
3AB
331
3C7
  5
3AC
331
3C8
  5
3AD
331
3C9
  5
3AE
331
3CA
  5
3AF
331
3CB
  5
3B0
331
3CC
  5
3B1
331
3CD
  5
3B2
331
3CE
  5
3B3
331
3CF
  5
3B4
331
3D0
  5
3B5
331
3D1
  5
3B6
331
3D2
  5
3B7
331
3D3
  5
3B8
331
3D4
  5
3B9
331
3D5
  5
3BA
331
3D6
  5
3BB
331
3D7
  5
3BC
331
3D8
  5
3BD
331
3D9
  5
3BE
331
3DA
  5
3BF
331
3DB
  5
3C0
331
3DC
  5
3C1
331
3DD
  5
3C2
331
3DE
  5
3C3
331
3DF
  5
3C4
331
3E0
  5
3C5
331
3E1
  5
3C6
331
3E2
  5
3C7
331
3E3
  5
3C8
331
3E4
  5
3C9
331
3E5
  5
3CA
331
3E6
  5
3CB
331
3E7
  5
3CC
331
3E8
  5
3CD
331
3E9
  5
3CE
331
3EA
  5
3CF
331
3EB
  5
3D0
331
3EC
  5
3D1
331
3ED
  5
3D2
331
3EE
  5
3D3
331
3EF
  5
3D4
331
3F0
  5
3D5
331
3F1
  5
3D6
331
3F2
  5
3D7
331
3F3
  5
3D8
331
3F4
  5
3D9
331
3F5
  5
3DA
331
3F6
  5
3DB
331
3F7
  5
3DC
331
3F8
  5
3DD
331
3F9
  5
3DE
331
3FA
  5
3DF
331
3FB
  5
3E0
331
3FC
  5
3E1
331
3FD
  5
3E2
331
3FE
  5
3E3
331
3FF
  5
3E4
331
400
  5
3E5
331
401
  5
3E6
331
402
  5
3E7
331
403
  5
3E8
331
404
  5
3E9
331
405
  5
3EA
331
406
  5
3EB
331
407
  5
3EC
331
408
  5
3ED
331
409
  5
3EE
331
40A
  5
3EF
331
40B
  5
3F0
331
40C
  5
3F1
331
40D
  5
3F2
331
40E
  5
3F3
331
40F
  5
3F4
331
410
  5
3F5
331
411
  5
3F6
331
412
  5
3F7
331
413
  5
3F8
331
414
  5
3F9
331
415
  5
3FA
331
416
  5
3FB
331
417
  5
3FC
331
418
  5
3FD
331
419
  5
3FE
331
41A
  5
3FF
331
41B
  5
400
331
41C
  5
401
331
41D
  5
402
331
41E
  5
403
331
41F
  5
404
331
420
  5
405
331
421
  5
406
331
422
  5
407
331
423
  5
408
331
424
  5
409
331
425
  5
40A
331
426
  5
40B
331
427
  5
40C
331
428
  5
40D
331
429
  5
40E
331
42A
  5
40F
331
42B
  5
410
331
42C
  5
411
331
42D
  5
412
331
42E
  5
413
331
42F
  5
414
331
430
  5
415
331
431
  5
416
331
432
  5
417
331
433
  5
418
331
434
  5
419
331
435
  5
41A
331
436
  5
41B
331
437
  5
41C
331
438
  5
41D
331
439
  5
41E
331
43A
  5
41F
331
43B
  5
420
331
43C
  5
421
331
43D
  5
422
331
43E
  5
423
331
43F
  5
424
331
440
  5
425
331
441
  5
426
331
442
  5
427
331
443
  5
428
331
444
  5
429
331
445
  5
42A
331
446
  5
42B
331
447
  5
42C
331
448
  5
42D
331
449
  5
42E
331
44A
  5
42F
331
44B
  5
430
331
44C
  5
431
331
44D
  5
432
331
44E
  5
433
331
44F
  5
434
331
450
  5
435
331
451
  5
436
331
452
  5
437
331
453
  5
438
331
454
  5
439
331
455
  5
43A
331
456
  5
43B
331
457
  5
43C
331
458
  5
43D
331
459
  5
43E
331
45A
  5
43F
331
45B
  5
440
331
45C
  5
441
331
45D
  5
442
331
45E
  5
443
331
45F
  5
444
331
460
  5
445
331
461
  5
446
331
462
  5
447
331
463
  5
448
331
464
  5
449
331
465
  5
44A
331
466
  5
44B
331
467
  5
44C
331
468
  5
44D
331
469
  5
44E
331
46A
  5
44F
331
46B
  5
450
331
46C
  5
451
331
46D
  5
452
331
46E
  5
453
331
46F
  5
454
331
470
  5
455
331
471
  5
456
331
472
  5
457
331
473
  5
458
331
474
  5
459
331
475
  5
45A
331
476
  5
45B
331
477
  5
45C
331
478
  5
45D
331
479
  5
45E
331
47A
  5
45F
331
47B
  5
460
331
47C
  5
461
331
47D
  5
462
331
47E
  5
463
331
47F
  5
464
331
480
  5
465
331
481
  5
466
331
482
  5
467
331
483
  5
468
331
484
  5
469
331
485
  5
46A
331
486
  5
46B
331
487
  5
46C
331
488
  5
46D
331
489
  5
46E
331
48A
  5
46F
331
48B
  5
470
331
48C
  5
471
331
48D
  5
472
331
48E
  5
473
331
48F
  5
474
331
490
  5
475
331
491
  5
476
331
492
  5
477
331
493
  5
478
331
494
  5
479
331
495
  5
47A
331
496
  5
47B
331
497
  5
47C
331
498
  5
47D
331
499
  5
47E
331
49A
  5
47F
331
49B
  5
480
331
49C
  5
481
331
49D
  5
482
331
49E
  5
483
331
49F
  5
484
331
4A0
  5
485
331
4A1
  5
486
331
4A2
  5
487
331
4A3
  5
488
331
4A4
  5
489
331
4A5
  5
48A
331
4A6
  5
48B
331
4A7
  5
48C
331
4A8
  5
48D
331
4A9
  5
48E
331
4AA
  5
48F
331
4AB
  5
490
331
4AC
  5
491
331
4AD
  5
492
331
4AE
  5
493
331
4AF
  5
494
331
4B0
  5
495
331
4B1
  5
496
331
4B2
  5
497
331
4B3
  5
498
331
4B4
  5
499
331
4B5
  5
49A
331
4B6
  5
49B
331
4B7
  5
49C
331
4B8
  5
49D
331
4B9
  5
49E
331
4BA
  5
49F
331
4BB
  5
4A0
331
4BC
  5
4A1
331
4BD
  5
4A2
331
4BE
  5
4A3
331
4BF
  5
4A4
331
4C0
  5
4A5
331
4C1
  5
4A6
331
4C2
  5
4A7
331
4C3
  5
4A8
331
4C4
  5
4A9
331
4C5
  5
4AA
331
4C6
  5
4AB
331
4C7
  5
4AC
331
4C8
  5
4AD
331
4C9
  5
4AE
331
4CA
  5
4AF
331
4CB
  5
4B0
331
4CC
  5
4B1
331
4CD
  5
4B2
331
4CE
  5
4B3
331
4CF
  5
4B4
331
4D0
  5
4B5
331
4D1
  5
4B6
331
4D2
  5
4B7
331
4D3
  5
4B8
331
4D4
  5
4B9
331
4D5
  5
4BA
331
4D6
  5
4BB
331
4D7
  5
4BC
331
4D8
  5
4BD
331
4D9
  5
4BE
331
4DA
  5
4BF
331
4DB
  5
4C0
331
4DC
  5
4C1
331
4DD
  5
4C2
331
4DE
  5
4C3
331
4DF
  5
4C4
331
4E0
  5
4C5
331
4E1
  5
4C6
331
4E2
  5
4C7
331
4E3
  5
4C8
331
4E4
  5
4C9
331
4E5
  5
4CA
331
4E6
  5
4CB
331
4E7
  5
4CC
331
4E8
  5
520
331
4E9
  5
4CD
331
4EA
  5
4CE
331
4EC
  5
4CF
331
4EE
  5
4D0
331
4F0
  5
4D1
331
4F2
  5
4D2
331
4F4
  5
4D3
331
4FF
  5
4D4
331
50A
  5
4D5
331
515
  5
4D6
331
520
  5
4D7
  0
LAYOUT
  5
596
102
{ACAD_REACTORS
330
592
330
592
102
}
102
{ACAD_XDICTIONARY
360
597
102
}
330
592
100
AcDbPlotSettings
  1

  2
none_device
  4
Letter_(8.50_x_11.00_Inches)
  6

 40
6.35
 41
6.35
 42
6.350006
 43
6.350006
 44
215.899994
 45
279.399994
 46
0.0
 47
0.0
 48
0.0
 49
0.0
140
0.0
141
0.0
142
1.0
143
1.0
 70
   688
 72
     0
 73
     1
 74
     5
  7

 75
    16
 76
     0
 77
     2
 78
   300
147
1.0
148
0.0
149
0.0
100
AcDbLayout
  1
Layout1
 70
     1
 71
     1
 10
-0.25
 20
-0.25
 11
10.75
 21
8.25
 12
0.0
 22
0.0
 32
0.0
 14
1.049744
 24
0.799667
 34
-0.001526
 15
9.450623
 25
7.200577
 35
0.0
146
0.0
 13
0.0
 23
0.0
 33
0.0
 16
1.0
 26
0.0
 36
0.0
 17
0.0
 27
1.0
 37
0.0
 76
     0
330
593
1001
ACAD_PSEXT
1000
None
1000
None
1000
Not applicable
1000
The layout will not be plotted unless a new plotter configuration name is selected.
1070
     0
  0
LAYOUT
  5
591
102
{ACAD_REACTORS
330
592
330
592
102
}
330
592
100
AcDbPlotSettings
  1

  2
none_device
  4
ANSI_A_(8.50_x_11.00_Inches)
  6

 40
6.35
 41
19.049999
 42
6.350006
 43
19.049988
 44
215.899994
 45
279.399994
 46
0.0
 47
0.0
 48
0.0
 49
0.0
140
0.0
141
0.0
142
1.0
143
2.584895
 70
 11952
 72
     0
 73
     1
 74
     0
  7

 75
     0
 76
     0
 77
     2
 78
   300
147
0.386863
148
0.0
149
0.0
100
AcDbLayout
  1
Model
 70
     1
 71
     0
 10
0.0
 20
0.0
 11
12.0
 21
9.0
 12
0.0
 22
0.0
 32
0.0
 14
0.0
 24
0.0
 34
0.0
 15
0.0
 25
0.0
 35
0.0
146
0.0
 13
0.0
 23
0.0
 33
0.0
 16
1.0
 26
0.0
 36
0.0
 17
0.0
 27
1.0
 37
0.0
 76
     0
330
58E
331
49
  0
MLINESTYLE
  5
58B
102
{ACAD_REACTORS
330
58C
102
}
330
58C
100
AcDbMlineStyle
  2
STANDARD
 70
     0
  3

 62
   256
 51
90.0
 52
90.0
 71
     2
 49
0.5
 62
   256
  6
BYLAYER
 49
-0.5
 62
   256
  6
BYLAYER
  0
ACDBPLACEHOLDER
  5
580
102
{ACAD_REACTORS
330
581
102
}
330
581
  0
XRECORD
  5
575
102
{ACAD_REACTORS
330
5A6
102
}
330
5A6
100
AcDbXrecord
280
     1
310
3E4F020000004D6F64656C6572000000000000000000000000000000000000000000000000000000000000000000000000000000000000000000000000000000000000000000000000000000000000000000000000000000000000000000000000000000000000000000000000000000000000000000000000000000000000
310
00000000000000000000000000000000000000000000000000000000000000000000000000000000000000000000000000000000000000000000000000000000000000000000000000000000000000000000000000000000000000000000000000000000000000000000000000000000000000000000000000000000000000
310
00
310
00000000000000000000000000000000000000000000000000000000000000000000000000000000000000000000000000000000000000000000000000000000000000000000000000000000000000000000000000000000000000000000000000000000000000000000000000000000000000000000000000000000000000
310
00000000000000000000000000000000000000000000000000000000000000000000000000000000000000000000000000000000000000000000000000000000000000000000000000000000000000000000000000000000000000000000000000000000000000000000000000000000000000000000000000000000000000
310
00
310
00000000000000000000000000000000000000000000000000000000000000000000000000000000000000000000000000000000000000000000000000000000000000000000000000000000000000000000000000000000000000000000000000000000000000000000000000000000000000000000000000000000000000
310
00000000000000000000000000000000000000000000000000000000000000000000000000000000000000000000000000000000000000000000000000000000000000000000000000000000000000000000000000000000000000000000000000000000000000000000000000000000000000000000000000000000000000
310
00
310
00000000000000000000000000000000000000000000000000000000000000000000000000000000000000000000000000000000000000000000000000000000000000000000000000000000000000000000000000000000000000000000000000000000000000000000000000000000000000000000000000000000000000
310
00000000000000000000000000000000000000000000000000000000000000000000000000000000000000000000000000000000000000000000000000000000000000000000000000000000000000000000000000000000000000000000000000000000000000000000000000000000000000000000000000000000000000
310
00
310
00000000000000000000000000000000000000000000000000000000000000000000000000000000000000000000000000000000000000000000000000000000000000000000000000000000000000000000000000000000000000000000000000000000000000000000000000000000000000000000000000000000000000
310
00000000000000000000000000000000000000000000000000000000000000000000000000000000000000000000000000000000000000000000000000000000000000000000000000000000000000000000000000000000000000000000000000000000000000000000000000000000000000000000000000000000000000
310
00
310
00000000000000000000000000000000000000000000000000000000000000000000000000000000000000000000000000000000000000000000000000000000000000000000000000000000000000000000000000000000000000000000000000000000000000000000000000000000000000000000000000000000000000
310
00000000000000000000000000000000000000000000000000000000000000000000000000000000000000000000000000000000000000000000000000000000000000000000000000000000000000000000000000000000000000000000000000000000000000000000000000000000000000000000000000000000000000
310
00
310
00000000000000000000000000000000000000000000000000000000000000000000000000000000000000000000000000000000000000000000000000000000000000000000000000000000000000000000000000000000000000000000000000000000000000000000000000000000000000000000000000000000000000
310
00000000000000000000000000000000000000000000000000000000000000000000000000000000000000000000000000000000000000000000000000000000000000000000000000000000000000000000000000000000000000000000000000000000000000000000000000000000000000000000000000000000000000
310
00
310
00000000000000000000000000000000000000000000000000000000000000000000000000000000000000000000000000000000000000000000000000000000000000000000000000000000000000000000000000000000000000000000000000000000000000000000000000000000000000000000000000000000000000
310
00000000000000000000000000000000000000000000000000000000000000000000000000000000000000000000000000000000000000000000000000000000000000000000000000000000000000000000000000000000000000000000000000000000000000000000000000000000000000000000000000000000000000
310
00
310
00000000000000000000000000000000000000000000000000000000000000000000000000000000000000000000000000000000000000000000000000000000000000000000000000000000000000000000000000000000000000000000000000000000000000000000000000000000000000000000000000000000000000
310
00000000000000000000000000000000000000000000000000000000000000000000000000000000000000000000000000000000000000000000000000000000000000000000000000000000000000000000000000000000000000000000000000000000000000000000000000000000000000000000000000000000000000
310
00
310
00000000000000000000000000000000000000000000000000000000000000000000000000000000000000000000000000000000000000000000000000000000000000000000000000000000000000000000000000000000000000000000000000000000000000000000000000000000000000000000000000000000000000
310
00000000000000000000000000000000000000000000000000000000000000000000000000000000000000000000000000000000000000000000000000000000000000000000000000000000000000000000000000000000000000000000000000000000000000000000000000000000000000000000000000000000000000
310
00
310
00000000000000000000000000000000000000000000000000000000000000000000000000000000000000000000000000000000000000000000000000000000000000000000000000000000000000000000000000000000000000000000000000000000000000000000000000000000000000000000000000000000000000
310
00000000000000000000000000000000000000000000000000000000000000000000000000000000000000000000000000000000000000000000000000000000000000000000000000000000000000000000000000000000000000000000000000000000000000000000000000000000000000000000000000000000000000
310
00
310
00000000000000000000000000000000000000000000000000000000000000000000000000000000000000000000000000000000000000000000000000000000000000000000000000000000000000000000000000000000000000000000000000000000000000000000000000000000000000000000000000000000000000
310
00000000000000000000000000000000000000000000000000000000000000000000000000000000000000000000000000000000000000000000000000000000000000000000000000000000000000000000000000000000000000000000000000000000000000000000000000000000000000000000000000000000000000
310
00
310
00000000000000000000000000000000000000000000000000000000000000000000000000000000000000000000000000000000000000000000000000000000000000000000000000000000000000000000000000000000000000000000000000000000000000000000000000000000000000000000000000000000000000
310
00000000000000000000000000000000000000000000000000000000000000000000000000000000000000000000000000000000000000000000000000000000000000000000000000000000000000000000000000000000000000000000000000000000000000000000000000000000000000000000000000000000000000
310
00
310
00000000000000000000000000000000000000000000000000000000000000000000000000000000000000000000000000000000000000000000000000000000000000000000000000000000000000000000000000000000000000000000000000000000000000000000000000000000000000
  0
XRECORD
  5
57A
102
{ACAD_REACTORS
330
5A6
102
}
330
5A6
100
AcDbXrecord
280
     1
310
3E4F020000004D6F64656C6572000000000000000000000000000000000000000000000000000000000000000000000000000000000000000000000000000000000000000000000000000000000000000000000000000000000000000000000000000000000000000000000000000000000000000000000000000000000000
310
00000000000000000000000000000000000000000000000000000000000000000000000000000000000000000000000000000000000000000000000000000000000000000000000000000000000000000000000000000000000000000000000000000000000000000000000000000000000000000000000000000000000000
310
00
310
00000000000000000000000000000000000000000000000000000000000000000000000000000000000000000000000000000000000000000000000000000000000000000000000000000000000000000000000000000000000000000000000000000000000000000000000000000000000000000000000000000000000000
310
00000000000000000000000000000000000000000000000000000000000000000000000000000000000000000000000000000000000000000000000000000000000000000000000000000000000000000000000000000000000000000000000000000000000000000000000000000000000000000000000000000000000000
310
00
310
00000000000000000000000000000000000000000000000000000000000000000000000000000000000000000000000000000000000000000000000000000000000000000000000000000000000000000000000000000000000000000000000000000000000000000000000000000000000000000000000000000000000000
310
00000000000000000000000000000000000000000000000000000000000000000000000000000000000000000000000000000000000000000000000000000000000000000000000000000000000000000000000000000000000000000000000000000000000000000000000000000000000000000000000000000000000000
310
00
310
00000000000000000000000000000000000000000000000000000000000000000000000000000000000000000000000000000000000000000000000000000000000000000000000000000000000000000000000000000000000000000000000000000000000000000000000000000000000000000000000000000000000000
310
00000000000000000000000000000000000000000000000000000000000000000000000000000000000000000000000000000000000000000000000000000000000000000000000000000000000000000000000000000000000000000000000000000000000000000000000000000000000000000000000000000000000000
310
00
310
00000000000000000000000000000000000000000000000000000000000000000000000000000000000000000000000000000000000000000000000000000000000000000000000000000000000000000000000000000000000000000000000000000000000000000000000000000000000000000000000000000000000000
310
00000000000000000000000000000000000000000000000000000000000000000000000000000000000000000000000000000000000000000000000000000000000000000000000000000000000000000000000000000000000000000000000000000000000000000000000000000000000000000000000000000000000000
310
00
310
00000000000000000000000000000000000000000000000000000000000000000000000000000000000000000000000000000000000000000000000000000000000000000000000000000000000000000000000000000000000000000000000000000000000000000000000000000000000000000000000000000000000000
310
00000000000000000000000000000000000000000000000000000000000000000000000000000000000000000000000000000000000000000000000000000000000000000000000000000000000000000000000000000000000000000000000000000000000000000000000000000000000000000000000000000000000000
310
00
310
00000000000000000000000000000000000000000000000000000000000000000000000000000000000000000000000000000000000000000000000000000000000000000000000000000000000000000000000000000000000000000000000000000000000000000000000000000000000000000000000000000000000000
310
00000000000000000000000000000000000000000000000000000000000000000000000000000000000000000000000000000000000000000000000000000000000000000000000000000000000000000000000000000000000000000000000000000000000000000000000000000000000000000000000000000000000000
310
00
310
00000000000000000000000000000000000000000000000000000000000000000000000000000000000000000000000000000000000000000000000000000000000000000000000000000000000000000000000000000000000000000000000000000000000000000000000000000000000000000000000000000000000000
310
00000000000000000000000000000000000000000000000000000000000000000000000000000000000000000000000000000000000000000000000000000000000000000000000000000000000000000000000000000000000000000000000000000000000000000000000000000000000000000000000000000000000000
310
00
310
00000000000000000000000000000000000000000000000000000000000000000000000000000000000000000000000000000000000000000000000000000000000000000000000000000000000000000000000000000000000000000000000000000000000000000000000000000000000000000000000000000000000000
310
00000000000000000000000000000000000000000000000000000000000000000000000000000000000000000000000000000000000000000000000000000000000000000000000000000000000000000000000000000000000000000000000000000000000000000000000000000000000000000000000000000000000000
310
00
310
00000000000000000000000000000000000000000000000000000000000000000000000000000000000000000000000000000000000000000000000000000000000000000000000000000000000000000000000000000000000000000000000000000000000000000000000000000000000000000000000000000000000000
310
00000000000000000000000000000000000000000000000000000000000000000000000000000000000000000000000000000000000000000000000000000000000000000000000000000000000000000000000000000000000000000000000000000000000000000000000000000000000000000000000000000000000000
310
00
310
00000000000000000000000000000000000000000000000000000000000000000000000000000000000000000000000000000000000000000000000000000000000000000000000000000000000000000000000000000000000000000000000000000000000000000000000000000000000000000000000000000000000000
310
00000000000000000000000000000000000000000000000000000000000000000000000000000000000000000000000000000000000000000000000000000000000000000000000000000000000000000000000000000000000000000000000000000000000000000000000000000000000000000000000000000000000000
310
00
310
00000000000000000000000000000000000000000000000000000000000000000000000000000000000000000000000000000000000000000000000000000000000000000000000000000000000000000000000000000000000000000000000000000000000000000000000000000000000000000000000000000000000000
310
00000000000000000000000000000000000000000000000000000000000000000000000000000000000000000000000000000000000000000000000000000000000000000000000000000000000000000000000000000000000000000000000000000000000000000000000000000000000000000000000000000000000000
310
00
310
00000000000000000000000000000000000000000000000000000000000000000000000000000000000000000000000000000000000000000000000000000000000000000000000000000000000000000000000000000000000000000000000000000000000000000000000000000000000000000000000000000000000000
310
00000000000000000000000000000000000000000000000000000000000000000000000000000000000000000000000000000000000000000000000000000000000000000000000000000000000000000000000000000000000000000000000000000000000000000000000000000000000000000000000000000000000000
310
00
310
00000000000000000000000000000000000000000000000000000000000000000000000000000000000000000000000000000000000000000000000000000000000000000000000000000000000000000000000000000000000000000000000000000000000000000000000000000000000000
  0
XRECORD
  5
574
102
{ACAD_REACTORS
330
5A6
102
}
330
5A6
100
AcDbXrecord
280
     1
310
DF56060034040701D0009A9999999999B93F000000000000000000000000000000000400000009000000000000000200000064000000640000000100000001000000190000007B14AE47E17A843F00000000004060409A9999999999B93F00000000004C2D41000000000070F7400000000000942141000000000000000000
310
0000000000000000000000000000000AD482040000000000000000000000000000F03F000000000000000000000000000030402D431CEBE2362A3F00000000000008400000000000000000009807C000000000000000007C1A61B9A711364020000000050000000A000000200000002000000020000000000000000000F03F
310
00
310
0000000000F03F000000000000F03F333333333333D33F333333333333D33F333333333333D33F000000000000F43F000000000000F43F000000000000F03F0200000064000000000000000000000000000840000000000000F83F00000000000000000000000000000000008056409A9999999999B93F0000000000000000
310
00000000000000000000000000000000000000000000000000000000000000000000000000000000000000000000000000000000000000000000000000000000000000000000000000000000000000000000000000000000000000000000000000000000000000000000000000000000000000000000000000000000000000
310
00
310
0000000000000000000000000000000000000000000000000000000000000000000000000000000000000000000000000000000000000000000000000000000000000000000000000000000000000000000000000000000000000000000000000000000000000000000000000000000000000000000000009A9999999999A9
310
3F9100000000000000000000000000000035A781D547960F40000000000000F03F000000000000F03F666666666666164000000000104068F200000000000000000000000000000000000000000000000000000000000000000000000000000000000000000000000000000000000000000000000000000000000000000000
310
00
310
00000000000000000000000000000000000000000000000000000000000000000000000000000000000000000000000000000000000000000000000000000000000000000000000000000000000000000000000000000000000000000000000000000000000000000000000000000000000000000000000000000000000000
310
000000000000000000000000000000000000000000000000000000000000000000000000000000000000000000000000000000000000000000000000FF000000000000000000000000000000000000000000000000000000000000000000000000000000000000000000000000000000000000000000000000000000000000
310
00
310
0000000000000000000000000000000000000000000000000000000000000000000000000000000000000000000000000000000000000000000000000000000000000000
  0
DICTIONARY
  5
597
330
596
100
AcDbDictionary
280
     1
281
     1
  3
ADSK_XREC_LAYOUTTHUMBNAIL
360
598
  0
XRECORD
  5
598
102
{ACAD_REACTORS
330
597
102
}
330
597
100
AcDbXrecord
280
     1
310
28000000B40000008B0000000100080000000000BC61000000000000000000000001000000000000FFFFFF0000000000FFFFFF000000000000000000000000000000000000000000000000000000000000000000330000006600000099000000CC000000FF00000000330000333300006633000099330000CC330000FF3300
310
0000660000336600006666000099660000CC660000FF66000000990000339900006699000099990000CC990000FF99000000CC000033CC000066CC000099CC0000CCCC0000FFCC000000FF000033FF000066FF000099FF0000CCFF0000FFFF000000003300330033006600330099003300CC003300FF003300003333003333
310
33006633330099333300CC333300FF33330000663300336633006666330099663300CC663300FF66330000993300339933006699330099993300CC993300FF99330000CC330033CC330066CC330099CC3300CCCC3300FFCC330000FF330033FF330066FF330099FF3300CCFF3300FFFF330000006600330066006600660099
310
006600CC006600FF00660000336600333366006633660099336600CC336600FF33660000666600336666006666660099666600CC666600FF66660000996600339966006699660099996600CC996600FF99660000CC660033CC660066CC660099CC6600CCCC6600FFCC660000FF660033FF660066FF660099FF6600CCFF6600
310
FFFF660000009900330099006600990099009900CC009900FF00990000339900333399006633990099339900CC339900FF33990000669900336699006666990099669900CC669900FF66990000999900339999006699990099999900CC999900FF99990000CC990033CC990066CC990099CC9900CCCC9900FFCC990000FF99
310
0033FF990066FF990099FF9900CCFF9900FFFF99000000CC003300CC006600CC009900CC00CC00CC00FF00CC000033CC003333CC006633CC009933CC00CC33CC00FF33CC000066CC003366CC006666CC009966CC00CC66CC00FF66CC000099CC003399CC006699CC009999CC00CC99CC00FF99CC0000CCCC0033CCCC0066CC
310
CC0099CCCC00CCCCCC00FFCCCC0000FFCC0033FFCC0066FFCC0099FFCC00CCFFCC00FFFFCC000000FF003300FF006600FF009900FF00CC00FF00FF00FF000033FF003333FF006633FF009933FF00CC33FF00FF33FF000066FF003366FF006666FF009966FF00CC66FF00FF66FF000099FF003399FF006699FF009999FF00CC
310
99FF00FF99FF0000CCFF0033CCFF0066CCFF0099CCFF00CCCCFF00FFCCFF0000FFFF0033FFFF0066FFFF0099FFFF00CCFFFF00FFFFFF00000000000D0D0D001A1A1A00282828003535350043434300505050005D5D5D006B6B6B00787878008686860093939300A1A1A100AEAEAE00BBBBBB00C9C9C900D6D6D600E4E4E400
310
F1F1F100FFFFFF0000000000000000000000000000000000000000000000000000000000000000000000000000000000E2E2E2E2E2E2E2E2E2E2E2E2E2E2E2E2E2E2E2E2E2E2E2E2E2E2E2E2E2E2E2E2E2E2E2E2E2E2E2E2E2E2E2E2E2E2E2E2E2E2E2E2E2E2E2E2E2E2E2E2E2E2E2E2E2E2E2E2E2E2E2E2E2E2E2E2E2E2E2
310
E2E2E2E2E2E2E2E2E2E2E2E2E2E2E2E2E2E2E2E2E2E2E2E2E2E2E2E2E2E2E2E2E2E2E2E2E2E2E2E2E2E2E2E2E2E2E2E2E2E2E2E2E2E2E2E2E2E2E2E2E2E2E2E2E2E2E2E2E2E2E2E2E2E2E2E2E2E2E2E2E2E2E2E2E2E2E2E2E2E2E2E2E2E2E2E2E2E2E2E2EFF5F5F5F5F5F5F5F5F5F5F5F5F5F5F5F5F5F5F5F5F5F5F5F5F5F5
310
F5F5F5F5F5F5F5F5F5F5F5F5F5F5F5F5F5F5F5F5F5F5F5F5F5F5F5F5F5F5F5F5F5F5F5F5F5F5F5F5F5F5F5F5F5F5F5F5F5F5F5F5F5F5F5F5F5F5F5F5F5F5F5F5F5F5F5F5F5F5F5F5F5F5F5F5F5F5F5F5F5F5F5F5F5F5F5F5F5F5F5F5F5F5F5F5F5F5F5F5F5F5F5F5F5F5F5F5F5F5F5F5F5F5F5F5F5F5F5F5F5F5F5F5F5F5F5
310
F5F5F5F5F5F5F5F5F5F5F5F5F5F5F5F5F5F5F5F5F5F5F5F5E2E2EFF5F5F5F5F5F5F5F5F5F5F5F5F5F5F5F5F5F5F5F5F5F5F5F5F5F5F5F5F5F5F5F5F5F5F5F5F5F5F5F5F5F5F5F5F5F5F5F5F5F5F5F5F5F5F5F5F5F5F5F5F5F5F5F5F5F5F5F5F5F5F5F5F5F5F5F5F5F5F5F5F5F5F5F5F5F5F5F5F5F5F5F5F5F5F5F5F5F5F5F5
310
F5F5F5F5F5F5F5F5F5F5F5F5F5F5F5F5F5F5F5F5F5F5F5F5F5F5F5F5F5F5F5F5F5F5F5F5F5F5F5F5F5F5F5F5F5F5F5F5F5F5F5F5F5F5F5F5F5F5F5F5F5F5F5F5F5F5F5F5F5F5F5F5F5F5F5F5F5E2E2EFF5F5F5F5F5F5F5F5F5F5F5F5F5F5F5F5F5F5F5F5F5F5F5F5F5F5F5F5F5F5F5F5F5F5F5F5F5F5F5F5F5F5F5F5F5F5F5
310
F5F5F5F5F5F5F5F5F5F5F5F5F5F5F5F5F5F5F5F5F5F5F5F5F5F5F5F5F5F5F5F5F5F5F5F5F5F5F5F5F5F5F5F5F5F5F5F5F5F5F5F5F5F5F5F5F5F5F5F5F5F5F5F5F5F5F5F5F5F5F5F5F5F5F5F5F5F5F5F5F5F5F5F5F5F5F5F5F5F5F5F5F5F5F5F5F5F5F5F5F5F5F5F5F5F5F5F5F5F5F5F5F5F5F5F5F5F5F5F5F5F5F5F5F5F5F5
310
F5F5F5E2E2EFF5F5F5E2E2E2E2E2E2E2E2F5F5F5F5F5F5F5F5F5E2E2E2E2E2E2E2E2E2E2E2E2E2E2E2E2F5F5F5F5F5F5F5F5E2E2E2E2E2E2E2E2E2E2E2E2E2E2E2E2F5F5F5F5F5F5F5F5F5E2E2E2E2E2E2E2E2E2E2E2E2E2E2E2F5F5F5F5F5F5F5F5F5E2E2E2E2E2E2E2E2E2E2E2E2E2E2E2F5F5F5F5F5F5F5F5F5E2E2E2E2
310
E2E2E2E2E2E2E2E2E2E2E2E2F5F5F5F5F5F5F5F5E2E2E2E2E2E2E2E2E2E2E2E2E2E2E2E2F5F5F5F5F5F5F5F5F5E2E2E2E2E2E2E2E2F5F5F5E2E2EFF5F5F5E2F5F5F5F5F5F5F5F5F5F5F5F5F5F5F5F5F5F5F5F5F5F5F5F5F5F5F5F5F5F5F5F5F5F5F5F5F5F5F5F5F5F5F5F5F5F5F5F5F5F5F5F5F5F5F5F5F5F5F5F5F5F5F5F5
310
F5F5F5F5F5F5F5F5F5F5F5F5F5F5F5F5F5F5F5F5F5F5F5F5F5F5F5F5F5F5F5F5F5F5F5F5F5F5F5F5F5F5F5F5F5F5F5F5F5F5F5F5F5F5F5F5F5F5F5F5F5F5F5F5F5F5F5F5F5F5F5F5F5F5F5F5F5F5F5F5F5F5F5F5F5F5F5F5F5F5F5F5F5F5F5F5F5F5F5F5F5F5F5F5F5E2F5F5F5E2E2EFF5F5F5E2F5F5F5F5F5F5F5F5F5F5F5
310
F5F5F5F5F5F5F5F5F5F5F5F5F5F5F5F5F5F5F5F5F5F5F5F5F5F5F5F5F5F5F5F5F5F5F5F5F5F5F5F5F5F5F5F5F5F5F5F5F5F5F5F5F5F5F5F5F5F5F5F5F5F5F5F5F5F5F5F5F5F5F5F5F5F5F5F5F5F5F5F5F5F5F5F5F5F5F5F5F5F5F5F5F5F5F5F5F5F5F5F5F5F5F5F5F5F5F5F5F5F5F5F5F5F5F5F5F5F5F5F5F5F5F5F5F5F5F5
310
F5F5F5F5F5F5F5F5F5F5F5F5F5F5F5F5F5F5F5F5F5F5F5F5F5F5F5F5F5F5F5E2F5F5F5E2E2EFF5F5F5E2F5F5F5F5F5F5F5F5F5F5F5F5F5F5F5F5F5F5F5F5F5F5F5F5F5F5F5F5F5F5F5F5F5F5F5F5F5F5F5F5F5F5F5F5F5F5F5F5F5F5F5F5F5F5F5F5F5F5F5F5F5F5F5F5F5F5F5F5F5F5F5F5F5F5F5F5F5F5F5F5F5F5F5F5F5
310
F5F5F5F5F5F5F5F5F5F5F5F5F5F5F5F5F5F5F5F5F5F5F5F5F5F5F5F5F5F5F5F5F5F5F5F5F5F5F5F5F5F5F5F5F5F5F5F5F5F5F5F5F5F5F5F5F5F5F5F5F5F5F5F5F5F5F5F5F5F5F5F5F5F5F5F5F5F5F5F5F5F5F5F5E2F5F5F5E2E2EFF5F5F5E2F5F5F5F5F5F5F5F5F5F5F5F5F5F5F5F5F5F5F5F5F5F5F5F5F5F5F5F5F5F5F5F5
310
F5F5F5F5F5F5F5F5F5F5F5F5F5F5F5F5F5F5F5F5F5F5F5F5F5F5F5F5F5F5F5F5F5F5F5F5F5F5F5F5F5F5F5F5F5F5F5F5F5F5F5F5F5F5F5F5F5F5F5F5F5F5F5F5F5F5F5F5F5F5F5F5F5F5F5F5F5F5F5F5F5F5F5F5F5F5F5F5F5F5F5F5F5F5F5F5F5F5F5F5F5F5F5F5F5F5F5F5F5F5F5F5F5F5F5F5F5F5F5F5F5F5F5F5F5F5F5
310
F5F5F5F5F5F5F5F5F5F5E2F5F5F5E2E2EFF5F5F5E2F5F5F5F5F5F5F5F5F5F5F5F5F5F5F5F5F5F5F5F5F5F5F5F5F5F5F5F5F5F5F5F5F5F5F5F5F5F5F5F5F5F5F5F5F5F5F5F5F5F5F5F5F5F5F5F5F5F5F5F5F5F5F5F5F5F5F5F5F5F5F5F5F5F5F5F5F5F5F5F5F5F5F5F5F5F5F5F5F5F5F5F5F5F5F5F5F5F5F5F5F5F5F5F5F5F5
310
F5F5F5F5F5F5F5F5F5F5F5F5F5F5F5F5F5F5F5F5F5F5F5F5F5F5F5F5F5F5F5F5F5F5F5F5F5F5F5F5F5F5F5F5F5F5F5F5F5F5F5F5F5F5F5F5F5F5F5F5F5F5F5E2F5F5F5E2E2EFF5F5F5E2F5F5F5F5F5F5F5F5F5F5F5F5F5F5F5F5F5F5F5F5F5F5F5F5F5F5F5F5F5F5F5F5F5F5F5F5F5F5F5F5F5F5F5F5F5F5F5F5F5F5F5F5F5
310
F5F5F5F5F5F5F5F5F5F5F5F5F5F5F5F5F5F5F5F5F5F5F5F5F5F5F5F5F5F5F5F5F5F5F5F5F5F5F5F5F5F5F5F5F5F5F5F5F5F5F5F5F5F5F5F5F5F5F5F5F5F5F5F5F5F5F5F5F5F5F5F5F5F5F5F5F5F5F5F5F5F5F5F5F5F5F5F5F5F5F5F5F5F5F5F5F5F5F5F5F5F5F5F5F5F5F5F5F5F5F5F5F5F5F5F5E2F5F5F5E2E2EFF5F5F5E2
310
F5F5F5F5F5F5F5F5F5F5F5F5F5F5F5F5F5F5F5F5F5F5F5F5F5F5F5F5F5F5F5F5F5F5F5F5F5F5F5F5F5F5F5F5F5F5F5F5F5F5F5F5F5F5F5F5F5F5F5F5F5F5F5F5F5F5F5F5F5F5F5F5F5F5F5F5F5F5F5F5F5F5F5F5F5F5F5F5F5F5F5F5F5F5F5F5F5F5F5F5F5F5F5F5F5F5F5F5F5F5F5F5F5F5F5F5F5F5F5F5F5F5F5F5F5F5F5
310
F5F5F5F5F5F5F5F5F5F5F5F5F5F5F5F5F5F5F5F5F5F5F5F5F5F5F5F5F5F5F5F5F5F5F5F5F5F5F5F5F5F5E2F5F5F5E2E2EFF5F5F5E2F5F5F5F5F5F5F5F5F5F5F5F5F5F5F5F5F5F5F5F5F5F5F5F5F5F5F5F5F5F5F5F5F5F5F5F5F5F5F5F5F5F5F5F5F5F5F5F5F5F5F5F5F5F5F5F5F5F5F5F5F5F5F5F5F5F5F5F5F5F5F5F5F5F5
310
F5F5F5F5F5F5F5F5F5F5F5F5F5F5F5F5F5F5F5F5F5F5F5F5F5F5F5F5F5F5F5F5F5F5F5F5F5F5F5F5F5F5F5F5F5F5F5F5F5F5F5F5F5F5F5F5F5F5F5F5F5F5F5F5F5F5F5F5F5F5F5F5F5F5F5F5F5F5F5F5F5F5F5F5F5F5F5F5F5F5F5F5F5F5F5E2F5F5F5E2E2EFF5F5F5F5F5F5F5F5F5F5F5F5F5F5F5F5F5F5F5F5F5F5F5F5F5
310
F5F5F5F5F5F5F5F5F5F5F5F5F5F5F5F5F5F5F5F5F5F5F5F5F5F5F5F5F5F5F5F5F5F5F5F5F5F5F5F5F5F5F5F5F5F5F5F5F5F5F5F5F5F5F5F5F5F5F5F5F5F5F5F5F5F5F5F5F5F5F5F5F5F5F5F5F5F5F5F5F5F5F5F5F5F5F5F5F5F5F5F5F5F5F5F5F5F5F5F5F5F5F5F5F5F5F5F5F5F5F5F5F5F5F5F5F5F5F5F5F5F5F5F5F5F5F5
310
F5F5F5F5F5F5F5F5F5F5F5F5F5F5F5F5F5F5F5F5F5F5F5F5F5E2E2EFF5F5F5F5F5F5F5F5F5F5F5F5F5F5F5F5F5F5F5F5F5F5F5F5F5F5F5F5F5F5F5F5F5F5F5F5F5F5F5F5F5F5F5F5F5F5F5F5F5F5F5F5F5F5F5F5F5F5F5F5F5F5F5F5F5F5F5F5F5F5F5F5F5F5F5F5F5F5F5F5F5F5F5F5F5F5F5F5F5F5F5F5F5F5F5F5F5F5F5
310
F5F5F5F5F5F5F5F5F5F5F5F5F5F5F5F5F5F5F5F5F5F5F5F5F5F5F5F5F5F5F5F5F5F5F5F5F5F5F5F5F5F5F5F5F5F5F5F5F5F5F5F5F5F5F5F5F5F5F5F5F5F5F5F5F5F5F5F5F5F5F5F5F5F5F5F5F5F5E2E2EFF5F5F5F5F5F5F5F5F5F5F5F5F5F5F5F5F5F5F5F5F5F5F5F5F5F5F5F5F5F5F5F5F5F5F5F5F5F5F5F5F5F5F5F5F5F5
310
F5F5F5F5F5F5F5F5F5F5F5F5F5F5F5F5F5F5F5F5F5F5F5F5F5F5F5F5F5F5F5F5F5F5F5F5F5F5F5F5F5F5F5F5F5F5F5F5F5F5F5F5F5F5F5F5F5F5F5F5F5F5F5F5F5F5F5F5F5F5F5F5F5F5F5F5F5F5F5F5F5F5F5F5F5F5F5F5F5F5F5F5F5F5F5F5F5F5F5F5F5F5F5F5F5F5F5F5F5F5F5F5F5F5F5F5F5F5F5F5F5F5F5F5F5F5F5
310
F5F5F5F5E2E2EFF5F5F5F5F5F5F5F5F5F5F5F5F5F5F5F5F5F5F5F5F5F5F5F5F5F5F5F5F5F5F5F5F5F5F5F5F5F5F5F5F5F5F5F5F5F5F5F5F5F5F5F5F5F5F5F5F5F5F5F5F5F5F5F5F5F5F5F5F5F5F5F5F5F5F5F5F5F5F5F5F5F5F5F5F5F5F5F5F5F5F5F5F5F5F5F5F5F5F5F5F5F5F5F5F5F5F5F5F5F5F5F5F5F5F5F5F5F5F5F5
310
F5F5F5F5F5F5F5F5F5F5F5F5F5F5F5F5F5F5F5F5F5F5F5F5F5F5F5F5F5F5F5F5F5F5F5F5F5F5F5F5F5F5F5F5F5F5F5F5F5F5F5F5F5F5F5F5F5E2E2EFF5F5F5F5F5F5F5F5F5F5F5F5F5F5F5F5F5F5F5F5E2E2E2E2E2E2E2E2E2E2E2E2E2E2E2E2E2E2E2E2E2E2E2E2E2E2E2E2E2E2E2E2E2E2E2E2E2E2E2E2E2E2E2E2E2E2E2
310
E2E2E2E2E2E2E2E2E2E2E2E2E2E2E2E2E2E2E2E2E2E2E2E2E2E2E2E2E2E2E2E2E2E2E2E2E2E2E2E2E2E2E2E2E2E2E2E2E2E2E2E2E2E2E2E2E2E2E2E2E2E2E2E2E2E2E2E2E2E2E2E2E2E2E2E2E2E2E2E2E2E2E2E2E2E2E2E2E2E2F5F5F5F5F5F5F5F5F5F5F5F5F5F5F5F5F5F5F5F5E2E2EFF5F5F5F5F5F5F5F5F5F5F5F5F5F5
310
F5F5F5F5F5F5E2F5F5F5F5F5F5F5F5F5F5F5F5F5F5F5F5F5F5F5F5F5F5F5F5F5F5F5F5F5F5F5F5F5F5F5F5F5F5F5F5F5F5F5F5F5F5F5F5F5F5F5F5F5F5F5F5F5F5F5F5F5F5F5F5F5F5F5F5F5F5F5F5F5F5F5F5F5F5F5F5F5F5F5F5F5F5F5F5F5F5F5F5F5F5F5F5F5F5F5F5F5F5F5F5F5F5F5F5F5F5F5F5F5F5F5F5F5F5F5F5
310
F5F5F5F5F5F5F5F5F5F5F5F5F5F5F5E2F5F5F5F5F5F5F5F5F5F5F5F5F5F5F5F5F5F5F5F5E2E2EFF5F5F5F5F5F5F5F5F5F5F5F5F5F5F5F5F5F5F5F5E2F5F5F5F5F5F5F5F5F5F5F5F5F5F5F5F5F5F5F5F5F5F5F5F5F5F5F5F5F5F5F5F5F5F5F5F5F5F5F5F5F5F5F5F5F5F5F5F5F5F5F5F5F5F5F5F5F5F5F5F5F5F5F5F5F5F5F5
310
F5F5F5F5F5F5F5F5F5F5F5F5F5F5F5F5F5F5F5F5F5F5F5F5F5F5F5F5F5F5F5F5F5F5F5F5F5F5F5F5F5F5F5F5F5F5F5F5F5F5F5F5F5F5F5F5F5F5F5F5F5F5F5F5F5F5F5F5E2F5F5F5F5F5F5F5F5F5F5F5F5F5F5F5F5F5F5F5F5E2E2EFF5F5F5F5F5F5F5F5F5F5F5F5F5F5F5F5F5F5F5F5E2F5F5F5F5F5F5F5F5F5F5F5F5F5F5
310
F5F5F5F5F5F5F5F5F5F5F5F5F5F5F5F5F5F5F5F5F5F5F5F5F5F5F5F5F5F5F5F5F5F5F5F5F5F5F5F5F5F5F5F5F5F5F5F5F5F5F5F5F5F5F5F5F5F5F5F5F5F5F5F5F5F5F5F5F5F5F5F5F5F5F5F5F5F5F5F5F5F5F5F5F5F5F5F5F5F5F5F5F5F5F5F5F5F5F5F5F5F5F5F5F5F5F5F5F5F5F5F5F5F5F5F5F5F5F5F5F5E2F5F5F5F5F5
310
F5F5F5F5F5F5F5F5F5F5F5F5F5F5F5E2E2EFF5F5F5F5F5F5F5F5F5F5F5F5F5F5F5F5F5F5F5F5E2F5F5F5F5F5F5F5F5F5F5F5F5F5F5F5F5F5F5F5F5F5F5F5F5F5F5F5F5F5F5F5F5F5F5F5F5F5F5F5F5F5F5F5F5F5F5F5F5F5F5F5F5F5F5F5F5F5F5F5F5F5F5F5F5F5F5F5F5F5F5F5F5F5F5F5F5F5F5F5F5F5F5F5F5F5F5F5F5
310
F5F5F5F5F5F5F5F5F5F5F5F5F5F5F5F5F5F5F5F5F5F5F5F5F5F5F5F5F5F5F5F5F5F5F5F5F5F5F5F5F5F5F5F5F5F5F5E2F5F5F5F5F5F5F5F5F5F5F5F5F5F5F5F5F5F5F5F5E2E2EFF5F5F5E2F5F5F5F5F5F5F5F5F5F5F5F5F5F5F5F5E2F5F5F5F5F5F5F5F5F5F5F5F5F5F5F5F5F5F5F5F5F5F5F5F5F5F5F5F5F5F5F5F5F5F5F5
310
F5F5F5F5F5F5F5F5F5F5F5F5F5F5F5F5F5F5F5F5F5F5F5F5F5F5F5F5F5F5F5F5F5F5F5F5F5F5F5F5F5F5F5F5F5F5F5F5F5F5F5F5F5F5F5F5F5F5F5F5F5F5F5F5F5F5F5F5F5F5F5F5F5F5F5F5F5F5F5F5F5F5F5F5F5F5F5F5F5F5F5F5F5F5F5F5F5F5F5F5E2F5F5F5F5F5F5F5F5F5F5F5F5F5F5F5F5E2F5F5F5E2E2EFF5F5F5
310
E2F5F5F5F5F5F5F5F5F5F5F5F5F5F5F5F5E2F5F5F5F5F5F5F5F5F5F5F5F5F5F5F5F5F5F5F5F5F5F5F5F5F5F5F5F5F5F5F5F5F5F5F5F5F5F5F5F5F5F5F5F5F5F5F5F5F5F5F5F5F5F5F5F5F5F5F5F5F5F5F5F5F5F5F5F5F5F5F5F5F5F5F5F5F5F5F5F5F5F5F5F5F5F5F5F5F5F5F5F5F5F5F5F5F5F5F5F5F5F5F5F5F5F5F5F5F5
310
F5F5F5F5F5F5F5F5F5F5F5F5F5F5F5F5F5F5F5F5F5F5F5F5F5F5E2F5F5F5F5F5F5F5F5F5F5F5F5F5F5F5F5E2F5F5F5E2E2EFF5F5F5E2F5F5F5F5F5F5F5F5F5F5F5F5F5F5F5F5E2F5F5F5F5F5F5F5F5F5F5F5F5F5F5F5F5F5F5F5F5F5F5F5F5F5F5F5F5F5F5F5F5F5F5F5F5F5F5F5F5F5F5F5F5F5F5F5F5F5F5F5F5F5F5F5F5
310
F5F5F5F5F5F5F5F5F5F5F5F5F5F5F5F5F5F5F5F5F5F5F5F5F5F5F5F5F5F5F5F5F5F5F5F5F5F5F5F5F5F5F5F5F5F5F5F5F5F5F5F5F5F5F5F5F5F5F5F5F5F5F5F5F5F5F5F5F5F5F5F5F5F5F5F5F5F5F5E2F5F5F5F5F5F5F5F5F5F5F5F5F5F5F5F5E2F5F5F5E2E2EFF5F5F5E2F5F5F5F5F5F5F5F5F5F5F5F5F5F5F5F5E2F5F5F5
310
F5F5F5F5F5F5F5F5F5F5F5F5F5F5F5F5F5F5F5F5F5F5F5F5F5F5F5F5F5F5F5F5F5F5F5F5F5F5F5F5F5F5F5F5F5F5F5F5F5F5F5F5F5F5F5F5F5F5F5F5F5F5F5F5F5F5F5F5F5F5F5F5F5F5F5F5F5F5F5F5F5F5F5F5F5F5F5F5F5F5F5F5F5F5F5F5F5F5F5F5F5F5F5F5F5F5F5F5F5F5F5F5F5F5F5F5F5F5F5F5F5F5F5F5F5F5F5
310
F5F5F5F5F5E2F5F5F5F5F5F5F5F5F5F5F5F5F5F5F5F5E2F5F5F5E2E2EFF5F5F5E2F5F5F5F5F5F5F5F5F5F5F5F5F5F5F5F5E2F5F5F5F5F5F5F5F5F5F5F5F5F5F5F5F5F5F5F5F5F5F5F5F5F5F5F5F5F5F5F5F5F5F5F5F5F5F5F5F5F5F5F5F5F5F5F5F5F5F5F5F5F5F5F5F5F5F5F5F5F5F5F5F5F5F5F5F5F5F5F5F5F5F5F5F5F5
310
F5F5F5F5F5F5F5F5F5F5F5F5F5F5F5F5F5F5F5F5F5F5F5F5F5F5F5F5F5F5F5F5F5F5F5F5F5F5F5F5F5F5F5F5F5F5F5F5F5F5F5F5F5F5F5F5F5F5E2F5F5F5F5F5F5F5F5F5F5F5F5F5F5F5F5E2F5F5F5E2E2EFF5F5F5E2F5F5F5F5F5F5F5F5F5F5F5F5F5F5F5F5E2F5F5F5F5F5F5F5F5F5F5F5F5F5F5F5F5F5F5F5F5F5F5F5F5
310
F5F5F5F5F5F5F5F5F5F5F5F5F5F5F5F5F5F5F5F5F5F5F5F5F5F5F5F5F5F5F5F5F5F5F5F5F5F5F5F5F5F5F5F5F5F5F5F5F5F5F5F5F5F5F5F5F5F5F5F5F5F5F5F5F5F5F5F5F5F5F5F5F5F5F5F5F5F5F5F5F5F5F5F5F5F5F5F5F5F5F5F5F5F5F5F5F5F5F5F5F5F5F5F5F5F5F5F5F5F5F5E2F5F5F5F5F5F5F5F5F5F5F5F5F5F5F5
310
F5E2F5F5F5E2E2EFF5F5F5E2F5F5F5F5F5F5F5F5F5F5F5F5F5F5F5F5E2F5F5F5F5F5F5F5F5F5F5F5F5F5F5F5F5F5F5F5F5F5F5F5F5F5F5F5F5F5F5F5F5F5F5F5F5F5F5F5F5F5F5F5F5F5F5F5F5F5F5F5F5F5F5F5F5F5F5F5F5F5F5F5F5F5F5F5F5F5F5F5F5F5F5F5F5F5F5F5F5F5F5F5F5F5F5F5F5F5F5F5F5F5F5F5F5F5F5
310
F5F5F5F5F5F5F5F5F5F5F5F5F5F5F5F5F5F5F5F5F5F5F5F5F5F5F5F5F5F5F5F5F5F5F5F5F5E2F5F5F5F5F5F5F5F5F5F5F5F5F5F5F5F5E2F5F5F5E2E2EFF5F5F5E2F5F5F5F5F5F5F5F5F5F5F5F5F5F5F5F5E2F5F5F5F5F5F5F5F5F5F5F5F5F5F5F5F5F5F5F5F5F5F5F5F5F5F5F5F5F5F5F5F5F5F5F5F5F5F5F5F5F5F5F5F5F5
310
F5F5F5F5F5F5F5F5F5F5F5F5F5F5F5F5F5F5F5F5F5F5F5F5F5F5F5F5F5F5F5F5F5F5F5F5F5F5F5F5F5F5F5F5F5F5F5F5F5F5F5F5F5F5F5F5F5F5F5F5F5F5F5F5F5F5F5F5F5F5F5F5F5F5F5F5F5F5F5F5F5F5F5F5F5F5F5F5F5F5E2F5F5F5F5F5F5F5F5F5F5F5F5F5F5F5F5E2F5F5F5E2E2EFF5F5F5E2F5F5F5F5F5F5F5F5F5
310
F5F5F5F5F5F5F5E2F5F5F5F5F5F5F5F5F5F5F5F5F5F5F5F5F5F5F5F5F5F5F5F5F5F5F5F5F5F5F5F5F5F5F5F5F5F5F5F5F5F5F5F5F5F5F5F5F5F5F5F5F5F5F5F5F5F5F5F5F5F5F5F5F5F5F5F5F5F5F5F5F5F5F5F5F5F5F5F5F5F5F5F5F5F5F5F5F5F5F5F5F5F5F5F5F5F5F5F5F5F5F5F5F5F5F5F5F5F5F5F5F5F5F5F5F5F5F5
310
F5F5F5F5F5F5F5F5F5F5F5F5F5F5F5F5E2F5F5F5F5F5F5F5F5F5F5F5F5F5F5F5F5E2F5F5F5E2E2EFF5F5F5E2F5F5F5F5F5F5F5F5F5F5F5F5F5F5F5F5E2F5F5F5F5F5F5F5F5F5F5F5F5F5F5F5F5F5F5F5F5F5F5F5F5F5F5F5F5F5F5F5F5F5F5F5F5F5F5F5F5F5F5F5F5F5F5F5F5F5F5F5F5F5F5F5F5F5F5F5F5F5F5F5F5F5F5
310
F5F5F5F5F5F5F5F5F5F5F5F5F5F5F5F5F5F5F5F5F5F5F5F5F5F5F5F5F5F5F5F5F5F5F5F5F5F5F5F5F5F5F5F5F5F5F5F5F5F5F5F5F5F5F5F5F5F5F5F5F5F5F5F5F5F5F5F5F5E2F5F5F5F5F5F5F5F5F5F5F5F5F5F5F5F5E2F5F5F5E2E2EFF5F5F5E2F5F5F5F5F5F5F5F5F5F5F5F5F5F5F5F5E2F5F5F5F5F5F5F5F5F5F5F5F5F5
310
F5F5F5F5F5F5F5F5F5F5F5F5F5F5F5F5F5F5F5F5F5F5F5F5F5F5F5F5F5F5F5F5F5F5F5F5F5F5F5F5F5F5F5F5F5F5F5F5F5F5F5F5F5F5F5F5F5F5F5F5F5F5F5F5F5F5F5F5F5F5F5F5F5F5F5F5F5F5F5F5F5F5F5F5F5F5F5F5F5F5F5F5F5F5F5F5F5F5F5F5F5F5F5F5F5F5F5F5F5F5F5F5F5F5F5F5F5F5F5F5F5F5E2F5F5F5F5
310
F5F5F5F5F5F5F5F5F5F5F5F5E2F5F5F5E2E2EFF5F5F5E2F5F5F5F5F5F5F5F5F5F5F5F5F5F5F5F5E2F5F5F5F5F5F5F5F5F5F5F5F5F5F5F5F5F5F5F5F5F5F5F5F5F5F5F5F5F5F5F5F5F5F5F5F5F5F5F5F5F5F5F5F5F5F5F5F5F5F5F5F5F5F5F5F5F5F5F5F5F5F5F5F5F5F5F5F5F5F5F5F5F5F5F5F5F5F5F5F5F5F5F5F5F5F5F5
310
F5F5F5F5F5F5F5F5F5F5F5F5F5F5F5F5F5F5F5F5F5F5F5F5F5F5F5F5F5F5F5F5F5F5F5F5F5F5F5F5F5F5F5F5F5F5F5F5E2F5F5F5F5F5F5F5F5F5F5F5F5F5F5F5F5E2F5F5F5E2E2EFF5F5F5E2F5F5F5F5F5F5F5F5F5F5F5F5F5F5F5F5E2F5F5F5F5F5F5F5F5F5F5F5F5F5F5F5F5F5F5F5F5F5F5F5F5F5F5F5F5F5F5F5F5F5F5
310
F5F5F5F5F5F5F5F5F5F5F5F5F5F5F5F5F5F5F5F5F5F5F5F5F5F5F5F5F5F5F5F5F5F5F5F5F5F5F5F5F5F5F5F5F5F5F5F5F5F5F5F5F5F5F5F5F5F5F5F5F5F5F5F5F5F5F5F5F5F5F5F5F5F5F5F5F5F5F5F5F5F5F5F5F5F5F5F5F5F5F5F5F5F5F5F5F5F5F5F5F5E2F5F5F5F5F5F5F5F5F5F5F5F5F5F5F5F5E2F5F5F5E2E2EFF5F5
310
F5E2F5F5F5F5F5F5F5F5F5F5F5F5F5F5F5F5E2F5F5F5F5F5F5F5F5F5F5F5F5F5F5F5F5F5F5F5F5F5F5F5F5F5F5F5F5F5F5F5F5F5F5F5F5F5F5F5F5F5F5F5F5F5F5F5F5F5F5F5F5F5F5F5F5F5F5F5F5F5F5F5F5F5F5F5F5F5F5F5F5F5F5F5F5F5F5F5F5F5F5F5F5F5F5F5F5F5F5F5F5F5F5F5F5F5F5F5F5F5F5F5F5F5F5F5F5
310
F5F5F5F5F5F5F5F5F5F5F5F5F5F5F5F5F5F5F5F5F5F5F5F5F5F5F5E2F5F5F5F5F5F5F5F5F5F5F5F5F5F5F5F5E2F5F5F5E2E2EFF5F5F5E2F5F5F5F5F5F5F5F5F5F5F5F5F5F5F5F5E2F5F5F5F5F5F5F5F5F5F5F5F5F5F5F5F5F5F5F5F5F5F5F5F5F5F5F5F5F5F5F5F5F5F5F5F5F5F5F5F5F5F5F5F5F5F5F5F5F5F5F5F5F5F5F5
310
F5F5F5F5F5F5F5F5F5F5F5F5F5F5F5F5F5F5F5F5F5F5F5F5F5F5F5F5F5F5F5F5F5F5F5F5F5F5F5F5F5F5F5F5F5F5F5F5F5F5F5F5F5F5F5F5F5F5F5F5F5F5F5F5F5F5F5F5F5F5F5F5F5F5F5F5F5F5F5F5E2F5F5F5F5F5F5F5F5F5F5F5F5F5F5F5F5E2F5F5F5E2E2EFF5F5F5E2F5F5F5F5F5F5F5F5F5F5F5F5F5F5F5F5E2F5F5
310
F5F5F5F5F5F5F5F5F5F5F5F5F5F5F5F5F5F5F5F5F5F5F5F5F5F5F5F5F5F5F5F5F5F5F5F5F5F5F5F5F5F5F5F5F5F5F5F5F5F5F5F5F5F5F5F5F5F5F5F5F5F5F5F5F5F5F5F5F5F5F5F5F5F5F5F5F5F5F5F5F5F5F5F5F5F5F5F5F5F5F5F5F5F5F5F5F5F5F5F5F5F5F5F5F5F5F5F5F5F5F5F5F5F5F5F5F5F5F5F5F5F5F5F5F5F5F5
310
F5F5F5F5F5F5E2F5F5F5F5F5F5F5F5F5F5F5F5F5F5F5F5E2F5F5F5E2E2EFF5F5F5E2F5F5F5F5F5F5F5F5F5F5F5F5F5F5F5F5E2F5F5F5F5F5F5F5F5F5F5F5F5F5F5F5F5F5F5F5F5F5F5F5F5F5F5F5F5F5F5F5F5F5F5F5F5F5F5F5F5F5F5F5F5F5F5F5F5F5F5F5F5F5F5F5F5F5F5F5F5F5F5F5F5F5F5F5F5F5F5F5F5F5F5F5F5
310
F5F5F5F5F5F5F5F5F5F5F5F5F5F5F5F5F5F5F5F5F5F5F5F5F5F5F5F5F5F5F5F5F5F5F5F5F5F5F5F5F5F5F5F5F5F5F5F5F5F5F5F5F5F5F5F5F5F5F5E2F5F5F5F5F5F5F5F5F5F5F5F5F5F5F5F5E2F5F5F5E2E2EFF5F5F5F5F5F5F5F5F5F5F5F5F5F5F5F5F5F5F5F5E2F5F5F5F5F5F5F5F5F5F5F5F5F5F5F5F5F5F5F5F5F5F5F5
310
F5F5F5F5F5F5F5F5F5F5F5F5F5F5F5F5F5F5F5F5F5F5F5F5F5F5F5F5F5F5F5F5F5F5F5F5F5F5F5F5F5F5F5F5F5F5F5F5F5F5F5F5F5F5F5F5F5F5F5F5F5F5F5F5F5F5F5F5F5F5F5F5F5F5F5F5F5F5F5F5F5F5F5F5F5F5F5F5F5F5F5F5F5F5F5F5F5F5F5F5F5F5F5F5F5F5F5F5F5F5F5F5E2F5F5F5F5F5F5F5F5F5F5F5F5F5F5
310
F5F5F5F5F5F5E2E2EFF5F5F5F5F5F5F5F5F5F5F5F5F5F5F5F5F5F5F5F5E2F5F5F5F5F5F5F5F5F5F5F5F5F5F5F5F5F5F5F5F5F5F5F5F5F5F5F5F5F5F5F5F5F5F5F5F5F5F5F5F5F5F5F5F5F5F5F5F5F5F5F5F5F5F5F5F5F5F5F5F5F5F5F5F5F5F5F5F5F5F5F5F5F5F5F5F5F5F5F5F5F5F5F5F5F5F5F5F5F5F5F5F5F5F5F5F5F5
310
F5F5F5F5F5F5F5F5F5F5F5F5F5F5F5F5F5F5F5F5F5F5F5F5F5F5F5F5F5F5F5F5F5F5F5F5F5F5E2F5F5F5F5F5F5F5F5F5F5F5F5F5F5F5F5F5F5F5F5E2E2EFF5F5F5F5F5F5F5F5F5F5F5F5F5F5F5F5F5F5F5F5E2F5F5F5F5F5F5F5F5F5F5F5F5F5F5F5F5F5F5F5F5F5F5F5F5F5F5F5F5F5F5F5F5F5F5F5F5F5F5F5F5F5F5F5F5
310
F5F5F5F5F5F5F5F5F5F5F5F5F5F5F5F5F5F5F5F5F5F5F5F5F5F5F5F5F5F5F5F5F5F5F5F5F5F5F5F5F5F5F5F5F5F5F5F5F5F5F5F5F5F5F5F5F5F5F5F5F5F5F5F5F5F5F5F5F5F5F5F5F5F5F5F5F5F5F5F5F5F5F5F5F5F5F5F5F5F5F5E2F5F5F5F5F5F5F5F5F5F5F5F5F5F5F5F5F5F5F5F5E2E2EFF5F5F5F5F5F5F5F5F5F5F5F5
310
F5F5F5F5F5F5F5F5E2F5F5F5F5F5F5F5F5F5F5F5F5F5F5F5F5F5F5F5F5F5F5F5F5F5F5F5F5F5F5F5F5F5F5F5F5F5F5F5F5F5F5F5F5F5F5F5F5F5F5F5F5F5F5F5F5F5F5F5F5F5F5F5F5F5F5F5F5F5F5F5F5F5F5F5F5F5F5F5F5F5F5F5F5F5F5F5F5F5F5F5F5F5F5F5F5F5F5F5F5F5F5F5F5F5F5F5F5F5F5F5F5F5F5F5F5F5F5
310
F5F5F5F5F5F5F5F5F5F5F5F5F5F5F5F5F5E2F5F5F5F5F5F5F5F5F5F5F5F5F5F5F5F5F5F5F5F5E2E2EFF5F5F5F5F5F5F5F5F5F5F5F5F5F5F5F5F5F5F5F5E2F5F5F5F5F5F5F5F5F5F5F5F5F5F5F5F5F5F5F5F5F5F5F5F5F5F5F5F5F5F5F5F5F5F5F5F5F5F5F5F5F5F5F5F5F5F5F5F5F5F5F5F5F5F5F5F5F5F5F5F5F5F5F5F5F5
310
F5F5F5F5F5F5F5F5F5F5F5F5F5F5F5F5F5F5F5F5F5F5F5F5F5F5F5F5F5F5F5F5F5F5F5F5F5F5F5F5F5F5F5F5F5F5F5F5F5F5F5F5F5F5F5F5F5F5F5F5F5F5F5F5F5F5F5F5F5F5E2F5F5F5F5F5F5F5F5F5F5F5F5F5F5F5F5F5F5F5F5E2E2EFF5F5F5F5F5F5F5F5F5F5F5F5F5F5F5F5F5F5F5F5E2F5F5F5F5F5F5F5F5F5F5F5F5
310
F5F5F5F5F5F5F5F5F5F5F5F5F5F5F5F5F5F5F5F5F5F5F5F5F5F5F5F5F5F5F5F5F5F5F5F5F5F5F5F5F5F5F5F5F5F5F5F5F5F5F5F5F5F5F5F5F5F5F5F5F5F5F5F5F5F5F5F5F5F5F5F5F5F5F5F5F5F5F5F5F5F5F5F5F5F5F5F5F5F5F5F5F5F5F5F5F5F5F5F5F5F5F5F5F5F5F5F5F5F5F5F5F5F5F5F5F5F5F5F5F5F5F5E2F5F5F5
310
F5F5F5F5F5F5F5F5F5F5F5F5F5F5F5F5F5E2E2EFF5F5F5F5F5F5F5F5F5F5F5F5F5F5F5F5F5F5F5F5E2F5F5F5F5F5F5F5F5F5F5F5F5F5F5F5F5F5F5F5F5F5F5F5F5F5F5F5F5F5F5F5F5F5F5F5F5F5F5F5F5F5F5F5F5F5F5F5F5F5F5F5F5F5F5F5F5F5F5F5F5F5F5F5F5F5F5F5F5F5F5F5F5F5F5F5F5F5F5F5F5F5F5F5F5F5F5
310
F5F5F5F5F5F5F5F5F5F5F5F5F5F5F5F5F5F5F5F5F5F5F5F5F5F5F5F5F5F5F5F5F5F5F5F5F5F5F5F5F5F5F5F5F5F5F5F5F5E2F5F5F5F5F5F5F5F5F5F5F5F5F5F5F5F5F5F5F5F5E2E2EFF5F5F5F5F5F5F5F5F5F5F5F5F5F5F5F5F5F5F5F5E2F5F5F5F5F5F5F5F5F5F5F5F5F5F5F5F5F5F5F5F5F5F5F5F5F5F5F5F5F5F5F5F5F5
310
F5F5F5F5F5F5F5F5F5F5F5F5F5F5F5F5F5F5F5F5F5F5F5F5F5F5F5F5F5F5F5F5F5F5F5F5F5F5F5F5F5F5F5F5F5F5F5F5F5F5F5F5F5F5F5F5F5F5F5F5F5F5F5F5F5F5F5F5F5F5F5F5F5F5F5F5F5F5F5F5F5F5F5F5F5F5F5F5F5F5F5F5F5F5F5F5F5F5F5F5F5F5E2F5F5F5F5F5F5F5F5F5F5F5F5F5F5F5F5F5F5F5F5E2E2EFF5
310
F5F5F5F5F5F5F5F5F5F5F5F5F5F5F5F5F5F5F5E2F5F5F5F5F5F5F5F5F5F5F5F5F5F5F5F5F5F5F5F5F5F5F5F5F5F5F5F5F5F5F5F5F5F5F5F5F5F5F5F5F5F5F5F5F5F5F5F5F5F5F5F5F5F5F5F5F5F5F5F5F5F5F5F5F5F5F5F5F5F5F5F5F5F5F5F5F5F5F5F5F5F5F5F5F5F5F5F5F5F5F5F5F5F5F5F5F5F5F5F5F5F5F5F5F5F5F5
310
F5F5F5F5F5F5F5F5F5F5F5F5F5F5F5F5F5F5F5F5F5F5F5F5F5F5F5F5E2F5F5F5F5F5F5F5F5F5F5F5F5F5F5F5F5F5F5F5F5E2E2EFF5F5F5E2F5F5F5F5F5F5F5F5F5F5F5F5F5F5F5F5E2F5F5F5F5F5F5F5F5F5F5F5F5F5F5F5F5F5F5F5F5F5F5F5F5F5F5F5F5F5F5F5F5F5F5F5F5F5F5F5F5F5F5F5F5F5F5F5F5F5F5F5F5F5F5
310
F5F5F5F5F5F5F5F5F5F5F5F5F5F5F5F5F5F5F5F5F5F5F5F5F5F5F5F5F5F5F5F5F5F5F5F5F5F5F5F5F5F5F5F5F5F5F5F5F5F5F5F5F5F5F5F5F5F5F5F5F5F5F5F5F5F5F5F5F5F5F5F5F5F5F5F5F5F5F5F5F5E2F5F5F5F5F5F5F5F5F5F5F5F5F5F5F5F5E2F5F5F5E2E2EFF5F5F5E2F5F5F5F5F5F5F5F5F5F5F5F5F5F5F5F5E2F5
310
F5F5F5F5F5F5F5F5F5F5F5F5F5F5F5F5F5F5F5F5F5F5F5F5F5F5F5F5F5F5F5F5F5F5F5F5F5F5F5F5F5F5F5F5F5F5F5F5F5F5F5F5F5F5F5F5F5F5F5F5F5F5F5F5F5F5F5F5F5F5F5F5F5F5F5F5F5F5F5F5F5F5F5F5F5F5F5F5F5F5F5F5F5F5F5F5F5F5F5F5F5F5F5F5F5F5F5F5F5F5F5F5F5F5F5F5F5F5F5F5F5F5F5F5F5F5F5
310
F5F5F5F5F5F5F5E2F5F5F5F5F5F5F5F5F5F5F5F5F5F5F5F5E2F5F5F5E2E2EFF5F5F5E2F5F5F5F5F5F5F5F5F5F5F5F5F5F5F5F5E2F5F5F5F5F5F5F5F5F5F5F5F5F5F5F5F5F5F5F5F5F5F5F5F5F5F5F5F5F5F5F5F5F5F5F5F5F5F5F5F5F5F5F5F5F5F5F5F5F5F5F5F5F5F5F5F5F5F5F5F5F5F5F5F5F5F5F5F5F5F5F5F5F5F5F5
310
F5F5F5F5F5F5F5F5F5F5F5F5F5F5F5F5F5F5F5F5F5F5F5F5F5F5F5F5F5F5F5F5F5F5F5F5F5F5F5F5F5F5F5F5F5F5F5F5F5F5F5F5F5F5F5F5F5F5F5F5E2F5F5F5F5F5F5F5F5F5F5F5F5F5F5F5F5E2F5F5F5E2E2EFF5F5F5E2F5F5F5F5F5F5F5F5F5F5F5F5F5F5F5F5E2F5F5F5F5F5F5F5F5F5F5F5F5F5F5F5F5F5F5F5F5F5F5
310
F5F5F5F5F5F5F5F5F5F5F5F5F5F5F5F5F5F5F5F5F5F5F5F5F5F5F5F5F5F5F5F5F5F5F5F5F5F5F5F5F5F5F5F5F5F5F5F5F5F5F5F5F5F5F5F5F5F5F5F5F5F5F5F5F5F5F5F5F5F5F5F5F5F5F5F5F5F5F5F5F5F5F5F5F5F5F5F5F5F5F5F5F5F5F5F5F5F5F5F5F5F5F5F5F5F5F5F5F5F5F5F5F5E2F5F5F5F5F5F5F5F5F5F5F5F5F5
310
F5F5F5E2F5F5F5E2E2EFF5F5F5E2F5F5F5F5F5F5F5F5F5F5F5F5F5F5F5F5E2F5F5F5F5F5F5F5F5F5F5F5F5F5F5F5F5F5F5F5F5F5F5F5F5F5F5F5F5F5F5F5F5F5F5F5F5F5F5F5F5F5F5F5F5F5F5F5F5F5F5F5F5F5F5F5F5F5F5F5F5F5F5F5F5F5F5F5F5F5F5F5F5F5F5F5F5F5F5F5F5F5F5F5F5F5F5F5F5F5F5F5F5F5F5F5F5
310
F5F5F5F5F5F5F5F5F5F5F5F5F5F5F5F5F5F5F5F5F5F5F5F5F5F5F5F5F5F5F5F5F5F5F5F5F5F5F5E2F5F5F5F5F5F5F5F5F5F5F5F5F5F5F5F5E2F5F5F5E2E2EFF5F5F5E2F5F5F5F5F5F5F5F5F5F5F5F5F5F5F5F5E2F5F5F5F5F5F5F5F5F5F5F5F5F5F5F5F5F5F5F5F5F5F5F5F5F5F5F5F5F5F5F5F5F5F5F5F5F5F5F5F5F5F5F5
310
F5F5F5F5F5F5F5F5F5F5F5F5F5F5F5F5F5F5F5F5F5F5F5F5F5F5F5F5F5F5F5F5F5F5F5F5F5F5F5F5F5F5F5F5F5F5F5F5F5F5F5F5F5F5F5F5F5F5F5F5F5F5F5F5F5F5F5F5F5F5F5F5F5F5F5F5F5F5F5F5F5F5F5F5F5F5F5F5F5F5F5F5E2F5F5F5F5F5F5F5F5F5F5F5F5F5F5F5F5E2F5F5F5E2E2EFF5F5F5E2F5F5F5F5F5F5F5
310
F5F5F5F5F5F5F5F5F5E2F5F5F5F5F5F5F5F5F5F5F5F5F5F5F5F5F5F5F5F5F5F5F5F5F5F5F5F5F5F5F5F5F5F5F5F5F5F5F5F5F5F5F5F5F5F5F5F5F5F5F5F5F5F5F5F5F5F5F5F5F5F5F5F5F5F5F5F5F5F5F5F5F5F5F5F5F5F5F5F5F5F5F5F5F5F5F5F5F5F5F5F5F5F5F5F5F5F5F5F5F5F5F5F5F5F5F5F5F5F5F5F5F5F5F5F5F5
310
F5F5F5F5F5F5F5F5F5F5F5F5F5F5F5F5F5F5E2F5F5F5F5F5F5F5F5F5F5F5F5F5F5F5F5E2F5F5F5E2E2EFF5F5F5E2F5F5F5F5F5F5F5F5F5F5F5F5F5F5F5F5E2F5F5F5F5F5F5F5F5F5F5F5F5F5F5F5F5F5F5F5F5F5F5F5F5F5F5F5F5F5F5F5F5F5F5F5F5F5F5F5F5F5F5F5F5F5F5F5F5F5F5F5F5F5F5F5F5F5F5F5F5F5F5F5F5
310
F5F5F5F5F5F5F5F5F5F5F5F5F5F5F5F5F5F5F5F5F5F5F5F5F5F5F5F5F5F5F5F5F5F5F5F5F5F5F5F5F5F5F5F5F5F5F5F5F5F5F5F5F5F5F5F5F5F5F5F5F5F5F5F5F5F5F5F5F5F5F5E2F5F5F5F5F5F5F5F5F5F5F5F5F5F5F5F5E2F5F5F5E2E2EFF5F5F5E2F5F5F5F5F5F5F5F5F5F5F5F5F5F5F5F5E2F5F5F5F5F5F5F5F5F5F5F5
310
F5F5F5F5F5F5F5F5F5F5F5F5F5F5F5F5F5F5F5F5F5F5F5F5F5F5F5F5F5F5F5F5F5F5F5F5F5F5F5F5F5F5F5F5F5F5F5F5F5F5F5F5F5F5F5F5F5F5F5F5F5F5F5F5F5F5F5F5F5F5F5F5F5F5F5F5F5F5F5F5F5F5F5F5F5F5F5F5F5F5F5F5F5F5F5F5F5F5F5F5F5F5F5F5F5F5F5F5F5F5F5F5F5F5F5F5F5F5F5F5F5F5F5F5E2F5F5
310
F5F5F5F5F5F5F5F5F5F5F5F5F5F5E2F5F5F5E2E2EFF5F5F5E2F5F5F5F5F5F5F5F5F5F5F5F5F5F5F5F5E2F5F5F5F5F5F5F5F5F5F5F5F5F5F5F5F5F5F5F5F5F5F5F5F5F5F5F5F5F5F5F5F5F5F5F5F5F5F5F5F5F5F5F5F5F5F5F5F5F5F5F5F5F5F5F5F5F5F5F5F5F5F5F5F5F5F5F5F5F5F5F5F5F5F5F5F5F5F5F5F5F5F5F5F5F5
310
F5F5F5F5F5F5F5F5F5F5F5F5F5F5F5F5F5F5F5F5F5F5F5F5F5F5F5F5F5F5F5F5F5F5F5F5F5F5F5F5F5F5F5F5F5F5F5F5F5F5E2F5F5F5F5F5F5F5F5F5F5F5F5F5F5F5F5E2F5F5F5E2E2EFF5F5F5E2F5F5F5F5F5F5F5F5F5F5F5F5F5F5F5F5E2F5F5F5F5F5F5F5F5F5F5F5F5F5F5F5F5F5F5F5F5F5F5F5F5F5F5F5F5F5F5F5F5
310
F5F5F5F5F5F5F5F5F5F5F5F5F5F5F5F5F5F5F5F5F5F5F5F5F5F5F5F5F5F5F5F5F5F5F5F5F5F5F5F5F5F5F5F5F5F5F5F5F5F5F5F5F5F5F5F5F5F5F5F5F5F5F5F5F5F5F5F5F5F5F5F5F5F5F5F5F5F5F5F5F5F5F5F5F5F5F5F5F5F5F5F5F5F5F5F5F5F5F5F5F5F5F5E2F5F5F5F5F5F5F5F5F5F5F5F5F5F5F5F5E2F5F5F5E2E2EF
310
F5F5F5E2F5F5F5F5F5F5F5F5F5F5F5F5F5F5F5F5E2F5F5F5F5F5F5F5F5F5F5F5F5F5F5F5F5F5F5F5F5F5F5F5F5F5F5F5F5F5F5F5F5F5F5F5F5F5F5F5F5F5F5F5F5F5F5F5F5F5F5F5F5F5F5F5F5F5F5F5F5F5F5F5F5F5F5F5F5F5F5F5F5F5F5F5F5F5F5F5F5F5F5F5F5F5F5F5F5F5F5F5F5F5F5F5F5F5F5F5F5F5F5F5F5F5F5
310
F5F5F5F5F5F5F5F5F5F5F5F5F5F5F5F5F5F5F5F5F5F5F5F5F5F5F5F5F5E2F5F5F5F5F5F5F5F5F5F5F5F5F5F5F5F5E2F5F5F5E2E2EFF5F5F5E2F5F5F5F5F5F5F5F5F5F5F5F5F5F5F5F5E2F5F5F5F5F5F5F5F5F5F5F5F5F5F5F5F5F5F5F5F5F5F5F5F5F5F5F5F5F5F5F5F5F5F5F5F5F5F5F5F5F5F5F5F5F5F5F5F5F5F5F5F5F5
310
F5F5F5F5F5F5F5F5F5F5F5F5F5F5F5F5F5F5F5F5F5F5F5F5F5F5F5F5F5F5F5F5F5F5F5F5F5F5F5F5F5F5F5F5F5F5F5F5F5F5F5F5F5F5F5F5F5F5F5F5F5F5F5F5F5F5F5F5F5F5F5F5F5F5F5F5F5F5F5F5F5F5E2F5F5F5F5F5F5F5F5F5F5F5F5F5F5F5F5E2F5F5F5E2E2EFF5F5F5E2F5F5F5F5F5F5F5F5F5F5F5F5F5F5F5F5E2
310
F5F5F5F5F5F5F5F5F5F5F5F5F5F5F5F5F5F5F5F5F5F5F5F5F5F5F5F5F5F5F5F5F5F5F5F5F5F5F5F5F5F5F5F5F5F5F5F5F5F5F5F5F5F5F5F5F5F5F5F5F5F5F5F5F5F5F5F5F5F5F5F5F5F5F5F5F5F5F5F5F5F5F5F5F5F5F5F5F5F5F5F5F5F5F5F5F5F5F5F5F5F5F5F5F5F5F5F5F5F5F5F5F5F5F5F5F5F5F5F5F5F5F5F5F5F5F5
310
F5F5F5F5F5F5F5F5E2F5F5F5F5F5F5F5F5F5F5F5F5F5F5F5F5E2F5F5F5E2E2EFF5F5F5E2F5F5F5F5F5F5F5F5F5F5F5F5F5F5F5F5E2F5F5F5F5F5F5F5F5F5F5F5F5F5F5F5F5F5F5F5F5F5F5F5F5F5F5F5F5F5F5F5F5F5F5F5F5F5F5F5F5F5F5F5F5F5F5F5F5F5F5F5F5F5F5F5F5F5F5F5F5F5F5F5F5F5F5F5F5F5F5F5F5F5F5
310
F5F5F5F5F5F5F5F5F5F5F5F5F5F5F5F5F5F5F5F5F5F5F5F5F5F5F5F5F5F5F5F5F5F5F5F5F5F5F5F5F5F5F5F5F5F5F5F5F5F5F5F5F5F5F5F5F5F5F5F5F5E2F5F5F5F5F5F5F5F5F5F5F5F5F5F5F5F5E2F5F5F5E2E2EFF5F5F5E2F5F5F5F5F5F5F5F5F5F5F5F5F5F5F5F5E2F5F5F5F5F5F5F5F5F5F5F5F5F5F5F5F5F5F5F5F5F5
310
F5F5F5F5F5F5F5F5F5F5F5F5F5F5F5F5F5F5F5F5F5F5F5F5F5F5F5F5F5F5F5F5F5F5F5F5F5F5F5F5F5F5F5F5F5F5F5F5F5F5F5F5F5F5F5F5F5F5F5F5F5F5F5F5F5F5F5F5F5F5F5F5F5F5F5F5F5F5F5F5F5F5F5F5F5F5F5F5F5F5F5F5F5F5F5F5F5F5F5F5F5F5F5F5F5F5F5F5F5F5F5F5F5F5E2F5F5F5F5F5F5F5F5F5F5F5F5
310
F5F5F5F5E2F5F5F5E2E2EFF5F5F5E2F5F5F5F5F5F5F5F5F5F5F5F5F5F5F5F5E2F5F5F5F5F5F5F5F5F5F5F5F5F5F5F5F5F5F5F5F5F5F5F5F5F5F5F5F5F5F5F5F5F5F5F5F5F5F5F5F5F5F5F5F5F5F5F5F5F5F5F5F5F5F5F5F5F5F5F5F5F5F5F5F5F5F5F5F5F5F5F5F5F5F5F5F5F5F5F5F5F5F5F5F5F5F5F5F5F5F5F5F5F5F5F5
310
F5F5F5F5F5F5F5F5F5F5F5F5F5F5F5F5F5F5F5F5F5F5F5F5F5F5F5F5F5F5F5F5F5F5F5F5F5F5F5F5E2F5F5F5F5F5F5F5F5F5F5F5F5F5F5F5F5E2F5F5F5E2E2EFF5F5F5F5F5F5F5F5F5F5F5F5F5F5F5F5F5F5F5F5E2F5F5F5F5F5F5F5F5F5F5F5F5F5F5F5F5F5F5F5F5F5F5F5F5F5F5F5F5F5F5F5F5F5F5F5F5F5F5F5F5F5F5
310
F5F5F5F5F5F5F5F5F5F5F5F5F5F5F5F5F5F5F5F5F5F5F5F5F5F5F5F5F5F5F5F5F5F5F5F5F5F5F5F5F5F5F5F5F5F5F5F5F5F5F5F5F5F5F5F5F5F5F5F5F5F5F5F5F5F5F5F5F5F5F5F5F5F5F5F5F5F5F5F5F5F5F5F5F5F5F5F5F5F5F5F5F5E2F5F5F5F5F5F5F5F5F5F5F5F5F5F5F5F5F5F5F5F5E2E2EFF5F5F5F5F5F5F5F5F5F5
310
F5F5F5F5F5F5F5F5F5F5E2F5F5F5F5F5F5F5F5F5F5F5F5F5F5F5F5F5F5F5F5F5F5F5F5F5F5F5F5F5F5F5F5F5F5F5F5F5F5F5F5F5F5F5F5F5F5F5F5F5F5F5F5F5F5F5F5F5F5F5F5F5F5F5F5F5F5F5F5F5F5F5F5F5F5F5F5F5F5F5F5F5F5F5F5F5F5F5F5F5F5F5F5F5F5F5F5F5F5F5F5F5F5F5F5F5F5F5F5F5F5F5F5F5F5F5F5
310
F5F5F5F5F5F5F5F5F5F5F5F5F5F5F5F5F5F5F5E2F5F5F5F5F5F5F5F5F5F5F5F5F5F5F5F5F5F5F5F5E2E2EFF5F5F5F5F5F5F5F5F5F5F5F5F5F5F5F5F5F5F5F5E2F5F5F5F5F5F5F5F5F5F5F5F5F5F5F5F5F5F5F5F5F5F5F5F5F5F5F5F5F5F5F5F5F5F5F5F5F5F5F5F5F5F5F5F5F5F5F5F5F5F5F5F5F5F5F5F5F5F5F5F5F5F5F5
310
F5F5F5F5F5F5F5F5F5F5F5F5F5F5F5F5F5F5F5F5F5F5F5F5F5F5F5F5F5F5F5F5F5F5F5F5F5F5F5F5F5F5F5F5F5F5F5F5F5F5F5F5F5F5F5F5F5F5F5F5F5F5F5F5F5F5F5F5F5F5F5F5E2F5F5F5F5F5F5F5F5F5F5F5F5F5F5F5F5F5F5F5F5E2E2EFF5F5F5F5F5F5F5F5F5F5F5F5F5F5F5F5F5F5F5F5E2F5F5F5F5F5F5F5F5F5F5
310
F5F5F5F5F5F5F5F5F5F5F5F5F5F5F5F5F5F5F5F5F5F5F5F5F5F5F5F5F5F5F5F5F5F5F5F5F5F5F5F5F5F5F5F5F5F5F5F5F5F5F5F5F5F5F5F5F5F5F5F5F5F5F5F5F5F5F5F5F5F5F5F5F5F5F5F5F5F5F5F5F5F5F5F5F5F5F5F5F5F5F5F5F5F5F5F5F5F5F5F5F5F5F5F5F5F5F5F5F5F5F5F5F5F5F5F5F5F5F5F5F5F5F5F5F5E2F5
310
F5F5F5F5F5F5F5F5F5F5F5F5F5F5F5F5F5F5F5E2E2EFF5F5F5F5F5F5F5F5F5F5F5F5F5F5F5F5F5F5F5F5E2F5F5F5F5F5F5F5F5F5F5F5F5F5F5F5F5F5F5F5F5F5F5F5F5F5F5F5F5F5F5F5F5F5F5F5F5F5F5F5F5F5F5F5F5F5F5F5F5F5F5F5F5F5F5F5F5F5F5F5F5F5F5F5F5F5F5F5F5F5F5F5F5F5F5F5F5F5F5F5F5F5F5F5F5
310
F5F5F5F5F5F5F5F5F5F5F5F5F5F5F5F5F5F5F5F5F5F5F5F5F5F5F5F5F5F5F5F5F5F5F5F5F5F5F5F5F5F5F5F5F5F5F5F5F5F5F5E2F5F5F5F5F5F5F5F5F5F5F5F5F5F5F5F5F5F5F5F5E2E2EFF5F5F5F5F5F5F5F5F5F5F5F5F5F5F5F5F5F5F5F5E2F5F5F5F5F5F5F5F5F5F5F5F5F5F5F5F5F5F5F5F5F5F5F5F5F5F5F5F5F5F5F5
310
F5F5F5F5F5F5F5F5F5F5F5F5F5F5F5F5F5F5F5F5F5F5F5F5F5F5F5F5F5F5F5F5F5F5F5F5F5F5F5F5F5F5F5F5F5F5F5F5F5F5F5F5F5F5F5F5F5F5F5F5F5F5F5F5F5F5F5F5F5F5F5F5F5F5F5F5F5F5F5F5F5F5F5F5F5F5F5F5F5F5F5F5F5F5F5F5F5F5F5F5F5F5F5F5E2F5F5F5F5F5F5F5F5F5F5F5F5F5F5F5F5F5F5F5F5E2E2
310
EFF5F5F5F5F5F5F5F5F5F5F5F5F5F5F5F5F5F5F5F5E2F5F5F5F5F5F5F5F5F5F5F5F5F5F5F5F5F5F5F5F5F5F5F5F5F5F5F5F5F5F5F5F5F5F5F5F5F5F5F5F5F5F5F5F5F5F5F5F5F5F5F5F5F5F5F5F5F5F5F5F5F5F5F5F5F5F5F5F5F5F5F5F5F5F5F5F5F5F5F5F5F5F5F5F5F5F5F5F5F5F5F5F5F5F5F5F5F5F5F5F5F5F5F5F5F5
310
F5F5F5F5F5F5F5F5F5F5F5F5F5F5F5F5F5F5F5F5F5F5F5F5F5F5F5F5F5F5E2F5F5F5F5F5F5F5F5F5F5F5F5F5F5F5F5F5F5F5F5E2E2EFF5F5F5F5F5F5F5F5F5F5F5F5F5F5F5F5F5F5F5F5E2F5F5F5F5F5F5F5F5F5F5F5F5F5F5F5F5F5F5F5F5F5F5F5F5F5F5F5F5F5F5F5F5F5F5F5F5F5F5F5F5F5F5F5F5F5F5F5F5F5F5F5F5
310
F5F5F5F5F5F5F5F5F5F5F5F5F5F5F5F5F5F5F5F5F5F5F5F5F5F5F5F5F5F5F5F5F5F5F5F5F5F5F5F5F5F5F5F5F5F5F5F5F5F5F5F5F5F5F5F5F5F5F5F5F5F5F5F5F5F5F5F5F5F5F5F5F5F5F5F5F5F5F5F5F5F5F5E2F5F5F5F5F5F5F5F5F5F5F5F5F5F5F5F5F5F5F5F5E2E2EFF5F5F5F5F5F5F5F5F5F5F5F5F5F5F5F5F5F5F5F5
310
E2F5F5F5F5F5F5F5F5F5F5F5F5F5F5F5F5F5F5F5F5F5F5F5F5F5F5F5F5F5F5F5F5F5F5F5F5F5F5F5F5F5F5F5F5F5F5F5F5F5F5F5F5F5F5F5F5F5F5F5F5F5F5F5F5F5F5F5F5F5F5F5F5F5F5F5F5F5F5F5F5F5F5F5F5F5F5F5F5F5F5F5F5F5F5F5F5F5F5F5F5F5F5F5F5F5F5F5F5F5F5F5F5F5F5F5F5F5F5F5F5F5F5F5F5F5F5
310
F5F5F5F5F5F5F5F5F5E2F5F5F5F5F5F5F5F5F5F5F5F5F5F5F5F5F5F5F5F5E2E2EFF5F5F5E2F5F5F5F5F5F5F5F5F5F5F5F5F5F5F5F5E2F5F5F5F5F5F5F5F5F5F5F5F5F5F5F5F5F5F5F5F5F5F5F5F5F5F5F5F5F5F5F5F5F5F5F5F5F5F5F5F5F5F5F5F5F5F5F5F5F5F5F5F5F5F5F5F5F5F5F5F5F5F5F5F5F5F5F5F5F5F5F5F5F5
310
F5F5F5F5F5F5F5F5F5F5F5F5F5F5F5F5F5F5F5F5F5F5F5F5F5F5F5F5F5F5F5F5F5F5F5F5F5F5F5F5F5F5F5F5F5F5F5F5F5F5F5F5F5F5F5F5F5F5F5F5F5F5E2F5F5F5F5F5F5F5F5F5F5F5F5F5F5F5F5E2F5F5F5E2E2EFF5F5F5E2F5F5F5F5F5F5F5F5F5F5F5F5F5F5F5F5E2F5F5F5F5F5F5F5F5F5F5F5F5F5F5F5F5F5F5F5F5
310
F5F5F5F5F5F5F5F5F5F5F5F5F5F5F5F5F5F5F5F5F5F5F5F5F5F5F5F5F5F5F5F5F5F5F5F5F5F5F5F5F5F5F5F5F5F5F5F5F5F5F5F5F5F5F5F5F5F5F5F5F5F5F5F5F5F5F5F5F5F5F5F5F5F5F5F5F5F5F5F5F5F5F5F5F5F5F5F5F5F5F5F5F5F5F5F5F5F5F5F5F5F5F5F5F5F5F5F5F5F5F5F5F5F5F5E2F5F5F5F5F5F5F5F5F5F5F5
310
F5F5F5F5F5E2F5F5F5E2E2EFF5F5F5E2F5F5F5F5F5F5F5F5F5F5F5F5F5F5F5F5E2F5F5F5F5F5F5F5F5F5F5F5F5F5F5F5F5F5F5F5F5F5F5F5F5F5F5F5F5F5F5F5F5F5F5F5F5F5F5F5F5F5F5F5F5F5F5F5F5F5F5F5F5F5F5F5F5F5F5F5F5F5F5F5F5F5F5F5F5F5F5F5F5F5F5F5F5F5F5F5F5F5F5F5F5F5F5F5F5F5F5F5F5F5F5
310
F5F5F5F5F5F5F5F5F5F5F5F5F5F5F5F5F5F5F5F5F5F5F5F5F5F5F5F5F5F5F5F5F5F5F5F5F5F5F5F5F5E2F5F5F5F5F5F5F5F5F5F5F5F5F5F5F5F5E2F5F5F5E2E2EFF5F5F5E2F5F5F5F5F5F5F5F5F5F5F5F5F5F5F5F5E2F5F5F5F5F5F5F5F5F5F5F5F5F5F5F5F5F5F5F5F5F5F5F5F5F5F5F5F5F5F5F5F5F5F5F5F5F5F5F5F5F5
310
F5F5F5F5F5F5F5F5F5F5F5F5F5F5F5F5F5F5F5F5F5F5F5F5F5F5F5F5F5F5F5F5F5F5F5F5F5F5F5F5F5F5F5F5F5F5F5F5F5F5F5F5F5F5F5F5F5F5F5F5F5F5F5F5F5F5F5F5F5F5F5F5F5F5F5F5F5F5F5F5F5F5F5F5F5F5F5F5F5F5F5F5F5F5E2F5F5F5F5F5F5F5F5F5F5F5F5F5F5F5F5E2F5F5F5E2E2EFF5F5F5E2F5F5F5F5F5
310
F5F5F5F5F5F5F5F5F5F5F5E2F5F5F5F5F5F5F5F5F5F5F5F5F5F5F5F5F5F5F5F5F5F5F5F5F5F5F5F5F5F5F5F5F5F5F5F5F5F5F5F5F5F5F5F5F5F5F5F5F5F5F5F5F5F5F5F5F5F5F5F5F5F5F5F5F5F5F5F5F5F5F5F5F5F5F5F5F5F5F5F5F5F5F5F5F5F5F5F5F5F5F5F5F5F5F5F5F5F5F5F5F5F5F5F5F5F5F5F5F5F5F5F5F5F5F5
310
F5F5F5F5F5F5F5F5F5F5F5F5F5F5F5F5F5F5F5F5E2F5F5F5F5F5F5F5F5F5F5F5F5F5F5F5F5E2F5F5F5E2E2EFF5F5F5E2F5F5F5F5F5F5F5F5F5F5F5F5F5F5F5F5E2F5F5F5F5F5F5F5F5F5F5F5F5F5F5F5F5F5F5F5F5F5F5F5F5F5F5F5F5F5F5F5F5F5F5F5F5F5F5F5F5F5F5F5F5F5F5F5F5F5F5F5F5F5F5F5F5F5F5F5F5F5F5
310
F5F5F5F5F5F5F5F5F5F5F5F5F5F5F5F5F5F5F5F5F5F5F5F5F5F5F5F5F5F5F5F5F5F5F5F5F5F5F5F5F5F5F5F5F5F5F5F5F5F5F5F5F5F5F5F5F5F5F5F5F5F5F5F5F5F5F5F5F5F5F5F5F5E2F5F5F5F5F5F5F5F5F5F5F5F5F5F5F5F5E2F5F5F5E2E2EFF5F5F5E2F5F5F5F5F5F5F5F5F5F5F5F5F5F5F5F5E2F5F5F5F5F5F5F5F5F5
310
F5F5F5F5F5F5F5F5F5F5F5F5F5F5F5F5F5F5F5F5F5F5F5F5F5F5F5F5F5F5F5F5F5F5F5F5F5F5F5F5F5F5F5F5F5F5F5F5F5F5F5F5F5F5F5F5F5F5F5F5F5F5F5F5F5F5F5F5F5F5F5F5F5F5F5F5F5F5F5F5F5F5F5F5F5F5F5F5F5F5F5F5F5F5F5F5F5F5F5F5F5F5F5F5F5F5F5F5F5F5F5F5F5F5F5F5F5F5F5F5F5F5F5F5F5F5E2
310
F5F5F5F5F5F5F5F5F5F5F5F5F5F5F5F5E2F5F5F5E2E2EFF5F5F5E2F5F5F5F5F5F5F5F5F5F5F5F5F5F5F5F5E2F5F5F5F5F5F5F5F5F5F5F5F5F5F5F5F5F5F5F5F5F5F5F5F5F5F5F5F5F5F5F5F5F5F5F5F5F5F5F5F5F5F5F5F5F5F5F5F5F5F5F5F5F5F5F5F5F5F5F5F5F5F5F5F5F5F5F5F5F5F5F5F5F5F5F5F5F5F5F5F5F5F5F5
310
F5F5F5F5F5F5F5F5F5F5F5F5F5F5F5F5F5F5F5F5F5F5F5F5F5F5F5F5F5F5F5F5F5F5F5F5F5F5F5F5F5F5F5F5F5F5F5F5F5F5F5F5E2F5F5F5F5F5F5F5F5F5F5F5F5F5F5F5F5E2F5F5F5E2E2EFF5F5F5E2F5F5F5F5F5F5F5F5F5F5F5F5F5F5F5F5E2F5F5F5F5F5F5F5F5F5F5F5F5F5F5F5F5F5F5F5F5F5F5F5F5F5F5F5F5F5F5
310
F5F5F5F5F5F5F5F5F5F5F5F5F5F5F5F5F5F5F5F5F5F5F5F5F5F5F5F5F5F5F5F5F5F5F5F5F5F5F5F5F5F5F5F5F5F5F5F5F5F5F5F5F5F5F5F5F5F5F5F5F5F5F5F5F5F5F5F5F5F5F5F5F5F5F5F5F5F5F5F5F5F5F5F5F5F5F5F5F5F5F5F5F5F5F5F5F5F5F5F5F5F5F5F5F5E2F5F5F5F5F5F5F5F5F5F5F5F5F5F5F5F5E2F5F5F5E2
310
E2EFF5F5F5E2F5F5F5F5F5F5F5F5F5F5F5F5F5F5F5F5E2F5F5F5F5F5F5F5F5F5F5F5F5F5F5F5F5F5F5F5F5F5F5F5F5F5F5F5F5F5F5F5F5F5F5F5F5F5F5F5F5F5F5F5F5F5F5F5F5F5F5F5F5F5F5F5F5F5F5F5F5F5F5F5F5F5F5F5F5F5F5F5F5F5F5F5F5F5F5F5F5F5F5F5F5F5F5F5F5F5F5F5F5F5F5F5F5F5F5F5F5F5F5F5F5
310
F5F5F5F5F5F5F5F5F5F5F5F5F5F5F5F5F5F5F5F5F5F5F5F5F5F5F5F5F5F5F5E2F5F5F5F5F5F5F5F5F5F5F5F5F5F5F5F5E2F5F5F5E2E2EFF5F5F5E2F5F5F5F5F5F5F5F5F5F5F5F5F5F5F5F5E2F5F5F5F5F5F5F5F5F5F5F5F5F5F5F5F5F5F5F5F5F5F5F5F5F5F5F5F5F5F5F5F5F5F5F5F5F5F5F5F5F5F5F5F5F5F5F5F5F5F5F5
310
F5F5F5F5F5F5F5F5F5F5F5F5F5F5F5F5F5F5F5F5F5F5F5F5F5F5F5F5F5F5F5F5F5F5F5F5F5F5F5F5F5F5F5F5F5F5F5F5F5F5F5F5F5F5F5F5F5F5F5F5F5F5F5F5F5F5F5F5F5F5F5F5F5F5F5F5F5F5F5F5F5F5F5F5E2F5F5F5F5F5F5F5F5F5F5F5F5F5F5F5F5E2F5F5F5E2E2EFF5F5F5E2F5F5F5F5F5F5F5F5F5F5F5F5F5F5F5
310
F5E2F5F5F5F5F5F5F5F5F5F5F5F5F5F5F5F5F5F5F5F5F5F5F5F5F5F5F5F5F5F5F5F5F5F5F5F5F5F5F5F5F5F5F5F5F5F5F5F5F5F5F5F5F5F5F5F5F5F5F5F5F5F5F5F5F5F5F5F5F5F5F5F5F5F5F5F5F5F5F5F5F5F5F5F5F5F5F5F5F5F5F5F5F5F5F5F5F5F5F5F5F5F5F5F5F5F5F5F5F5F5F5F5F5F5F5F5F5F5F5F5F5F5F5F5F5
310
F5F5F5F5F5F5F5F5F5F5E2F5F5F5F5F5F5F5F5F5F5F5F5F5F5F5F5E2F5F5F5E2E2EFF5F5F5E2F5F5F5F5F5F5F5F5F5F5F5F5F5F5F5F5E2F5F5F5F5F5F5F5F5F5F5F5F5F5F5F5F5F5F5F5F5F5F5F5F5F5F5F5F5F5F5F5F5F5F5F5F5F5F5F5F5F5F5F5F5F5F5F5F5F5F5F5F5F5F5F5F5F5F5F5F5F5F5F5F5F5F5F5F5F5F5F5F5
310
F5F5F5F5F5F5F5F5F5F5F5F5F5F5F5F5F5F5F5F5F5F5F5F5F5F5F5F5F5F5F5F5F5F5F5F5F5F5F5F5F5F5F5F5F5F5F5F5F5F5F5F5F5F5F5F5F5F5F5F5F5F5F5E2F5F5F5F5F5F5F5F5F5F5F5F5F5F5F5F5E2F5F5F5E2E2EFF5F5F5E2F5F5F5F5F5F5F5F5F5F5F5F5F5F5F5F5E2F5F5F5F5F5F5F5F5F5F5F5F5F5F5F5F5F5F5F5
310
F5F5F5F5F5F5F5F5F5F5F5F5F5F5F5F5F5F5F5F5F5F5F5F5F5F5F5F5F5F5F5F5F5F5F5F5F5F5F5F5F5F5F5F5F5F5F5F5F5F5F5F5F5F5F5F5F5F5F5F5F5F5F5F5F5F5F5F5F5F5F5F5F5F5F5F5F5F5F5F5F5F5F5F5F5F5F5F5F5F5F5F5F5F5F5F5F5F5F5F5F5F5F5F5F5F5F5F5F5F5F5F5F5F5F5F5E2F5F5F5F5F5F5F5F5F5F5
310
F5F5F5F5F5F5E2F5F5F5E2E2EFF5F5F5E2F5F5F5F5F5F5F5F5F5F5F5F5F5F5F5F5E2F5F5F5F5F5F5F5F5F5F5F5F5F5F5F5F5F5F5F5F5F5F5F5F5F5F5F5F5F5F5F5F5F5F5F5F5F5F5F5F5F5F5F5F5F5F5F5F5F5F5F5F5F5F5F5F5F5F5F5F5F5F5F5F5F5F5F5F5F5F5F5F5F5F5F5F5F5F5F5F5F5F5F5F5F5F5F5F5F5F5F5F5F5
310
F5F5F5F5F5F5F5F5F5F5F5F5F5F5F5F5F5F5F5F5F5F5F5F5F5F5F5F5F5F5F5F5F5F5F5F5F5F5F5F5F5F5E2F5F5F5F5F5F5F5F5F5F5F5F5F5F5F5F5E2F5F5F5E2E2EFF5F5F5E2F5F5F5F5F5F5F5F5F5F5F5F5F5F5F5F5E2F5F5F5F5F5F5F5F5F5F5F5F5F5F5F5F5F5F5F5F5F5F5F5F5F5F5F5F5F5F5F5F5F5F5F5F5F5F5F5F5
310
F5F5F5F5F5F5F5F5F5F5F5F5F5F5F5F5F5F5F5F5F5F5F5F5F5F5F5F5F5F5F5F5F5F5F5F5F5F5F5F5F5F5F5F5F5F5F5F5F5F5F5F5F5F5F5F5F5F5F5F5F5F5F5F5F5F5F5F5F5F5F5F5F5F5F5F5F5F5F5F5F5F5F5F5F5F5F5F5F5F5F5F5F5F5F5E2F5F5F5F5F5F5F5F5F5F5F5F5F5F5F5F5E2F5F5F5E2E2EFF5F5F5E2F5F5F5F5
310
F5F5F5F5F5F5F5F5F5F5F5F5E2F5F5F5F5F5F5F5F5F5F5F5F5F5F5F5F5F5F5F5F5F5F5F5F5F5F5F5F5F5F5F5F5F5F5F5F5F5F5F5F5F5F5F5F5F5F5F5F5F5F5F5F5F5F5F5F5F5F5F5F5F5F5F5F5F5F5F5F5F5F5F5F5F5F5F5F5F5F5F5F5F5F5F5F5F5F5F5F5F5F5F5F5F5F5F5F5F5F5F5F5F5F5F5F5F5F5F5F5F5F5F5F5F5F5
310
F5F5F5F5F5F5F5F5F5F5F5F5F5F5F5F5F5F5F5F5F5E2F5F5F5F5F5F5F5F5F5F5F5F5F5F5F5F5E2F5F5F5E2E2EFF5F5F5F5F5F5F5F5F5F5F5F5F5F5F5F5F5F5F5F5E2F5F5F5F5F5F5F5F5F5F5F5F5F5F5F5F5F5F5F5F5F5F5F5F5F5F5F5F5F5F5F5F5F5F5F5F5F5F5F5F5F5F5F5F5F5F5F5F5F5F5F5F5F5F5F5F5F5F5F5F5F5
310
F5F5F5F5F5F5F5F5F5F5F5F5F5F5F5F5F5F5F5F5F5F5F5F5F5F5F5F5F5F5F5F5F5F5F5F5F5F5F5F5F5F5F5F5F5F5F5F5F5F5F5F5F5F5F5F5F5F5F5F5F5F5F5F5F5F5F5F5F5F5F5F5F5F5E2F5F5F5F5F5F5F5F5F5F5F5F5F5F5F5F5F5F5F5F5E2E2EFF5F5F5F5F5F5F5F5F5F5F5F5F5F5F5F5F5F5F5F5E2F5F5F5F5F5F5F5F5
310
F5F5F5F5F5F5F5F5F5F5F5F5F5F5F5F5F5F5F5F5F5F5F5F5F5F5F5F5F5F5F5F5F5F5F5F5F5F5F5F5F5F5F5F5F5F5F5F5F5F5F5F5F5F5F5F5F5F5F5F5F5F5F5F5F5F5F5F5F5F5F5F5F5F5F5F5F5F5F5F5F5F5F5F5F5F5F5F5F5F5F5F5F5F5F5F5F5F5F5F5F5F5F5F5F5F5F5F5F5F5F5F5F5F5F5F5F5F5F5F5F5F5F5F5F5F5F5
310
E2F5F5F5F5F5F5F5F5F5F5F5F5F5F5F5F5F5F5F5F5E2E2EFF5F5F5F5F5F5F5F5F5F5F5F5F5F5F5F5F5F5F5F5E2F5F5F5F5F5F5F5F5F5F5F5F5F5F5F5F5F5F5F5F5F5F5F5F5F5F5F5F5F5F5F5F5F5F5F5F5F5F5F5F5F5F5F5F5F5F5F5F5F5F5F5F5F5F5F5F5F5F5F5F5F5F5F5F5F5F5F5F5F5F5F5F5F5F5F5F5F5F5F5F5F5F5
310
F5F5F5F5F5F5F5F5F5F5F5F5F5F5F5F5F5F5F5F5F5F5F5F5F5F5F5F5F5F5F5F5F5F5F5F5F5F5F5F5F5F5F5F5F5F5F5F5F5F5F5F5F5E2F5F5F5F5F5F5F5F5F5F5F5F5F5F5F5F5F5F5F5F5E2E2EFF5F5F5F5F5F5F5F5F5F5F5F5F5F5F5F5F5F5F5F5E2F5F5F5F5F5F5F5F5F5F5F5F5F5F5F5F5F5F5F5F5F5F5F5F5F5F5F5F5F5
310
F5F5F5F5F5F5F5F5F5F5F5F5F5F5F5F5F5F5F5F5F5F5F5F5F5F5F5F5F5F5F5F5F5F5F5F5F5F5F5F5F5F5F5F5F5F5F5F5F5F5F5F5F5F5F5F5F5F5F5F5F5F5F5F5F5F5F5F5F5F5F5F5F5F5F5F5F5F5F5F5F5F5F5F5F5F5F5F5F5F5F5F5F5F5F5F5F5F5F5F5F5F5F5F5F5F5E2F5F5F5F5F5F5F5F5F5F5F5F5F5F5F5F5F5F5F5F5
310
E2E2EFF5F5F5F5F5F5F5F5F5F5F5F5F5F5F5F5F5F5F5F5E2F5F5F5F5F5F5F5F5F5F5F5F5F5F5F5F5F5F5F5F5F5F5F5F5F5F5F5F5F5F5F5F5F5F5F5F5F5F5F5F5F5F5F5F5F5F5F5F5F5F5F5F5F5F5F5F5F5F5F5F5F5F5F5F5F5F5F5F5F5F5F5F5F5F5F5F5F5F5F5F5F5F5F5F5F5F5F5F5F5F5F5F5F5F5F5F5F5F5F5F5F5F5F5
310
F5F5F5F5F5F5F5F5F5F5F5F5F5F5F5F5F5F5F5F5F5F5F5F5F5F5F5F5F5F5F5F5E2F5F5F5F5F5F5F5F5F5F5F5F5F5F5F5F5F5F5F5F5E2E2EFF5F5F5F5F5F5F5F5F5F5F5F5F5F5F5F5F5F5F5F5E2F5F5F5F5F5F5F5F5F5F5F5F5F5F5F5F5F5F5F5F5F5F5F5F5F5F5F5F5F5F5F5F5F5F5F5F5F5F5F5F5F5F5F5F5F5F5F5F5F5F5
310
F5F5F5F5F5F5F5F5F5F5F5F5F5F5F5F5F5F5F5F5F5F5F5F5F5F5F5F5F5F5F5F5F5F5F5F5F5F5F5F5F5F5F5F5F5F5F5F5F5F5F5F5F5F5F5F5F5F5F5F5F5F5F5F5F5F5F5F5F5F5F5F5F5F5F5F5F5F5F5F5F5F5F5F5F5E2F5F5F5F5F5F5F5F5F5F5F5F5F5F5F5F5F5F5F5F5E2E2EFF5F5F5F5F5F5F5F5F5F5F5F5F5F5F5F5F5F5
310
F5F5E2F5F5F5F5F5F5F5F5F5F5F5F5F5F5F5F5F5F5F5F5F5F5F5F5F5F5F5F5F5F5F5F5F5F5F5F5F5F5F5F5F5F5F5F5F5F5F5F5F5F5F5F5F5F5F5F5F5F5F5F5F5F5F5F5F5F5F5F5F5F5F5F5F5F5F5F5F5F5F5F5F5F5F5F5F5F5F5F5F5F5F5F5F5F5F5F5F5F5F5F5F5F5F5F5F5F5F5F5F5F5F5F5F5F5F5F5F5F5F5F5F5F5F5F5
310
F5F5F5F5F5F5F5F5F5F5F5E2F5F5F5F5F5F5F5F5F5F5F5F5F5F5F5F5F5F5F5F5E2E2EFF5F5F5F5F5F5F5F5F5F5F5F5F5F5F5F5F5F5F5F5E2F5F5F5F5F5F5F5F5F5F5F5F5F5F5F5F5F5F5F5F5F5F5F5F5F5F5F5F5F5F5F5F5F5F5F5F5F5F5F5F5F5F5F5F5F5F5F5F5F5F5F5F5F5F5F5F5F5F5F5F5F5F5F5F5F5F5F5F5F5F5F5
310
F5F5F5F5F5F5F5F5F5F5F5F5F5F5F5F5F5F5F5F5F5F5F5F5F5F5F5F5F5F5F5F5F5F5F5F5F5F5F5F5F5F5F5F5F5F5F5F5F5F5F5F5F5F5F5F5F5F5F5F5F5F5F5F5E2F5F5F5F5F5F5F5F5F5F5F5F5F5F5F5F5F5F5F5F5E2E2EFF5F5F5F5F5F5F5F5F5F5F5F5F5F5F5F5F5F5F5F5E2F5F5F5F5F5F5F5F5F5F5F5F5F5F5F5F5F5F5
310
F5F5F5F5F5F5F5F5F5F5F5F5F5F5F5F5F5F5F5F5F5F5F5F5F5F5F5F5F5F5F5F5F5F5F5F5F5F5F5F5F5F5F5F5F5F5F5F5F5F5F5F5F5F5F5F5F5F5F5F5F5F5F5F5F5F5F5F5F5F5F5F5F5F5F5F5F5F5F5F5F5F5F5F5F5F5F5F5F5F5F5F5F5F5F5F5F5F5F5F5F5F5F5F5F5F5F5F5F5F5F5F5F5F5F5F5F5E2F5F5F5F5F5F5F5F5F5
310
F5F5F5F5F5F5F5F5F5F5F5E2E2EFF5F5F5E2F5F5F5F5F5F5F5F5F5F5F5F5F5F5F5F5E2F5F5F5F5F5F5F5F5F5F5F5F5F5F5F5F5F5F5F5F5F5F5F5F5F5F5F5F5F5F5F5F5F5F5F5F5F5F5F5F5F5F5F5F5F5F5F5F5F5F5F5F5F5F5F5F5F5F5F5F5F5F5F5F5F5F5F5F5F5F5F5F5F5F5F5F5F5F5F5F5F5F5F5F5F5F5F5F5F5F5F5F5
310
F5F5F5F5F5F5F5F5F5F5F5F5F5F5F5F5F5F5F5F5F5F5F5F5F5F5F5F5F5F5F5F5F5F5F5F5F5F5F5F5F5F5F5E2F5F5F5F5F5F5F5F5F5F5F5F5F5F5F5F5E2F5F5F5E2E2EFF5F5F5E2F5F5F5F5F5F5F5F5F5F5F5F5F5F5F5F5E2F5F5F5F5F5F5F5F5F5F5F5F5F5F5F5F5F5F5F5F5F5F5F5F5F5F5F5F5F5F5F5F5F5F5F5F5F5F5F5
310
F5F5F5F5F5F5F5F5F5F5F5F5F5F5F5F5F5F5F5F5F5F5F5F5F5F5F5F5F5F5F5F5F5F5F5F5F5F5F5F5F5F5F5F5F5F5F5F5F5F5F5F5F5F5F5F5F5F5F5F5F5F5F5F5F5F5F5F5F5F5F5F5F5F5F5F5F5F5F5F5F5F5F5F5F5F5F5F5F5F5F5F5F5F5F5F5E2F5F5F5F5F5F5F5F5F5F5F5F5F5F5F5F5E2F5F5F5E2E2EFF5F5F5E2F5F5F5
310
F5F5F5F5F5F5F5F5F5F5F5F5F5E2F5F5F5F5F5F5F5F5F5F5F5F5F5F5F5F5F5F5F5F5F5F5F5F5F5F5F5F5F5F5F5F5F5F5F5F5F5F5F5F5F5F5F5F5F5F5F5F5F5F5F5F5F5F5F5F5F5F5F5F5F5F5F5F5F5F5F5F5F5F5F5F5F5F5F5F5F5F5F5F5F5F5F5F5F5F5F5F5F5F5F5F5F5F5F5F5F5F5F5F5F5F5F5F5F5F5F5F5F5F5F5F5F5
310
F5F5F5F5F5F5F5F5F5F5F5F5F5F5F5F5F5F5F5F5F5F5E2F5F5F5F5F5F5F5F5F5F5F5F5F5F5F5F5E2F5F5F5E2E2EFF5F5F5E2F5F5F5F5F5F5F5F5F5F5F5F5F5F5F5F5E2F5F5F5F5F5F5F5F5F5F5F5F5F5F5F5F5F5F5F5F5F5F5F5F5F5F5F5F5F5F5F5F5F5F5F5F5F5F5F5F5F5F5F5F5F5F5F5F5F5F5F5F5F5F5F5F5F5F5F5F5
310
F5F5F5F5F5F5F5F5F5F5F5F5F5F5F5F5F5F5F5F5F5F5F5F5F5F5F5F5F5F5F5F5F5F5F5F5F5F5F5F5F5F5F5F5F5F5F5F5F5F5F5F5F5F5F5F5F5F5F5F5F5F5F5F5F5F5F5F5F5F5F5F5F5F5F5E2F5F5F5F5F5F5F5F5F5F5F5F5F5F5F5F5E2F5F5F5E2E2EFF5F5F5E2F5F5F5F5F5F5F5F5F5F5F5F5F5F5F5F5E2F5F5F5F5F5F5F5
310
F5F5F5F5F5F5F5F5F5F5F5F5F5F5F5F5F5F5F5F5F5F5F5F5F5F5F5F5F5F5F5F5F5F5F5F5F5F5F5F5F5F5F5F5F5F5F5F5F5F5F5F5F5F5F5F5F5F5F5F5F5F5F5F5F5F5F5F5F5F5F5F5F5F5F5F5F5F5F5F5F5F5F5F5F5F5F5F5F5F5F5F5F5F5F5F5F5F5F5F5F5F5F5F5F5F5F5F5F5F5F5F5F5F5F5F5F5F5F5F5F5F5F5F5F5F5F5
310
F5E2F5F5F5F5F5F5F5F5F5F5F5F5F5F5F5F5E2F5F5F5E2E2EFF5F5F5E2F5F5F5F5F5F5F5F5F5F5F5F5F5F5F5F5E2F5F5F5F5F5F5F5F5F5F5F5F5F5F5F5F5F5F5F5F5F5F5F5F5F5F5F5F5F5F5F5F5F5F5F5F5F5F5F5F5F5F5F5F5F5F5F5F5F5F5F5F5F5F5F5F5F5F5F5F5F5F5F5F5F5F5F5F5F5F5F5F5F5F5F5F5F5F5F5F5F5
310
F5F5F5F5F5F5F5F5F5F5F5F5F5F5F5F5F5F5F5F5F5F5F5F5F5F5F5F5F5F5F5F5F5F5F5F5F5F5F5F5F5F5F5F5F5F5F5F5F5F5F5F5F5F5E2F5F5F5F5F5F5F5F5F5F5F5F5F5F5F5F5E2F5F5F5E2E2EFF5F5F5E2F5F5F5F5F5F5F5F5F5F5F5F5F5F5F5F5E2F5F5F5F5F5F5F5F5F5F5F5F5F5F5F5F5F5F5F5F5F5F5F5F5F5F5F5F5
310
F5F5F5F5F5F5F5F5F5F5F5F5F5F5F5F5F5F5F5F5F5F5F5F5F5F5F5F5F5F5F5F5F5F5F5F5F5F5F5F5F5F5F5F5F5F5F5F5F5F5F5F5F5F5F5F5F5F5F5F5F5F5F5F5F5F5F5F5F5F5F5F5F5F5F5F5F5F5F5F5F5F5F5F5F5F5F5F5F5F5F5F5F5F5F5F5F5F5F5F5F5F5F5F5F5F5F5E2F5F5F5F5F5F5F5F5F5F5F5F5F5F5F5F5E2F5F5
310
F5E2E2EFF5F5F5E2F5F5F5F5F5F5F5F5F5F5F5F5F5F5F5F5E2F5F5F5F5F5F5F5F5F5F5F5F5F5F5F5F5F5F5F5F5F5F5F5F5F5F5F5F5F5F5F5F5F5F5F5F5F5F5F5F5F5F5F5F5F5F5F5F5F5F5F5F5F5F5F5F5F5F5F5F5F5F5F5F5F5F5F5F5F5F5F5F5F5F5F5F5F5F5F5F5F5F5F5F5F5F5F5F5F5F5F5F5F5F5F5F5F5F5F5F5F5F5
310
F5F5F5F5F5F5F5F5F5F5F5F5F5F5F5F5F5F5F5F5F5F5F5F5F5F5F5F5F5F5F5F5F5E2F5F5F5F5F5F5F5F5F5F5F5F5F5F5F5F5E2F5F5F5E2E2EFF5F5F5E2F5F5F5F5F5F5F5F5F5F5F5F5F5F5F5F5E2F5F5F5F5F5F5F5F5F5F5F5F5F5F5F5F5F5F5F5F5F5F5F5F5F5F5F5F5F5F5F5F5F5F5F5F5F5F5F5F5F5F5F5F5F5F5F5F5F5
310
F5F5F5F5F5F5F5F5F5F5F5F5F5F5F5F5F5F5F5F5F5F5F5F5F5F5F5F5F5F5F5F5F5F5F5F5F5F5F5F5F5F5F5F5F5F5F5F5F5F5F5F5F5F5F5F5F5F5F5F5F5F5F5F5F5F5F5F5F5F5F5F5F5F5F5F5F5F5F5F5F5F5F5F5F5F5E2F5F5F5F5F5F5F5F5F5F5F5F5F5F5F5F5E2F5F5F5E2E2EFF5F5F5E2F5F5F5F5F5F5F5F5F5F5F5F5F5
310
F5F5F5E2F5F5F5F5F5F5F5F5F5F5F5F5F5F5F5F5F5F5F5F5F5F5F5F5F5F5F5F5F5F5F5F5F5F5F5F5F5F5F5F5F5F5F5F5F5F5F5F5F5F5F5F5F5F5F5F5F5F5F5F5F5F5F5F5F5F5F5F5F5F5F5F5F5F5F5F5F5F5F5F5F5F5F5F5F5F5F5F5F5F5F5F5F5F5F5F5F5F5F5F5F5F5F5F5F5F5F5F5F5F5F5F5F5F5F5F5F5F5F5F5F5F5F5
310
F5F5F5F5F5F5F5F5F5F5F5F5E2F5F5F5F5F5F5F5F5F5F5F5F5F5F5F5F5E2F5F5F5E2E2EFF5F5F5E2F5F5F5F5F5F5F5F5F5F5F5F5F5F5F5F5E2F5F5F5F5F5F5F5F5F5F5F5F5F5F5F5F5F5F5F5F5F5F5F5F5F5F5F5F5F5F5F5F5F5F5F5F5F5F5F5F5F5F5F5F5F5F5F5F5F5F5F5F5F5F5F5F5F5F5F5F5F5F5F5F5F5F5F5F5F5F5
310
F5F5F5F5F5F5F5F5F5F5F5F5F5F5F5F5F5F5F5F5F5F5F5F5F5F5F5F5F5F5F5F5F5F5F5F5F5F5F5F5F5F5F5F5F5F5F5F5F5F5F5F5F5F5F5F5F5F5F5F5F5F5F5F5F5E2F5F5F5F5F5F5F5F5F5F5F5F5F5F5F5F5E2F5F5F5E2E2EFF5F5F5E2F5F5F5F5F5F5F5F5F5F5F5F5F5F5F5F5E2F5F5F5F5F5F5F5F5F5F5F5F5F5F5F5F5F5
310
F5F5F5F5F5F5F5F5F5F5F5F5F5F5F5F5F5F5F5F5F5F5F5F5F5F5F5F5F5F5F5F5F5F5F5F5F5F5F5F5F5F5F5F5F5F5F5F5F5F5F5F5F5F5F5F5F5F5F5F5F5F5F5F5F5F5F5F5F5F5F5F5F5F5F5F5F5F5F5F5F5F5F5F5F5F5F5F5F5F5F5F5F5F5F5F5F5F5F5F5F5F5F5F5F5F5F5F5F5F5F5F5F5F5F5F5F5F5E2F5F5F5F5F5F5F5F5
310
F5F5F5F5F5F5F5F5E2F5F5F5E2E2EFF5F5F5E2F5F5F5F5F5F5F5F5F5F5F5F5F5F5F5F5E2F5F5F5F5F5F5F5F5F5F5F5F5F5F5F5F5F5F5F5F5F5F5F5F5F5F5F5F5F5F5F5F5F5F5F5F5F5F5F5F5F5F5F5F5F5F5F5F5F5F5F5F5F5F5F5F5F5F5F5F5F5F5F5F5F5F5F5F5F5F5F5F5F5F5F5F5F5F5F5F5F5F5F5F5F5F5F5F5F5F5F5
310
F5F5F5F5F5F5F5F5F5F5F5F5F5F5F5F5F5F5F5F5F5F5F5F5F5F5F5F5F5F5F5F5F5F5F5F5F5F5F5F5F5F5F5F5E2F5F5F5F5F5F5F5F5F5F5F5F5F5F5F5F5E2F5F5F5E2E2EFF5F5F5E2F5F5F5F5F5F5F5F5F5F5F5F5F5F5F5F5E2F5F5F5F5F5F5F5F5F5F5F5F5F5F5F5F5F5F5F5F5F5F5F5F5F5F5F5F5F5F5F5F5F5F5F5F5F5F5
310
F5F5F5F5F5F5F5F5F5F5F5F5F5F5F5F5F5F5F5F5F5F5F5F5F5F5F5F5F5F5F5F5F5F5F5F5F5F5F5F5F5F5F5F5F5F5F5F5F5F5F5F5F5F5F5F5F5F5F5F5F5F5F5F5F5F5F5F5F5F5F5F5F5F5F5F5F5F5F5F5F5F5F5F5F5F5F5F5F5F5F5F5F5F5F5F5F5E2F5F5F5F5F5F5F5F5F5F5F5F5F5F5F5F5E2F5F5F5E2E2EFF5F5F5E2F5F5
310
F5F5F5F5F5F5F5F5F5F5F5F5F5F5E2F5F5F5F5F5F5F5F5F5F5F5F5F5F5F5F5F5F5F5F5F5F5F5F5F5F5F5F5F5F5F5F5F5F5F5F5F5F5F5F5F5F5F5F5F5F5F5F5F5F5F5F5F5F5F5F5F5F5F5F5F5F5F5F5F5F5F5F5F5F5F5F5F5F5F5F5F5F5F5F5F5F5F5F5F5F5F5F5F5F5F5F5F5F5F5F5F5F5F5F5F5F5F5F5F5F5F5F5F5F5F5F5
310
F5F5F5F5F5F5F5F5F5F5F5F5F5F5F5F5F5F5F5F5F5F5F5E2F5F5F5F5F5F5F5F5F5F5F5F5F5F5F5F5E2F5F5F5E2E2EFF5F5F5E2F5F5F5F5F5F5F5F5F5F5F5F5F5F5F5F5E2F5F5F5F5F5F5F5F5F5F5F5F5F5F5F5F5F5F5F5F5F5F5F5F5F5F5F5F5F5F5F5F5F5F5F5F5F5F5F5F5F5F5F5F5F5F5F5F5F5F5F5F5F5F5F5F5F5F5F5
310
F5F5F5F5F5F5F5F5F5F5F5F5F5F5F5F5F5F5F5F5F5F5F5F5F5F5F5F5F5F5F5F5F5F5F5F5F5F5F5F5F5F5F5F5F5F5F5F5F5F5F5F5F5F5F5F5F5F5F5F5F5F5F5F5F5F5F5F5F5F5F5F5F5F5F5F5E2F5F5F5F5F5F5F5F5F5F5F5F5F5F5F5F5E2F5F5F5E2E2EFF5F5F5E2F5F5F5F5F5F5F5F5F5F5F5F5F5F5F5F5E2F5F5F5F5F5F5
310
F5F5F5F5F5F5F5F5F5F5F5F5F5F5F5F5F5F5F5F5F5F5F5F5F5F5F5F5F5F5F5F5F5F5F5F5F5F5F5F5F5F5F5F5F5F5F5F5F5F5F5F5F5F5F5F5F5F5F5F5F5F5F5F5F5F5F5F5F5F5F5F5F5F5F5F5F5F5F5F5F5F5F5F5F5F5F5F5F5F5F5F5F5F5F5F5F5F5F5F5F5F5F5F5F5F5F5F5F5F5F5F5F5F5F5F5F5F5F5F5F5F5F5F5F5F5F5
310
F5F5E2F5F5F5F5F5F5F5F5F5F5F5F5F5F5F5F5E2F5F5F5E2E2EFF5F5F5F5F5F5F5F5F5F5F5F5F5F5F5F5F5F5F5F5E2F5F5F5F5F5F5F5F5F5F5F5F5F5F5F5F5F5F5F5F5F5F5F5F5F5F5F5F5F5F5F5F5F5F5F5F5F5F5F5F5F5F5F5F5F5F5F5F5F5F5F5F5F5F5F5F5F5F5F5F5F5F5F5F5F5F5F5F5F5F5F5F5F5F5F5F5F5F5F5F5
310
F5F5F5F5F5F5F5F5F5F5F5F5F5F5F5F5F5F5F5F5F5F5F5F5F5F5F5F5F5F5F5F5F5F5F5F5F5F5F5F5F5F5F5F5F5F5F5F5F5F5F5F5F5F5F5E2F5F5F5F5F5F5F5F5F5F5F5F5F5F5F5F5F5F5F5F5E2E2EFF5F5F5F5F5F5F5F5F5F5F5F5F5F5F5F5F5F5F5F5E2F5F5F5F5F5F5F5F5F5F5F5F5F5F5F5F5F5F5F5F5F5F5F5F5F5F5F5
310
F5F5F5F5F5F5F5F5F5F5F5F5F5F5F5F5F5F5F5F5F5F5F5F5F5F5F5F5F5F5F5F5F5F5F5F5F5F5F5F5F5F5F5F5F5F5F5F5F5F5F5F5F5F5F5F5F5F5F5F5F5F5F5F5F5F5F5F5F5F5F5F5F5F5F5F5F5F5F5F5F5F5F5F5F5F5F5F5F5F5F5F5F5F5F5F5F5F5F5F5F5F5F5F5F5F5F5F5E2F5F5F5F5F5F5F5F5F5F5F5F5F5F5F5F5F5F5
310
F5F5E2E2EFF5F5F5F5F5F5F5F5F5F5F5F5F5F5F5F5F5F5F5F5E2F5F5F5F5F5F5F5F5F5F5F5F5F5F5F5F5F5F5F5F5F5F5F5F5F5F5F5F5F5F5F5F5F5F5F5F5F5F5F5F5F5F5F5F5F5F5F5F5F5F5F5F5F5F5F5F5F5F5F5F5F5F5F5F5F5F5F5F5F5F5F5F5F5F5F5F5F5F5F5F5F5F5F5F5F5F5F5F5F5F5F5F5F5F5F5F5F5F5F5F5F5
310
F5F5F5F5F5F5F5F5F5F5F5F5F5F5F5F5F5F5F5F5F5F5F5F5F5F5F5F5F5F5F5F5F5F5E2F5F5F5F5F5F5F5F5F5F5F5F5F5F5F5F5F5F5F5F5E2E2EFF5F5F5F5F5F5F5F5F5F5F5F5F5F5F5F5F5F5F5F5E2F5F5F5F5F5F5F5F5F5F5F5F5F5F5F5F5F5F5F5F5F5F5F5F5F5F5F5F5F5F5F5F5F5F5F5F5F5F5F5F5F5F5F5F5F5F5F5F5
310
F5F5F5F5F5F5F5F5F5F5F5F5F5F5F5F5F5F5F5F5F5F5F5F5F5F5F5F5F5F5F5F5F5F5F5F5F5F5F5F5F5F5F5F5F5F5F5F5F5F5F5F5F5F5F5F5F5F5F5F5F5F5F5F5F5F5F5F5F5F5F5F5F5F5F5F5F5F5F5F5F5F5F5F5F5F5F5E2F5F5F5F5F5F5F5F5F5F5F5F5F5F5F5F5F5F5F5F5E2E2EFF5F5F5F5F5F5F5F5F5F5F5F5F5F5F5F5
310
F5F5F5F5E2E2E2E2E2E2E2E2E2E2E2E2E2E2E2E2E2E2E2E2E2E2E2E2E2E2E2E2E2E2E2E2E2E2E2E2E2E2E2E2E2E2E2E2E2E2E2E2E2E2E2E2E2E2E2E2E2E2E2E2E2E2E2E2E2E2E2E2E2E2E2E2E2E2E2E2E2E2E2E2E2E2E2E2E2E2E2E2E2E2E2E2E2E2E2E2E2E2E2E2E2E2E2E2E2E2E2E2E2E2E2E2E2E2E2E2E2E2E2E2E2E2E2
310
E2E2E2E2E2E2E2E2E2E2E2E2E2E2F5F5F5F5F5F5F5F5F5F5F5F5F5F5F5F5F5F5F5F5E2E2EFF5F5F5F5F5F5F5F5F5F5F5F5F5F5F5F5F5F5F5F5F5F5F5F5F5F5F5F5F5F5F5F5F5F5F5F5F5F5F5F5F5F5F5F5F5F5F5F5F5F5F5F5F5F5F5F5F5F5F5F5F5F5F5F5F5F5F5F5F5F5F5F5F5F5F5F5F5F5F5F5F5F5F5F5F5F5F5F5F5F5
310
F5F5F5F5F5F5F5F5F5F5F5F5F5F5F5F5F5F5F5F5F5F5F5F5F5F5F5F5F5F5F5F5F5F5F5F5F5F5F5F5F5F5F5F5F5F5F5F5F5F5F5F5F5F5F5F5F5F5F5F5F5F5F5F5F5F5F5F5F5F5F5F5F5F5F5F5F5F5F5F5F5F5F5F5F5F5F5E2E2EFF5F5F5F5F5F5F5F5F5F5F5F5F5F5F5F5F5F5F5F5F5F5F5F5F5F5F5F5F5F5F5F5F5F5F5F5F5
310
F5F5F5F5F5F5F5F5F5F5F5F5F5F5F5F5F5F5F5F5F5F5F5F5F5F5F5F5F5F5F5F5F5F5F5F5F5F5F5F5F5F5F5F5F5F5F5F5F5F5F5F5F5F5F5F5F5F5F5F5F5F5F5F5F5F5F5F5F5F5F5F5F5F5F5F5F5F5F5F5F5F5F5F5F5F5F5F5F5F5F5F5F5F5F5F5F5F5F5F5F5F5F5F5F5F5F5F5F5F5F5F5F5F5F5F5F5F5F5F5F5F5F5F5F5F5F5
310
F5F5F5F5F5F5F5F5F5F5F5F5F5E2E2EFF5F5F5F5F5F5F5F5F5F5F5F5F5F5F5F5F5F5F5F5F5F5F5F5F5F5F5F5F5F5F5F5F5F5F5F5F5F5F5F5F5F5F5F5F5F5F5F5F5F5F5F5F5F5F5F5F5F5F5F5F5F5F5F5F5F5F5F5F5F5F5F5F5F5F5F5F5F5F5F5F5F5F5F5F5F5F5F5F5F5F5F5F5F5F5F5F5F5F5F5F5F5F5F5F5F5F5F5F5F5F5
310
F5F5F5F5F5F5F5F5F5F5F5F5F5F5F5F5F5F5F5F5F5F5F5F5F5F5F5F5F5F5F5F5F5F5F5F5F5F5F5F5F5F5F5F5F5F5F5F5F5F5F5F5F5F5F5F5F5F5F5F5F5F5F5F5F5F5E2E2EFF5F5F5F5F5F5F5F5F5F5F5F5F5F5F5F5F5F5F5F5F5F5F5F5F5F5F5F5F5F5F5F5F5F5F5F5F5F5F5F5F5F5F5F5F5F5F5F5F5F5F5F5F5F5F5F5F5F5
310
F5F5F5F5F5F5F5F5F5F5F5F5F5F5F5F5F5F5F5F5F5F5F5F5F5F5F5F5F5F5F5F5F5F5F5F5F5F5F5F5F5F5F5F5F5F5F5F5F5F5F5F5F5F5F5F5F5F5F5F5F5F5F5F5F5F5F5F5F5F5F5F5F5F5F5F5F5F5F5F5F5F5F5F5F5F5F5F5F5F5F5F5F5F5F5F5F5F5F5F5F5F5F5F5F5F5F5F5F5F5F5F5F5F5F5F5F5F5F5E2E2EFF5F5F5E2F5
310
F5F5F5F5F5F5F5F5F5F5F5F5F5F5F5F5F5F5F5F5F5F5F5F5F5F5F5F5F5F5F5F5F5F5F5F5F5F5F5F5F5F5F5F5F5F5F5F5F5F5F5F5F5F5F5F5F5F5F5F5F5F5F5F5F5F5F5F5F5F5F5F5F5F5F5F5F5F5F5F5F5F5F5F5F5F5F5F5F5F5F5F5F5F5F5F5F5F5F5F5F5F5F5F5F5F5F5F5F5F5F5F5F5F5F5F5F5F5F5F5F5F5F5F5F5F5F5
310
F5F5F5F5F5F5F5F5F5F5F5F5F5F5F5F5F5F5F5F5F5F5F5F5F5F5F5F5F5F5F5F5F5F5F5F5F5F5F5F5F5E2F5F5F5E2E2EFF5F5F5E2F5F5F5F5F5F5F5F5F5F5F5F5F5F5F5F5F5F5F5F5F5F5F5F5F5F5F5F5F5F5F5F5F5F5F5F5F5F5F5F5F5F5F5F5F5F5F5F5F5F5F5F5F5F5F5F5F5F5F5F5F5F5F5F5F5F5F5F5F5F5F5F5F5F5F5
310
F5F5F5F5F5F5F5F5F5F5F5F5F5F5F5F5F5F5F5F5F5F5F5F5F5F5F5F5F5F5F5F5F5F5F5F5F5F5F5F5F5F5F5F5F5F5F5F5F5F5F5F5F5F5F5F5F5F5F5F5F5F5F5F5F5F5F5F5F5F5F5F5F5F5F5F5F5F5F5F5F5F5F5F5F5F5F5F5F5F5F5F5F5F5E2F5F5F5E2E2EFF5F5F5E2F5F5F5F5F5F5F5F5F5F5F5F5F5F5F5F5F5F5F5F5F5F5
310
F5F5F5F5F5F5F5F5F5F5F5F5F5F5F5F5F5F5F5F5F5F5F5F5F5F5F5F5F5F5F5F5F5F5F5F5F5F5F5F5F5F5F5F5F5F5F5F5F5F5F5F5F5F5F5F5F5F5F5F5F5F5F5F5F5F5F5F5F5F5F5F5F5F5F5F5F5F5F5F5F5F5F5F5F5F5F5F5F5F5F5F5F5F5F5F5F5F5F5F5F5F5F5F5F5F5F5F5F5F5F5F5F5F5F5F5F5F5F5F5F5F5F5F5F5F5F5
310
F5F5F5F5F5F5F5F5F5F5F5F5F5F5F5F5F5F5F5F5E2F5F5F5E2E2EFF5F5F5E2F5F5F5F5F5F5F5F5F5F5F5F5F5F5F5F5F5F5F5F5F5F5F5F5F5F5F5F5F5F5F5F5F5F5F5F5F5F5F5F5F5F5F5F5F5F5F5F5F5F5F5F5F5F5F5F5F5F5F5F5F5F5F5F5F5F5F5F5F5F5F5F5F5F5F5F5F5F5F5F5F5F5F5F5F5F5F5F5F5F5F5F5F5F5F5F5
310
F5F5F5F5F5F5F5F5F5F5F5F5F5F5F5F5F5F5F5F5F5F5F5F5F5F5F5F5F5F5F5F5F5F5F5F5F5F5F5F5F5F5F5F5F5F5F5F5F5F5F5F5F5F5F5F5F5F5F5F5F5F5F5F5F5F5F5F5F5F5F5F5F5E2F5F5F5E2E2EFF5F5F5E2F5F5F5F5F5F5F5F5F5F5F5F5F5F5F5F5F5F5F5F5F5F5F5F5F5F5F5F5F5F5F5F5F5F5F5F5F5F5F5F5F5F5F5
310
F5F5F5F5F5F5F5F5F5F5F5F5F5F5F5F5F5F5F5F5F5F5F5F5F5F5F5F5F5F5F5F5F5F5F5F5F5F5F5F5F5F5F5F5F5F5F5F5F5F5F5F5F5F5F5F5F5F5F5F5F5F5F5F5F5F5F5F5F5F5F5F5F5F5F5F5F5F5F5F5F5F5F5F5F5F5F5F5F5F5F5F5F5F5F5F5F5F5F5F5F5F5F5F5F5F5F5F5F5F5F5F5F5F5F5F5F5F5F5F5F5F5F5F5F5F5E2
310
F5F5F5E2E2EFF5F5F5E2F5F5F5F5F5F5F5F5F5F5F5F5F5F5F5F5F5F5F5F5F5F5F5F5F5F5F5F5F5F5F5F5F5F5F5F5F5F5F5F5F5F5F5F5F5F5F5F5F5F5F5F5F5F5F5F5F5F5F5F5F5F5F5F5F5F5F5F5F5F5F5F5F5F5F5F5F5F5F5F5F5F5F5F5F5F5F5F5F5F5F5F5F5F5F5F5F5F5F5F5F5F5F5F5F5F5F5F5F5F5F5F5F5F5F5F5F5
310
F5F5F5F5F5F5F5F5F5F5F5F5F5F5F5F5F5F5F5F5F5F5F5F5F5F5F5F5F5F5F5F5F5F5F5F5F5F5F5F5F5F5F5F5F5F5F5F5F5F5F5F5E2F5F5F5E2E2EFF5F5F5E2F5F5F5F5F5F5F5F5F5F5F5F5F5F5F5F5F5F5F5F5F5F5F5F5F5F5F5F5F5F5F5F5F5F5F5F5F5F5F5F5F5F5F5F5F5F5F5F5F5F5F5F5F5F5F5F5F5F5F5F5F5F5F5F5
310
F5F5F5F5F5F5F5F5F5F5F5F5F5F5F5F5F5F5F5F5F5F5F5F5F5F5F5F5F5F5F5F5F5F5F5F5F5F5F5F5F5F5F5F5F5F5F5F5F5F5F5F5F5F5F5F5F5F5F5F5F5F5F5F5F5F5F5F5F5F5F5F5F5F5F5F5F5F5F5F5F5F5F5F5F5F5F5F5F5F5F5F5F5F5F5F5F5F5F5F5F5F5F5F5F5E2F5F5F5E2E2EFF5F5F5E2F5F5F5F5F5F5F5F5F5F5F5
310
F5F5F5F5F5F5F5F5F5F5F5F5F5F5F5F5F5F5F5F5F5F5F5F5F5F5F5F5F5F5F5F5F5F5F5F5F5F5F5F5F5F5F5F5F5F5F5F5F5F5F5F5F5F5F5F5F5F5F5F5F5F5F5F5F5F5F5F5F5F5F5F5F5F5F5F5F5F5F5F5F5F5F5F5F5F5F5F5F5F5F5F5F5F5F5F5F5F5F5F5F5F5F5F5F5F5F5F5F5F5F5F5F5F5F5F5F5F5F5F5F5F5F5F5F5F5F5
310
F5F5F5F5F5F5F5F5F5F5F5F5F5F5F5F5F5F5F5F5F5F5F5F5F5F5F5F5F5F5F5E2F5F5F5E2E2EFF5F5F5E2E2E2E2E2E2E2E2F5F5F5F5F5F5F5F5F5E2E2E2E2E2E2E2E2E2E2E2E2E2E2E2E2F5F5F5F5F5F5F5F5E2E2E2E2E2E2E2E2E2E2E2E2E2E2E2E2F5F5F5F5F5F5F5F5F5E2E2E2E2E2E2E2E2E2E2E2E2E2E2E2F5F5F5F5F5
310
F5F5F5F5E2E2E2E2E2E2E2E2E2E2E2E2E2E2E2F5F5F5F5F5F5F5F5F5E2E2E2E2E2E2E2E2E2E2E2E2E2E2E2E2F5F5F5F5F5F5F5F5E2E2E2E2E2E2E2E2E2E2E2E2E2E2E2E2F5F5F5F5F5F5F5F5F5E2E2E2E2E2E2E2E2F5F5F5E2E2EFF5F5F5F5F5F5F5F5F5F5F5F5F5F5F5F5F5F5F5F5F5F5F5F5F5F5F5F5F5F5F5F5F5F5F5F5
310
F5F5F5F5F5F5F5F5F5F5F5F5F5F5F5F5F5F5F5F5F5F5F5F5F5F5F5F5F5F5F5F5F5F5F5F5F5F5F5F5F5F5F5F5F5F5F5F5F5F5F5F5F5F5F5F5F5F5F5F5F5F5F5F5F5F5F5F5F5F5F5F5F5F5F5F5F5F5F5F5F5F5F5F5F5F5F5F5F5F5F5F5F5F5F5F5F5F5F5F5F5F5F5F5F5F5F5F5F5F5F5F5F5F5F5F5F5F5F5F5F5F5F5F5F5F5F5
310
F5F5F5F5F5F5F5F5F5F5F5F5F5F5E2E2EFF5F5F5F5F5F5F5F5F5F5F5F5F5F5F5F5F5F5F5F5F5F5F5F5F5F5F5F5F5F5F5F5F5F5F5F5F5F5F5F5F5F5F5F5F5F5F5F5F5F5F5F5F5F5F5F5F5F5F5F5F5F5F5F5F5F5F5F5F5F5F5F5F5F5F5F5F5F5F5F5F5F5F5F5F5F5F5F5F5F5F5F5F5F5F5F5F5F5F5F5F5F5F5F5F5F5F5F5F5F5
310
F5F5F5F5F5F5F5F5F5F5F5F5F5F5F5F5F5F5F5F5F5F5F5F5F5F5F5F5F5F5F5F5F5F5F5F5F5F5F5F5F5F5F5F5F5F5F5F5F5F5F5F5F5F5F5F5F5F5F5F5F5F5F5F5F5F5F5E2EFEFF5F5F5F5F5F5F5F5F5F5F5F5F5F5F5F5F5F5F5F5F5F5F5F5F5F5F5F5F5F5F5F5F5F5F5F5F5F5F5F5F5F5F5F5F5F5F5F5F5F5F5F5F5F5F5F5F5
310
F5F5F5F5F5F5F5F5F5F5F5F5F5F5F5F5F5F5F5F5F5F5F5F5F5F5F5F5F5F5F5F5F5F5F5F5F5F5F5F5F5F5F5F5F5F5F5F5F5F5F5F5F5F5F5F5F5F5F5F5F5F5F5F5F5F5F5F5F5F5F5F5F5F5F5F5F5F5F5F5F5F5F5F5F5F5F5F5F5F5F5F5F5F5F5F5F5F5F5F5F5F5F5F5F5F5F5F5F5F5F5F5F5F5F5F5F5F5F5F5E2EFEFE2E2E2E2
310
E2E2E2E2E2E2E2E2E2E2E2E2E2E2E2E2E2E2E2E2E2E2E2E2E2E2E2E2E2E2E2E2E2E2E2E2E2E2E2E2E2E2E2E2E2E2E2E2E2E2E2E2E2E2E2E2E2E2E2E2E2E2E2E2E2E2E2E2E2E2E2E2E2E2E2E2E2E2E2E2E2E2E2E2E2E2E2E2E2E2E2E2E2E2E2E2E2E2E2E2E2E2E2E2E2E2E2E2E2E2E2E2E2E2E2E2E2E2E2E2E2E2E2E2E2E2E2
310
E2E2E2E2E2E2E2E2E2E2E2E2E2E2E2E2E2E2E2E2E2E2E2E2E2E2E2E2E2E2E2E2E2E2E2E2E2E2E2E2E2E2E2E2E2E2E2EFEF
  0
ENDSEC
  0
EOF
