  0
SECTION
  2
HEADER
  9
$ACADVER
  1
AC1018
  9
$ACADMAINTVER
 70
     0
  9
$DWGCODEPAGE
  3
ANSI_1252
  9
$AUTHOR
  1
g6edxjah
  9
$LASTSAVEDBY
  1
g6edxjah
  9
$INSBASE
 10
0.0
 20
0.0
 30
0.0
  9
$EXTMIN
 10
23.043458
 20
-0.081542
 30
0.0
  9
$EXTMAX
 10
31.456542
 20
11.081542
 30
0.0
  9
$LIMMIN
 10
-0.706709
 20
-22.456709
  9
$LIMMAX
 10
55.206709
 20
33.456709
  9
$ORTHOMODE
 70
     0
  9
$REGENMODE
 70
     1
  9
$FILLMODE
 70
     1
  9
$QTEXTMODE
 70
     0
  9
$MIRRTEXT
 70
     0
  9
$LTSCALE
 40
1.0
  9
$ATTMODE
 70
     1
  9
$TEXTSIZE
 40
0.140396
  9
$TRACEWID
 40
0.05
  9
$TEXTSTYLE
  7
Standard
  9
$CLAYER
  8
TITLE
  9
$CELTYPE
  6
Continuous
  9
$CECOLOR
 62
     7
  9
$CELTSCALE
 40
1.0
  9
$DISPSILH
 70
     0
  9
$DIMSCALE
 40
1.0
  9
$DIMASZ
 40
0.140396
  9
$DIMEXO
 40
0.070198
  9
$DIMDLI
 40
0.0
  9
$DIMRND
 40
0.0
  9
$DIMDLE
 40
0.0
  9
$DIMEXE
 40
0.070198
  9
$DIMTP
 40
0.0
  9
$DIMTM
 40
0.0
  9
$DIMTXT
 40
0.140396
  9
$DIMCEN
 40
0.09
  9
$DIMTSZ
 40
0.0
  9
$DIMTOL
 70
     0
  9
$DIMLIM
 70
     0
  9
$DIMTIH
 70
     0
  9
$DIMTOH
 70
     0
  9
$DIMSE1
 70
     0
  9
$DIMSE2
 70
     0
  9
$DIMTAD
 70
     1
  9
$DIMZIN
 70
    11
  9
$DIMBLK
  1
TerminatorOpen_0.5
  9
$DIMASO
 70
     1
  9
$DIMSHO
 70
     1
  9
$DIMPOST
  1

  9
$DIMAPOST
  1

  9
$DIMALT
 70
     0
  9
$DIMALTD
 70
     4
  9
$DIMALTF
 40
25.4
  9
$DIMLFAC
 40
1.0
  9
$DIMTOFL
 70
     0
  9
$DIMTVP
 40
0.0
  9
$DIMTIX
 70
     0
  9
$DIMSOXD
 70
     0
  9
$DIMSAH
 70
     0
  9
$DIMBLK1
  1

  9
$DIMBLK2
  1

  9
$DIMSTYLE
  2
Standard
  9
$DIMCLRD
 70
     0
  9
$DIMCLRE
 70
     0
  9
$DIMCLRT
 70
     0
  9
$DIMTFAC
 40
1.0
  9
$DIMGAP
 40
0.070198
  9
$DIMJUST
 70
     0
  9
$DIMSD1
 70
     0
  9
$DIMSD2
 70
     0
  9
$DIMTOLJ
 70
     0
  9
$DIMTZIN
 70
    11
  9
$DIMALTZ
 70
    15
  9
$DIMALTTZ
 70
    15
  9
$DIMUPT
 70
     0
  9
$DIMDEC
 70
     4
  9
$DIMTDEC
 70
     4
  9
$DIMALTU
 70
     2
  9
$DIMALTTD
 70
     4
  9
$DIMTXSTY
  7
Style-Arial
  9
$DIMAUNIT
 70
     0
  9
$DIMADEC
 70
     4
  9
$DIMALTRND
 40
0.0
  9
$DIMAZIN
 70
     3
  9
$DIMDSEP
 70
    46
  9
$DIMATFIT
 70
     1
  9
$DIMFRAC
 70
     0
  9
$DIMLDRBLK
  1
TerminatorOpen_0.5
  9
$DIMLUNIT
 70
     2
  9
$DIMLWD
 70
    -2
  9
$DIMLWE
 70
    -2
  9
$DIMTMOVE
 70
     0
  9
$LUNITS
 70
     2
  9
$LUPREC
 70
     4
  9
$SKETCHINC
 40
0.1
  9
$FILLETRAD
 40
0.0
  9
$AUNITS
 70
     0
  9
$AUPREC
 70
     4
  9
$MENU
  1
.
  9
$ELEVATION
 40
0.0
  9
$PELEVATION
 40
0.0
  9
$THICKNESS
 40
0.0
  9
$LIMCHECK
 70
     0
  9
$CHAMFERA
 40
0.0
  9
$CHAMFERB
 40
0.0
  9
$CHAMFERC
 40
0.0
  9
$CHAMFERD
 40
0.0
  9
$SKPOLY
 70
     0
  9
$TDCREATE
 40
2455372.458783981
  9
$TDUCREATE
 40
2455372.667117315
  9
$TDUPDATE
 40
2455372.458784155
  9
$TDUUPDATE
 40
2455372.667117489
  9
$TDINDWG
 40
0.0
  9
$TDUSRTIMER
 40
0.0006630093
  9
$USRTIMER
 70
     1
  9
$ANGBASE
 50
0.0
  9
$ANGDIR
 70
     0
  9
$PDMODE
 70
     0
  9
$PDSIZE
 40
0.0
  9
$PLINEWID
 40
0.0
  9
$SPLFRAME
 70
     0
  9
$SPLINETYPE
 70
     6
  9
$SPLINESEGS
 70
     8
  9
$HANDSEED
  5
40F
  9
$SURFTAB1
 70
     6
  9
$SURFTAB2
 70
     6
  9
$SURFTYPE
 70
     6
  9
$SURFU
 70
     6
  9
$SURFV
 70
     6
  9
$UCSBASE
  2

  9
$UCSNAME
  2

  9
$UCSORG
 10
0.0
 20
0.0
 30
0.0
  9
$UCSXDIR
 10
1.0
 20
0.0
 30
0.0
  9
$UCSYDIR
 10
0.0
 20
1.0
 30
0.0
  9
$UCSORTHOREF
  2

  9
$UCSORTHOVIEW
 70
     0
  9
$UCSORGTOP
 10
0.0
 20
0.0
 30
0.0
  9
$UCSORGBOTTOM
 10
0.0
 20
0.0
 30
0.0
  9
$UCSORGLEFT
 10
0.0
 20
0.0
 30
0.0
  9
$UCSORGRIGHT
 10
0.0
 20
0.0
 30
0.0
  9
$UCSORGFRONT
 10
0.0
 20
0.0
 30
0.0
  9
$UCSORGBACK
 10
0.0
 20
0.0
 30
0.0
  9
$PUCSBASE
  2

  9
$PUCSNAME
  2

  9
$PUCSORG
 10
0.0
 20
0.0
 30
0.0
  9
$PUCSXDIR
 10
1.0
 20
0.0
 30
0.0
  9
$PUCSYDIR
 10
0.0
 20
1.0
 30
0.0
  9
$PUCSORTHOREF
  2

  9
$PUCSORTHOVIEW
 70
     0
  9
$PUCSORGTOP
 10
0.0
 20
0.0
 30
0.0
  9
$PUCSORGBOTTOM
 10
0.0
 20
0.0
 30
0.0
  9
$PUCSORGLEFT
 10
0.0
 20
0.0
 30
0.0
  9
$PUCSORGRIGHT
 10
0.0
 20
0.0
 30
0.0
  9
$PUCSORGFRONT
 10
0.0
 20
0.0
 30
0.0
  9
$PUCSORGBACK
 10
0.0
 20
0.0
 30
0.0
  9
$USERI1
 70
     0
  9
$USERI2
 70
     0
  9
$USERI3
 70
     0
  9
$USERI4
 70
     0
  9
$USERI5
 70
     0
  9
$USERR1
 40
0.0
  9
$USERR2
 40
0.0
  9
$USERR3
 40
0.0
  9
$USERR4
 40
0.0
  9
$USERR5
 40
0.0
  9
$WORLDVIEW
 70
     1
  9
$SHADEDGE
 70
     3
  9
$SHADEDIF
 70
    70
  9
$TILEMODE
 70
     1
  9
$MAXACTVP
 70
    64
  9
$PINSBASE
 10
0.0
 20
0.0
 30
0.0
  9
$PLIMCHECK
 70
     0
  9
$PEXTMIN
 10
1.049744
 20
0.799667
 30
-0.001526
  9
$PEXTMAX
 10
9.450623
 20
7.200577
 30
0.0
  9
$PLIMMIN
 10
-0.25
 20
-0.25
  9
$PLIMMAX
 10
10.75
 20
8.25
  9
$UNITMODE
 70
     0
  9
$VISRETAIN
 70
     1
  9
$PLINEGEN
 70
     0
  9
$PSLTSCALE
 70
     0
  9
$TREEDEPTH
 70
  3020
  9
$CMLSTYLE
  2
Standard
  9
$CMLJUST
 70
     0
  9
$CMLSCALE
 40
1.0
  9
$PROXYGRAPHICS
 70
     1
  9
$MEASUREMENT
 70
     0
  9
$CELWEIGHT
370
     0
  9
$ENDCAPS
280
     0
  9
$JOINSTYLE
280
     0
  9
$LWDISPLAY
290
     1
  9
$INSUNITS
 70
     2
  9
$HYPERLINKBASE
  1

  9
$STYLESHEET
  1

  9
$XEDIT
290
     1
  9
$CEPSNTYPE
380
     0
  9
$PSTYLEMODE
290
     1
  9
$FINGERPRINTGUID
  2
{02C0BBB5-38A7-4FBF-829E-00875EC88963}
  9
$VERSIONGUID
  2
{82C521FC-BF81-46B3-825E-420B6BD93A99}
  9
$EXTNAMES
290
     1
  9
$PSVPSCALE
 40
0.0
  9
$OLESTARTUP
290
     0
  9
$SORTENTS
280
   127
  9
$INDEXCTL
280
     0
  9
$HIDETEXT
280
     1
  9
$XCLIPFRAME
290
     0
  9
$HALOGAP
280
     0
  9
$OBSCOLOR
 70
   257
  9
$OBSLTYPE
280
     0
  9
$INTERSECTIONDISPLAY
280
     0
  9
$INTERSECTIONCOLOR
 70
   257
  9
$DIMASSOC
280
     1
  9
$PROJECTNAME
  1

  0
ENDSEC
  0
SECTION
  2
CLASSES
  0
CLASS
  1
ACDBDICTIONARYWDFLT
  2
AcDbDictionaryWithDefault
  3
ObjectDBX Classes
 90
        0
 91
        3
280
     0
281
     0
  0
CLASS
  1
SORTENTSTABLE
  2
AcDbSortentsTable
  3
ObjectDBX Classes
 90
        0
 91
        3
280
     0
281
     0
  0
ENDSEC
  0
SECTION
  2
TABLES
  0
TABLE
  2
VPORT
  5
3F2
330
0
100
AcDbSymbolTable
 70
     4
  0
VPORT
  5
49
330
3F2
100
AcDbSymbolTableRecord
100
AcDbViewportTableRecord
  2
*ACTIVE
 70
     0
 10
0.0
 20
0.0
 11
1.0
 21
1.0
 12
27.25
 22
5.5
 13
0.0
 23
0.0
 14
0.083333
 24
0.083333
 15
0.083333
 25
0.083333
 16
0.0
 26
0.0
 36
1.0
 17
0.0
 27
0.0
 37
0.0
 40
11.609607
 41
1.884937
 42
50.0
 43
0.0
 44
0.0
 50
0.0
 51
0.0
 71
     0
 72
   100
 73
     1
 74
     2
 75
     0
 76
     0
 77
     0
 78
     1
281
     0
 65
     1
110
0.0
120
0.0
130
0.0
111
1.0
121
0.0
131
0.0
112
0.0
122
1.0
132
0.0
 79
     0
146
0.0
  0
ENDTAB
  0
TABLE
  2
LTYPE
  5
3D9
330
0
100
AcDbSymbolTable
 70
     2
  0
LTYPE
  5
3DA
330
3D9
100
AcDbSymbolTableRecord
100
AcDbLinetypeTableRecord
  2
ByBlock
 70
     0
  3

 72
    65
 73
     0
 40
0.0
  0
LTYPE
  5
3DB
330
3D9
100
AcDbSymbolTableRecord
100
AcDbLinetypeTableRecord
  2
ByLayer
 70
     0
  3

 72
    65
 73
     0
 40
0.0
  0
LTYPE
  5
3D8
330
3D9
100
AcDbSymbolTableRecord
100
AcDbLinetypeTableRecord
  2
Continuous
 70
     0
  3
Solid line
 72
    65
 73
     0
 40
0.0
  0
LTYPE
  5
406
330
3D9
100
AcDbSymbolTableRecord
100
AcDbLinetypeTableRecord
  2
DGN Style 3
 70
     0
  3
Dgn Style 3
 72
    65
 73
     2
 40
0.306367
 49
0.218834
 74
     0
 49
-0.087534
 74
     0
  0
ENDTAB
  0
TABLE
  2
LAYER
  5
3D2
102
{ACAD_XDICTIONARY
360
3D3
102
}
330
0
100
AcDbSymbolTable
 70
    64
  0
LAYER
  5
3D1
330
3D2
100
AcDbSymbolTableRecord
100
AcDbLayerTableRecord
  2
0
 70
     0
 62
     7
  6
Continuous
370
    -3
390
3D5
  0
LAYER
  5
7
330
3D2
100
AcDbSymbolTableRecord
100
AcDbLayerTableRecord
  2
Level 1
 70
     0
 62
     7
  6
Continuous
370
     0
390
3D5
  0
LAYER
  5
8
330
3D2
100
AcDbSymbolTableRecord
100
AcDbLayerTableRecord
  2
2-34C
 70
     0
 62
     7
  6
Continuous
370
     0
390
3D5
1001
AcAecLayerStandard
1000

1000
2-34C
  0
LAYER
  5
9
330
3D2
100
AcDbSymbolTableRecord
100
AcDbLayerTableRecord
  2
BORDER
 70
     0
 62
     7
  6
Continuous
370
     0
390
3D5
1001
AcAecLayerStandard
1000

1000
BORDER
  0
LAYER
  5
A
330
3D2
100
AcDbSymbolTableRecord
100
AcDbLayerTableRecord
  2
LEGEND
 70
     0
 62
     7
  6
Continuous
370
     0
390
3D5
1001
AcAecLayerStandard
1000

1000
LEGEND
  0
LAYER
  5
B
330
3D2
100
AcDbSymbolTableRecord
100
AcDbLayerTableRecord
  2
DIM
 70
     0
 62
     7
  6
Continuous
370
     0
390
3D5
1001
AcAecLayerStandard
1000

1000
DIM
  0
LAYER
  5
C
330
3D2
100
AcDbSymbolTableRecord
100
AcDbLayerTableRecord
  2
HATCH
 70
     0
 62
     7
  6
Continuous
370
     0
390
3D5
1001
AcAecLayerStandard
1000

1000
HATCH
  0
LAYER
  5
D
330
3D2
100
AcDbSymbolTableRecord
100
AcDbLayerTableRecord
  2
NOTES
 70
     0
 62
     7
  6
Continuous
370
     0
390
3D5
1001
AcAecLayerStandard
1000

1000
NOTES
  0
LAYER
  5
E
330
3D2
100
AcDbSymbolTableRecord
100
AcDbLayerTableRecord
  2
TEXT
 70
     0
 62
     7
  6
Continuous
370
     0
390
3D5
1001
AcAecLayerStandard
1000

1000
TEXT
  0
LAYER
  5
F
330
3D2
100
AcDbSymbolTableRecord
100
AcDbLayerTableRecord
  2
TITLE
 70
     0
 62
     7
  6
Continuous
370
     0
390
3D5
1001
AcAecLayerStandard
1000

1000
TITLE
  0
LAYER
  5
10
330
3D2
100
AcDbSymbolTableRecord
100
AcDbLayerTableRecord
  2
Level 10
 70
     0
 62
     7
  6
Continuous
370
     0
390
3D5
  0
LAYER
  5
11
330
3D2
100
AcDbSymbolTableRecord
100
AcDbLayerTableRecord
  2
Level 11
 70
     0
 62
     7
  6
Continuous
370
     0
390
3D5
  0
LAYER
  5
12
330
3D2
100
AcDbSymbolTableRecord
100
AcDbLayerTableRecord
  2
Level 12
 70
     0
 62
     7
  6
Continuous
370
     0
390
3D5
  0
LAYER
  5
13
330
3D2
100
AcDbSymbolTableRecord
100
AcDbLayerTableRecord
  2
Level 13
 70
     0
 62
     7
  6
Continuous
370
     0
390
3D5
  0
LAYER
  5
14
330
3D2
100
AcDbSymbolTableRecord
100
AcDbLayerTableRecord
  2
Level 14
 70
     0
 62
     7
  6
Continuous
370
     0
390
3D5
  0
LAYER
  5
15
330
3D2
100
AcDbSymbolTableRecord
100
AcDbLayerTableRecord
  2
Level 15
 70
     0
 62
     7
  6
Continuous
370
     0
390
3D5
  0
LAYER
  5
16
330
3D2
100
AcDbSymbolTableRecord
100
AcDbLayerTableRecord
  2
Level 16
 70
     0
 62
     7
  6
Continuous
370
     0
390
3D5
  0
LAYER
  5
17
330
3D2
100
AcDbSymbolTableRecord
100
AcDbLayerTableRecord
  2
Level 17
 70
     0
 62
     7
  6
Continuous
370
     0
390
3D5
  0
LAYER
  5
18
330
3D2
100
AcDbSymbolTableRecord
100
AcDbLayerTableRecord
  2
Level 18
 70
     0
 62
     7
  6
Continuous
370
     0
390
3D5
  0
LAYER
  5
19
330
3D2
100
AcDbSymbolTableRecord
100
AcDbLayerTableRecord
  2
Level 19
 70
     0
 62
     7
  6
Continuous
370
     0
390
3D5
  0
LAYER
  5
1A
330
3D2
100
AcDbSymbolTableRecord
100
AcDbLayerTableRecord
  2
Level 20
 70
     0
 62
     7
  6
Continuous
370
     0
390
3D5
  0
LAYER
  5
1B
330
3D2
100
AcDbSymbolTableRecord
100
AcDbLayerTableRecord
  2
Level 21
 70
     0
 62
     7
  6
Continuous
370
     0
390
3D5
  0
LAYER
  5
1C
330
3D2
100
AcDbSymbolTableRecord
100
AcDbLayerTableRecord
  2
Level 22
 70
     0
 62
     7
  6
Continuous
370
     0
390
3D5
  0
LAYER
  5
1D
330
3D2
100
AcDbSymbolTableRecord
100
AcDbLayerTableRecord
  2
Level 23
 70
     0
 62
     7
  6
Continuous
370
     0
390
3D5
  0
LAYER
  5
1E
330
3D2
100
AcDbSymbolTableRecord
100
AcDbLayerTableRecord
  2
Level 24
 70
     0
 62
     7
  6
Continuous
370
     0
390
3D5
  0
LAYER
  5
1F
330
3D2
100
AcDbSymbolTableRecord
100
AcDbLayerTableRecord
  2
Level 25
 70
     0
 62
     7
  6
Continuous
370
     0
390
3D5
  0
LAYER
  5
20
330
3D2
100
AcDbSymbolTableRecord
100
AcDbLayerTableRecord
  2
Level 26
 70
     0
 62
     7
  6
Continuous
370
     0
390
3D5
  0
LAYER
  5
21
330
3D2
100
AcDbSymbolTableRecord
100
AcDbLayerTableRecord
  2
Level 27
 70
     0
 62
     7
  6
Continuous
370
     0
390
3D5
  0
LAYER
  5
22
330
3D2
100
AcDbSymbolTableRecord
100
AcDbLayerTableRecord
  2
Level 28
 70
     0
 62
     7
  6
Continuous
370
     0
390
3D5
  0
LAYER
  5
23
330
3D2
100
AcDbSymbolTableRecord
100
AcDbLayerTableRecord
  2
Level 29
 70
     0
 62
     7
  6
Continuous
370
     0
390
3D5
  0
LAYER
  5
24
330
3D2
100
AcDbSymbolTableRecord
100
AcDbLayerTableRecord
  2
Level 30
 70
     0
 62
     7
  6
Continuous
370
     0
390
3D5
  0
LAYER
  5
25
330
3D2
100
AcDbSymbolTableRecord
100
AcDbLayerTableRecord
  2
Level 31
 70
     0
 62
     7
  6
Continuous
370
     0
390
3D5
  0
LAYER
  5
26
330
3D2
100
AcDbSymbolTableRecord
100
AcDbLayerTableRecord
  2
Level 32
 70
     0
 62
     7
  6
Continuous
370
     0
390
3D5
  0
LAYER
  5
27
330
3D2
100
AcDbSymbolTableRecord
100
AcDbLayerTableRecord
  2
Level 33
 70
     0
 62
     7
  6
Continuous
370
     0
390
3D5
  0
LAYER
  5
28
330
3D2
100
AcDbSymbolTableRecord
100
AcDbLayerTableRecord
  2
Level 34
 70
     0
 62
     7
  6
Continuous
370
     0
390
3D5
  0
LAYER
  5
29
330
3D2
100
AcDbSymbolTableRecord
100
AcDbLayerTableRecord
  2
Level 35
 70
     0
 62
     7
  6
Continuous
370
     0
390
3D5
  0
LAYER
  5
2A
330
3D2
100
AcDbSymbolTableRecord
100
AcDbLayerTableRecord
  2
Level 36
 70
     0
 62
     7
  6
Continuous
370
     0
390
3D5
  0
LAYER
  5
2B
330
3D2
100
AcDbSymbolTableRecord
100
AcDbLayerTableRecord
  2
Level 37
 70
     0
 62
     7
  6
Continuous
370
     0
390
3D5
  0
LAYER
  5
2C
330
3D2
100
AcDbSymbolTableRecord
100
AcDbLayerTableRecord
  2
Level 38
 70
     0
 62
     7
  6
Continuous
370
     0
390
3D5
  0
LAYER
  5
2D
330
3D2
100
AcDbSymbolTableRecord
100
AcDbLayerTableRecord
  2
Level 39
 70
     0
 62
     7
  6
Continuous
370
     0
390
3D5
  0
LAYER
  5
2E
330
3D2
100
AcDbSymbolTableRecord
100
AcDbLayerTableRecord
  2
Level 40
 70
     0
 62
     7
  6
Continuous
370
     0
390
3D5
  0
LAYER
  5
2F
330
3D2
100
AcDbSymbolTableRecord
100
AcDbLayerTableRecord
  2
Level 41
 70
     0
 62
     7
  6
Continuous
370
     0
390
3D5
  0
LAYER
  5
30
330
3D2
100
AcDbSymbolTableRecord
100
AcDbLayerTableRecord
  2
Level 42
 70
     0
 62
     7
  6
Continuous
370
     0
390
3D5
  0
LAYER
  5
31
330
3D2
100
AcDbSymbolTableRecord
100
AcDbLayerTableRecord
  2
Level 43
 70
     0
 62
     7
  6
Continuous
370
     0
390
3D5
  0
LAYER
  5
32
330
3D2
100
AcDbSymbolTableRecord
100
AcDbLayerTableRecord
  2
Level 44
 70
     0
 62
     7
  6
Continuous
370
     0
390
3D5
  0
LAYER
  5
33
330
3D2
100
AcDbSymbolTableRecord
100
AcDbLayerTableRecord
  2
Level 45
 70
     0
 62
     7
  6
Continuous
370
     0
390
3D5
  0
LAYER
  5
34
330
3D2
100
AcDbSymbolTableRecord
100
AcDbLayerTableRecord
  2
Level 46
 70
     0
 62
     7
  6
Continuous
370
     0
390
3D5
  0
LAYER
  5
35
330
3D2
100
AcDbSymbolTableRecord
100
AcDbLayerTableRecord
  2
Level 47
 70
     0
 62
     7
  6
Continuous
370
     0
390
3D5
  0
LAYER
  5
36
330
3D2
100
AcDbSymbolTableRecord
100
AcDbLayerTableRecord
  2
Level 48
 70
     0
 62
     7
  6
Continuous
370
     0
390
3D5
  0
LAYER
  5
37
330
3D2
100
AcDbSymbolTableRecord
100
AcDbLayerTableRecord
  2
Level 49
 70
     0
 62
     7
  6
Continuous
370
     0
390
3D5
  0
LAYER
  5
38
330
3D2
100
AcDbSymbolTableRecord
100
AcDbLayerTableRecord
  2
Level 50
 70
     0
 62
     7
  6
Continuous
370
     0
390
3D5
  0
LAYER
  5
39
330
3D2
100
AcDbSymbolTableRecord
100
AcDbLayerTableRecord
  2
Level 51
 70
     0
 62
     7
  6
Continuous
370
     0
390
3D5
  0
LAYER
  5
3A
330
3D2
100
AcDbSymbolTableRecord
100
AcDbLayerTableRecord
  2
Level 52
 70
     0
 62
     7
  6
Continuous
370
     0
390
3D5
  0
LAYER
  5
3B
330
3D2
100
AcDbSymbolTableRecord
100
AcDbLayerTableRecord
  2
Level 53
 70
     0
 62
     7
  6
Continuous
370
     0
390
3D5
  0
LAYER
  5
3C
330
3D2
100
AcDbSymbolTableRecord
100
AcDbLayerTableRecord
  2
Level 54
 70
     0
 62
     7
  6
Continuous
370
     0
390
3D5
  0
LAYER
  5
3D
330
3D2
100
AcDbSymbolTableRecord
100
AcDbLayerTableRecord
  2
Level 55
 70
     0
 62
     7
  6
Continuous
370
     0
390
3D5
  0
LAYER
  5
3E
330
3D2
100
AcDbSymbolTableRecord
100
AcDbLayerTableRecord
  2
Level 56
 70
     0
 62
     7
  6
Continuous
370
     0
390
3D5
  0
LAYER
  5
3F
330
3D2
100
AcDbSymbolTableRecord
100
AcDbLayerTableRecord
  2
Level 57
 70
     0
 62
     7
  6
Continuous
370
     0
390
3D5
  0
LAYER
  5
40
330
3D2
100
AcDbSymbolTableRecord
100
AcDbLayerTableRecord
  2
Level 58
 70
     0
 62
     7
  6
Continuous
370
     0
390
3D5
  0
LAYER
  5
41
330
3D2
100
AcDbSymbolTableRecord
100
AcDbLayerTableRecord
  2
Level 59
 70
     0
 62
     7
  6
Continuous
370
     0
390
3D5
  0
LAYER
  5
42
330
3D2
100
AcDbSymbolTableRecord
100
AcDbLayerTableRecord
  2
Level 60
 70
     0
 62
     7
  6
Continuous
370
     0
390
3D5
  0
LAYER
  5
43
330
3D2
100
AcDbSymbolTableRecord
100
AcDbLayerTableRecord
  2
Level 61
 70
     0
 62
     7
  6
Continuous
370
     0
390
3D5
  0
LAYER
  5
44
330
3D2
100
AcDbSymbolTableRecord
100
AcDbLayerTableRecord
  2
Level 62
 70
     0
 62
     7
  6
Continuous
370
     0
390
3D5
  0
LAYER
  5
45
330
3D2
100
AcDbSymbolTableRecord
100
AcDbLayerTableRecord
  2
_0
 70
     0
 62
     7
  6
Continuous
370
     0
390
3D5
1001
AcAecLayerStandard
1000

1000
0
  0
ENDTAB
  0
TABLE
  2
STYLE
  5
3DD
330
0
100
AcDbSymbolTable
 70
     2
  0
STYLE
  5
3DC
330
3DD
100
AcDbSymbolTableRecord
100
AcDbTextStyleTableRecord
  2
Standard
 70
     0
 40
0.0
 41
1.0
 50
0.0
 71
     0
 42
0.140396
  3
txt
  4

  0
STYLE
  5
3FC
330
3DD
100
AcDbSymbolTableRecord
100
AcDbTextStyleTableRecord
  2
Style-Arial
 70
     0
 40
0.0
 41
1.0
 50
0.0
 71
     0
 42
0.2
  3

  4

1001
ACAD
1000
Arial
1071
       39
  0
ENDTAB
  0
TABLE
  2
VIEW
  5
3F0
330
0
100
AcDbSymbolTable
 70
     0
  0
ENDTAB
  0
TABLE
  2
UCS
  5
3F1
330
0
100
AcDbSymbolTable
 70
     0
  0
ENDTAB
  0
TABLE
  2
APPID
  5
3EF
330
0
100
AcDbSymbolTable
 70
     3
  0
APPID
  5
3F7
330
3EF
100
AcDbSymbolTableRecord
100
AcDbRegAppTableRecord
  2
ACAD
 70
     0
  0
APPID
  5
3EE
330
3EF
100
AcDbSymbolTableRecord
100
AcDbRegAppTableRecord
  2
ACAD_PSEXT
 70
     0
  0
APPID
  5
3F9
330
3EF
100
AcDbSymbolTableRecord
100
AcDbRegAppTableRecord
  2
AcAecLayerStandard
 70
     0
  0
ENDTAB
  0
TABLE
  2
DIMSTYLE
  5
3DF
330
0
100
AcDbSymbolTable
 70
     1
100
AcDbDimStyleTable
  0
DIMSTYLE
105
3DE
330
3DF
100
AcDbSymbolTableRecord
100
AcDbDimStyleTableRecord
  2
Standard
 70
     0
340
3DC
  0
ENDTAB
  0
TABLE
  2
BLOCK_RECORD
  5
3E2
330
0
100
AcDbSymbolTable
 70
     2
  0
BLOCK_RECORD
  5
3E3
102
{ACAD_XDICTIONARY
360
40A
102
}
330
3E2
100
AcDbSymbolTableRecord
100
AcDbBlockTableRecord
  2
*Model_Space
340
3E6
  0
BLOCK_RECORD
  5
3E8
330
3E2
100
AcDbSymbolTableRecord
100
AcDbBlockTableRecord
  2
*Paper_Space
340
3EB
  0
BLOCK_RECORD
  5
3FD
330
3E2
100
AcDbSymbolTableRecord
100
AcDbBlockTableRecord
  2
TerminatorOpen_0.5
340
0
  0
BLOCK_RECORD
  5
407
330
3E2
100
AcDbSymbolTableRecord
100
AcDbBlockTableRecord
  2
LARROW
340
0
102
{BLKREFS
331
369
331
36B
331
36D
331
36F
331
371
331
373
331
375
331
377
331
379
331
37B
102
}
  0
ENDTAB
  0
ENDSEC
  0
SECTION
  2
BLOCKS
  0
BLOCK
  5
3E4
330
3E3
100
AcDbEntity
  8
0
100
AcDbBlockBegin
  2
*Model_Space
 70
     0
 71
     0
 10
0.0
 20
0.0
 30
0.0
  3
*Model_Space
  1

  0
ENDBLK
  5
3E5
330
3E3
100
AcDbEntity
  8
0
100
AcDbBlockEnd
  0
BLOCK
  5
3E9
330
3E8
100
AcDbEntity
 67
     1
  8
0
100
AcDbBlockBegin
  2
*Paper_Space
 70
     0
 71
     0
 10
0.0
 20
0.0
 30
0.0
  3
*Paper_Space
  1

  0
ENDBLK
  5
3EA
330
3E8
100
AcDbEntity
 67
     1
  8
0
100
AcDbBlockEnd
  0
BLOCK
  5
401
330
3FD
100
AcDbEntity
  8
0
100
AcDbBlockBegin
  2
TerminatorOpen_0.5
 70
     0
 71
     0
 10
0.0
 20
0.0
 30
0.0
  3
TerminatorOpen_0.5
  1

  0
LINE
  5
3FE
330
3FD
100
AcDbEntity
  8
0
  6
ByBlock
 62
     0
370
    -2
100
AcDbLine
 10
0.0
 20
0.0
 30
0.0
 11
-1.0
 21
0.0
 31
0.0
  0
LINE
  5
3FF
330
3FD
100
AcDbEntity
  8
0
  6
ByBlock
 62
     0
370
    -2
100
AcDbLine
 10
0.0
 20
0.0
 30
0.0
 11
-1.0
 21
0.25
 31
0.0
  0
LINE
  5
400
330
3FD
100
AcDbEntity
  8
0
  6
ByBlock
 62
     0
370
    -2
100
AcDbLine
 10
0.0
 20
0.0
 30
0.0
 11
-1.0
 21
-0.25
 31
0.0
  0
ENDBLK
  5
402
330
3FD
100
AcDbEntity
  8
0
100
AcDbBlockEnd
  0
BLOCK
  5
408
330
407
100
AcDbEntity
  8
0
100
AcDbBlockBegin
  2
LARROW
 70
     0
 71
     0
 10
0.0
 20
0.0
 30
0.0
  3
LARROW
  1

  0
LWPOLYLINE
  5
36A
330
407
100
AcDbEntity
  8
DIM
  6
Continuous
 62
     7
370
    13
100
AcDbPolyline
 90
       63
 70
   128
 43
0.0
 10
-0.013031
 20
0.001885
 10
0.0
 20
0.0
 10
-0.013021
 20
-0.001885
 10
-0.012615
 20
-0.001573
 10
-0.012042
 20
-0.00101
 10
-0.01176
 20
-0.00049
 10
-0.011687
 20
0.0
 10
-0.011792
 20
0.000552
 10
-0.012094
 20
0.001094
 10
-0.012677
 20
0.001625
 10
-0.013031
 20
0.001885
 10
-0.000385
 20
0.000021
 10
-0.012604
 20
-0.001761
 10
-0.012229
 20
-0.001479
 10
-0.011625
 20
-0.000906
 10
-0.011427
 20
-0.000167
 10
-0.011562
 20
0.000573
 10
-0.011917
 20
0.001083
 10
-0.012344
 20
0.0015
 10
-0.012635
 20
0.001729
 10
-0.001073
 20
0.000021
 10
-0.012052
 20
-0.001552
 10
-0.011667
 20
-0.001302
 10
-0.011468
 20
-0.000979
 10
-0.01125
 20
-0.000563
 10
-0.011136
 20
0.000021
 10
-0.011198
 20
0.0005
 10
-0.011427
 20
0.000875
 10
-0.011896
 20
0.001177
 10
-0.012208
 20
0.001542
 10
-0.001875
 20
0.000021
 10
-0.011448
 20
-0.001323
 10
-0.011021
 20
-0.000792
 10
-0.010896
 20
-0.000146
 10
-0.010958
 20
0.000573
 10
-0.011781
 20
0.001355
 10
-0.002771
 20
0.000063
 10
-0.010896
 20
-0.001073
 10
-0.010781
 20
-0.000698
 10
-0.010531
 20
-0.000094
 10
-0.010687
 20
0.000552
 10
-0.011333
 20
0.001125
 10
-0.003594
 20
0.000062
 10
-0.010605
 20
-0.000833
 10
-0.010375
 20
-0.000375
 10
-0.010271
 20
0.000115
 10
-0.010761
 20
0.000875
 10
-0.004573
 20
0.000062
 10
-0.010177
 20
-0.000625
 10
-0.010021
 20
-0.000281
 10
-0.009979
 20
0.000115
 10
-0.010375
 20
0.000666
 10
-0.00574
 20
0.000062
 10
-0.009823
 20
-0.000396
 10
-0.009709
 20
0.000135
 10
-0.010084
 20
0.000458
 10
-0.006698
 20
0.000062
 10
-0.009552
 20
-0.00024
 10
-0.009615
 20
0.000271
 10
-0.007677
 20
0.000062
 10
-0.009437
 20
-0.000073
 10
-0.00949
 20
0.000083
 10
-0.008885
 20
0.000084
  0
ENDBLK
  5
409
330
407
100
AcDbEntity
  8
0
100
AcDbBlockEnd
  0
ENDSEC
  0
SECTION
  2
ENTITIES
  0
POINT
  5
5B
330
3E3
100
AcDbEntity
  8
BORDER
  6
Continuous
 62
     7
370
    30
100
AcDbPoint
 10
23.625
 20
0.986906
 30
0.0
  0
LINE
  5
5C
330
3E3
100
AcDbEntity
  8
_0
  6
Continuous
 62
     7
370
    30
100
AcDbLine
 10
26.503573
 20
5.575958
 30
0.0
 11
26.503573
 21
5.747792
 31
0.0
  0
LINE
  5
5D
330
3E3
100
AcDbEntity
  8
_0
  6
Continuous
 62
     7
370
    30
100
AcDbLine
 10
26.374875
 20
5.491062
 30
0.0
 11
26.503573
 21
5.575958
 31
0.0
  0
LINE
  5
5E
330
3E3
100
AcDbEntity
  8
_0
  6
Continuous
 62
     7
370
    30
100
AcDbLine
 10
26.374479
 20
5.833854
 30
0.0
 11
26.503573
 21
5.747792
 31
0.0
  0
LINE
  5
5F
330
3E3
100
AcDbEntity
  8
BORDER
  6
Continuous
 62
     7
370
    30
100
AcDbLine
 10
23.625
 20
0.986906
 30
0.0
 11
30.875
 21
0.986906
 31
0.0
  0
LINE
  5
60
330
3E3
100
AcDbEntity
  8
BORDER
  6
Continuous
 62
     7
370
    30
100
AcDbLine
 10
23.625
 20
1.486906
 30
0.0
 11
30.875
 21
1.486906
 31
0.0
  0
LINE
  5
65
330
3E3
100
AcDbEntity
  8
BORDER
  6
Continuous
 62
     7
370
    30
100
AcDbLine
 10
28.675
 20
0.986906
 30
0.0
 11
28.675
 21
1.486906
 31
0.0
  0
LINE
  5
66
330
3E3
100
AcDbEntity
  8
BORDER
  6
Continuous
 62
     7
370
    30
100
AcDbLine
 10
29.775
 20
0.986906
 30
0.0
 11
29.775
 21
1.486906
 31
0.0
  0
LINE
  5
67
330
3E3
100
AcDbEntity
  8
BORDER
  6
Continuous
 62
     7
370
    30
100
AcDbLine
 10
30.875
 20
0.986906
 30
0.0
 11
30.875
 21
10.086906
 31
0.0
  0
LINE
  5
68
330
3E3
100
AcDbEntity
  8
BORDER
  6
Continuous
 62
     7
370
    30
100
AcDbLine
 10
23.625
 20
10.086906
 30
0.0
 11
30.875
 21
10.086906
 31
0.0
  0
LINE
  5
69
330
3E3
100
AcDbEntity
  8
BORDER
  6
Continuous
 62
     7
370
    30
100
AcDbLine
 10
23.625
 20
0.986906
 30
0.0
 11
23.625
 21
10.086906
 31
0.0
  0
LINE
  5
6A
330
3E3
100
AcDbEntity
  8
_0
  6
Continuous
 62
     7
370
    30
100
AcDbLine
 10
26.275
 20
6.286906
 30
0.0
 11
26.275
 21
5.968323
 31
0.0
  0
LINE
  5
6B
330
3E3
100
AcDbEntity
  8
_0
  6
Continuous
 62
     7
370
    30
100
AcDbLine
 10
26.47475
 20
6.286906
 30
0.0
 11
26.47475
 21
5.968323
 31
0.0
  0
LINE
  5
6C
330
3E3
100
AcDbEntity
  8
_0
  6
Continuous
 62
     7
370
    30
100
AcDbLine
 10
26.275
 20
5.968323
 30
0.0
 11
26.47475
 21
5.968323
 31
0.0
  0
CIRCLE
  5
6D
330
3E3
100
AcDbEntity
  8
_0
  6
Continuous
 62
     7
370
    30
100
AcDbCircle
 10
26.374877
 20
6.206553
 30
0.0
 40
0.2796565895153725
  0
LWPOLYLINE
  5
6E
330
3E3
100
AcDbEntity
  8
_0
  6
Continuous
 62
     7
370
    30
100
AcDbPolyline
 90
        2
 70
   128
 43
0.0
 10
26.374875
 20
5.968323
 10
26.374875
 20
6.234604
  0
LINE
  5
7A
330
3E3
100
AcDbEntity
  8
_0
  6
Continuous
 62
     7
370
    30
100
AcDbLine
 10
24.775
 20
8.686906
 30
0.0
 11
27.475
 21
8.686906
 31
0.0
  0
LINE
  5
7B
330
3E3
100
AcDbEntity
  8
_0
  6
Continuous
 62
     7
370
    30
100
AcDbLine
 10
24.775
 20
7.386906
 30
0.0
 11
27.475
 21
7.386906
 31
0.0
  0
LINE
  5
7C
330
3E3
100
AcDbEntity
  8
_0
  6
Continuous
 62
     7
370
    30
100
AcDbLine
 10
24.775
 20
6.286906
 30
0.0
 11
26.275
 21
6.286906
 31
0.0
  0
LINE
  5
7D
330
3E3
100
AcDbEntity
  8
_0
  6
Continuous
 62
     7
370
    30
100
AcDbLine
 10
24.775
 20
5.186906
 30
0.0
 11
29.675
 21
5.186906
 31
0.0
  0
LINE
  5
7E
330
3E3
100
AcDbEntity
  8
_0
  6
Continuous
 62
     7
370
    30
100
AcDbLine
 10
25.874875
 20
5.711906
 30
0.0
 11
26.874875
 21
5.711906
 31
0.0
  0
LINE
  5
7F
330
3E3
100
AcDbEntity
  8
_0
  6
Continuous
 62
     7
370
    30
100
AcDbLine
 10
25.874875
 20
5.611906
 30
0.0
 11
26.874875
 21
5.611906
 31
0.0
  0
LINE
  5
80
330
3E3
100
AcDbEntity
  8
_0
  6
Continuous
 62
     7
370
    30
100
AcDbLine
 10
27.875
 20
5.611906
 30
0.0
 11
27.875
 21
5.711906
 31
0.0
  0
LINE
  5
81
330
3E3
100
AcDbEntity
  8
_0
  6
Continuous
 62
     7
370
    30
100
AcDbLine
 10
27.875
 20
5.611906
 30
0.0
 11
27.875
 21
5.711906
 31
0.0
  0
LINE
  5
82
330
3E3
100
AcDbEntity
  8
_0
  6
Continuous
 62
     7
370
    30
100
AcDbLine
 10
28.275
 20
5.186906
 30
0.0
 11
28.275
 21
5.249548
 31
0.0
  0
LINE
  5
83
330
3E3
100
AcDbEntity
  8
_0
  6
Continuous
 62
     7
370
    30
100
AcDbLine
 10
28.675
 20
5.611906
 30
0.0
 11
28.675
 21
5.711906
 31
0.0
  0
LINE
  5
84
330
3E3
100
AcDbEntity
  8
_0
  6
Continuous
 62
     7
370
    30
100
AcDbLine
 10
28.375
 20
7.386906
 30
0.0
 11
28.375
 21
8.686906
 31
0.0
  0
LINE
  5
85
330
3E3
100
AcDbEntity
  8
_0
  6
Continuous
 62
     7
370
    30
100
AcDbLine
 10
29.275
 20
7.386906
 30
0.0
 11
29.275
 21
8.686906
 31
0.0
  0
LINE
  5
86
330
3E3
100
AcDbEntity
  8
_0
  6
Continuous
 62
     7
370
    30
100
AcDbLine
 10
28.725
 20
7.586906
 30
0.0
 11
28.925
 21
7.586906
 31
0.0
  0
LINE
  5
87
330
3E3
100
AcDbEntity
  8
_0
  6
Continuous
 62
     7
370
    30
100
AcDbLine
 10
28.375
 20
7.386906
 30
0.0
 11
28.675
 21
7.386906
 31
0.0
  0
LINE
  5
88
330
3E3
100
AcDbEntity
  8
_0
  6
Continuous
 62
     7
370
    30
100
AcDbLine
 10
28.375
 20
8.686906
 30
0.0
 11
29.275
 21
8.686906
 31
0.0
  0
LINE
  5
89
330
3E3
100
AcDbEntity
  8
_0
  6
Continuous
 62
     7
370
    30
100
AcDbLine
 10
26.475
 20
6.286906
 30
0.0
 11
29.675
 21
6.286906
 31
0.0
  0
LINE
  5
8A
330
3E3
100
AcDbEntity
  8
_0
  6
Continuous
 62
     7
370
    30
100
AcDbLine
 10
26.374875
 20
5.926896
 30
0.0
 11
26.374875
 21
5.833594
 31
0.0
  0
LINE
  5
8B
330
3E3
100
AcDbEntity
  8
_0
  6
Continuous
 62
     7
370
    30
100
AcDbLine
 10
26.374875
 20
5.491062
 30
0.0
 11
26.374875
 21
5.186906
 31
0.0
  0
LINE
  5
8C
330
3E3
100
AcDbEntity
  8
_0
  6
Continuous
 62
     7
370
    30
100
AcDbLine
 10
26.374875
 20
5.833594
 30
0.0
 11
26.374875
 21
5.491062
 31
0.0
  0
LINE
  5
8D
330
3E3
100
AcDbEntity
  8
_0
  6
Continuous
 62
     7
370
    30
100
AcDbLine
 10
26.874875
 20
5.711906
 30
0.0
 11
26.874875
 21
5.611906
 31
0.0
  0
LINE
  5
8E
330
3E3
100
AcDbEntity
  8
_0
  6
Continuous
 62
     7
370
    30
100
AcDbLine
 10
25.874875
 20
5.711906
 30
0.0
 11
25.874875
 21
5.611906
 31
0.0
  0
LINE
  5
8F
330
3E3
100
AcDbEntity
  8
_0
  6
Continuous
 62
     7
370
    30
100
AcDbLine
 10
27.875
 20
5.711906
 30
0.0
 11
28.675
 21
5.711906
 31
0.0
  0
LINE
  5
90
330
3E3
100
AcDbEntity
  8
_0
  6
Continuous
 62
     7
370
    30
100
AcDbLine
 10
27.875
 20
5.611906
 30
0.0
 11
28.675
 21
5.611906
 31
0.0
  0
LINE
  5
91
330
3E3
100
AcDbEntity
  8
_0
  6
Continuous
 62
     7
370
    30
100
AcDbLine
 10
28.675
 20
7.386906
 30
0.0
 11
28.725
 21
7.586906
 31
0.0
  0
LINE
  5
92
330
3E3
100
AcDbEntity
  8
_0
  6
Continuous
 62
     7
370
    30
100
AcDbLine
 10
28.925
 20
7.586906
 30
0.0
 11
28.975
 21
7.386906
 31
0.0
  0
LINE
  5
93
330
3E3
100
AcDbEntity
  8
_0
  6
Continuous
 62
     7
370
    30
100
AcDbLine
 10
28.975
 20
7.386906
 30
0.0
 11
29.275
 21
7.386906
 31
0.0
  0
LINE
  5
94
330
3E3
100
AcDbEntity
  8
_0
  6
DGN Style 3
 62
     7
370
    30
100
AcDbLine
 10
24.856063
 20
7.686906
 30
0.0
 11
27.394052
 21
7.686906
 31
0.0
  0
SPLINE
  5
95
330
3E3
100
AcDbEntity
  8
_0
  6
Continuous
 62
     7
370
    30
100
AcDbSpline
210
0.0
220
0.0
230
1.0
 70
     8
 71
     3
 72
    36
 73
    32
 74
     0
 42
0.0000000001
 43
0.00000001
 40
0.0
 40
0.0
 40
0.0
 40
0.0
 40
0.0344827586206897
 40
0.0689655172413793
 40
0.103448275862069
 40
0.1379310344827586
 40
0.1724137931034483
 40
0.206896551724138
 40
0.2413793103448276
 40
0.2758620689655173
 40
0.310344827586207
 40
0.3448275862068966
 40
0.3793103448275863
 40
0.413793103448276
 40
0.4482758620689656
 40
0.4827586206896553
 40
0.517241379310345
 40
0.5517241379310346
 40
0.5862068965517242
 40
0.6206896551724138
 40
0.6551724137931034
 40
0.689655172413793
 40
0.7241379310344827
 40
0.7586206896551723
 40
0.7931034482758619
 40
0.8275862068965515
 40
0.8620689655172411
 40
0.8965517241379307
 40
0.9310344827586203
 40
0.9655172413793099
 40
1.0
 40
1.0
 40
1.0
 40
1.0
 10
27.399375
 20
7.48234375
 30
0.0
 10
27.33019791666667
 20
7.514270833333333
 30
0.0
 10
27.26103125
 20
7.492989583333333
 30
0.0
 10
27.16526041666667
 20
7.519593749999999
 30
0.0
 10
27.05884375
 20
7.4983125
 30
0.0
 10
27.00563541666667
 20
7.514270833333333
 30
0.0
 10
26.9151875
 20
7.48234375
 30
0.0
 10
26.82472916666666
 20
7.514270833333333
 30
0.0
 10
26.74491666666666
 20
7.524916666666666
 30
0.0
 10
26.64914583333333
 20
7.487666666666667
 30
0.0
 10
26.553375
 20
7.4983125
 30
0.0
 10
26.45228125
 20
7.524916666666666
 30
0.0
 10
26.31926041666667
 20
7.4983125
 30
0.0
 10
26.21816666666667
 20
7.48234375
 30
0.0
 10
26.15964583333333
 20
7.503635416666667
 30
0.0
 10
26.07451041666667
 20
7.514270833333333
 30
0.0
 10
25.9840625
 20
7.487666666666667
 30
0.0
 10
25.90425
 20
7.4983125
 30
0.0
 10
25.84039583333333
 20
7.487666666666667
 30
0.0
 10
25.77122916666666
 20
7.4983125
 30
0.0
 10
25.68609375
 20
7.4983125
 30
0.0
 10
25.64353125
 20
7.508958333333333
 30
0.0
 10
25.61692708333333
 20
7.519593749999999
 30
0.0
 10
25.499875
 20
7.524916666666666
 30
0.0
 10
25.42538541666666
 20
7.487666666666667
 30
0.0
 10
25.34025
 20
7.519593749999999
 30
0.0
 10
25.25511458333333
 20
7.4983125
 30
0.0
 10
25.1753125
 20
7.503635416666667
 30
0.0
 10
25.08485416666667
 20
7.524916666666666
 30
0.0
 10
24.95715625
 20
7.4983125
 30
0.0
 10
24.89863541666666
 20
7.514270833333333
 30
0.0
 10
24.8560625
 20
7.492989583333333
 30
0.0
  0
LWPOLYLINE
  5
9A
330
3E3
100
AcDbEntity
  8
_0
  6
Continuous
 62
     7
370
    30
100
AcDbPolyline
 90
      134
 70
   128
 43
0.0
 10
28.717865
 20
7.558354
 10
28.713469
 20
7.562927
 10
28.70949
 20
7.566219
 10
28.706354
 20
7.56801
 10
28.703896
 20
7.568687
 10
28.701958
 20
7.568646
 10
28.700354
 20
7.568271
 10
28.698948
 20
7.567958
 10
28.697583
 20
7.568
 10
28.696229
 20
7.568406
 10
28.694885
 20
7.569083
 10
28.693531
 20
7.569948
 10
28.692167
 20
7.570917
 10
28.690792
 20
7.571896
 10
28.689385
 20
7.572802
 10
28.687948
 20
7.573562
 10
28.686479
 20
7.574104
 10
28.684948
 20
7.574479
 10
28.683354
 20
7.574771
 10
28.681698
 20
7.575073
 10
28.679958
 20
7.575448
 10
28.678125
 20
7.57599
 10
28.676198
 20
7.576771
 10
28.674156
 20
7.577875
 10
28.67199
 20
7.579344
 10
28.669719
 20
7.581104
 10
28.667323
 20
7.583
 10
28.664833
 20
7.584937
 10
28.662229
 20
7.58676
 10
28.659542
 20
7.588365
 10
28.65676
 20
7.589615
 10
28.653885
 20
7.590375
 10
28.650937
 20
7.590573
 10
28.647875
 20
7.590271
 10
28.644677
 20
7.589562
 10
28.641333
 20
7.588542
 10
28.637802
 20
7.587333
 10
28.634062
 20
7.58601
 10
28.630094
 20
7.584698
 10
28.625865
 20
7.583479
 10
28.621365
 20
7.582448
 10
28.616677
 20
7.581635
 10
28.611875
 20
7.581042
 10
28.607052
 20
7.580677
 10
28.602292
 20
7.580552
 10
28.597667
 20
7.580687
 10
28.593281
 20
7.581083
 10
28.589208
 20
7.58175
 10
28.585531
 20
7.582698
 10
28.58225
 20
7.583885
 10
28.579344
 20
7.585292
 10
28.576812
 20
7.586875
 10
28.574656
 20
7.588594
 10
28.572844
 20
7.590427
 10
28.571375
 20
7.592323
 10
28.57024
 20
7.59426
 10
28.569417
 20
7.596198
 10
28.568823
 20
7.598104
 10
28.568375
 20
7.599948
 10
28.567979
 20
7.601698
 10
28.567542
 20
7.603333
 10
28.566969
 20
7.604812
 10
28.566177
 20
7.606104
 10
28.565062
 20
7.607198
 10
28.563583
 20
7.608042
 10
28.561771
 20
7.608656
 10
28.559708
 20
7.609042
 10
28.557469
 20
7.609187
 10
28.555125
 20
7.609115
 10
28.55276
 20
7.608833
 10
28.550437
 20
7.608333
 10
28.54825
 20
7.607625
 10
28.54624
 20
7.606729
 10
28.544385
 20
7.605708
 10
28.542625
 20
7.604635
 10
28.540917
 20
7.603583
 10
28.539219
 20
7.602635
 10
28.537458
 20
7.601865
 10
28.535604
 20
7.601344
 10
28.533594
 20
7.601156
 10
28.531385
 20
7.601354
 10
28.528979
 20
7.601896
 10
28.526375
 20
7.60275
 10
28.523563
 20
7.603854
 10
28.520552
 20
7.605156
 10
28.517344
 20
7.606615
 10
28.513927
 20
7.608177
 10
28.510312
 20
7.609781
 10
28.5065
 20
7.611396
 10
28.502531
 20
7.612958
 10
28.498469
 20
7.614427
 10
28.494354
 20
7.61576
 10
28.49024
 20
7.616917
 10
28.486177
 20
7.617844
 10
28.482208
 20
7.6185
 10
28.478396
 20
7.618833
 10
28.474781
 20
7.618833
 10
28.471344
 20
7.618552
 10
28.468083
 20
7.618094
 10
28.464979
 20
7.617542
 10
28.462021
 20
7.61699
 10
28.459177
 20
7.616531
 10
28.456458
 20
7.61626
 10
28.453823
 20
7.61625
 10
28.451271
 20
7.616583
 10
28.448771
 20
7.617198
 10
28.446292
 20
7.618031
 10
28.443802
 20
7.619
 10
28.441271
 20
7.620031
 10
28.438667
 20
7.621042
 10
28.435958
 20
7.621958
 10
28.433125
 20
7.622719
 10
28.430146
 20
7.62325
 10
28.427052
 20
7.623604
 10
28.423896
 20
7.623823
 10
28.420729
 20
7.623958
 10
28.417604
 20
7.624083
 10
28.414573
 20
7.62424
 10
28.411677
 20
7.624479
 10
28.408979
 20
7.624875
 10
28.40651
 20
7.625458
 10
28.40425
 20
7.62625
 10
28.402188
 20
7.62724
 10
28.400281
 20
7.628427
 10
28.3985
 20
7.629823
 10
28.396823
 20
7.631427
 10
28.395229
 20
7.633219
 10
28.393677
 20
7.635219
 10
28.392083
 20
7.637437
 10
28.390135
 20
7.639875
 10
28.387438
 20
7.642604
 10
28.383625
 20
7.645625
 10
28.378302
 20
7.649
 10
28.375
 20
7.650719
  0
LINE
  5
AB
330
3E3
100
AcDbEntity
  8
HATCH
  6
Continuous
 62
     7
370
    30
100
AcDbLine
 10
26.425
 20
5.317031
 30
0.0
 11
26.4375
 21
5.317031
 31
0.0
  0
LINE
  5
AC
330
3E3
100
AcDbEntity
  8
HATCH
  6
Continuous
 62
     7
370
    30
100
AcDbLine
 10
26.525
 20
5.317031
 30
0.0
 11
26.5375
 21
5.317031
 31
0.0
  0
LINE
  5
AD
330
3E3
100
AcDbEntity
  8
HATCH
  6
Continuous
 62
     7
370
    30
100
AcDbLine
 10
26.625
 20
5.317031
 30
0.0
 11
26.6375
 21
5.317031
 31
0.0
  0
LINE
  5
AE
330
3E3
100
AcDbEntity
  8
HATCH
  6
Continuous
 62
     7
370
    30
100
AcDbLine
 10
26.725
 20
5.317031
 30
0.0
 11
26.7375
 21
5.317031
 31
0.0
  0
LINE
  5
AF
330
3E3
100
AcDbEntity
  8
HATCH
  6
Continuous
 62
     7
370
    30
100
AcDbLine
 10
26.825
 20
5.317031
 30
0.0
 11
26.8375
 21
5.317031
 31
0.0
  0
LINE
  5
B0
330
3E3
100
AcDbEntity
  8
HATCH
  6
Continuous
 62
     7
370
    30
100
AcDbLine
 10
26.375
 20
5.403635
 30
0.0
 11
26.3875
 21
5.403635
 31
0.0
  0
LINE
  5
B1
330
3E3
100
AcDbEntity
  8
HATCH
  6
Continuous
 62
     7
370
    30
100
AcDbLine
 10
26.475
 20
5.403635
 30
0.0
 11
26.4875
 21
5.403635
 31
0.0
  0
LINE
  5
B2
330
3E3
100
AcDbEntity
  8
HATCH
  6
Continuous
 62
     7
370
    30
100
AcDbLine
 10
26.575
 20
5.403635
 30
0.0
 11
26.5875
 21
5.403635
 31
0.0
  0
LINE
  5
B3
330
3E3
100
AcDbEntity
  8
HATCH
  6
Continuous
 62
     7
370
    30
100
AcDbLine
 10
26.675
 20
5.403635
 30
0.0
 11
26.6875
 21
5.403635
 31
0.0
  0
LINE
  5
B4
330
3E3
100
AcDbEntity
  8
HATCH
  6
Continuous
 62
     7
370
    30
100
AcDbLine
 10
26.775
 20
5.403635
 30
0.0
 11
26.7875
 21
5.403635
 31
0.0
  0
LINE
  5
B5
330
3E3
100
AcDbEntity
  8
HATCH
  6
Continuous
 62
     7
370
    30
100
AcDbLine
 10
26.875
 20
5.403635
 30
0.0
 11
26.8875
 21
5.403635
 31
0.0
  0
LINE
  5
B6
330
3E3
100
AcDbEntity
  8
HATCH
  6
Continuous
 62
     7
370
    30
100
AcDbLine
 10
26.525
 20
5.49024
 30
0.0
 11
26.5375
 21
5.49024
 31
0.0
  0
LINE
  5
B7
330
3E3
100
AcDbEntity
  8
HATCH
  6
Continuous
 62
     7
370
    30
100
AcDbLine
 10
26.625
 20
5.49024
 30
0.0
 11
26.6375
 21
5.49024
 31
0.0
  0
LINE
  5
B8
330
3E3
100
AcDbEntity
  8
HATCH
  6
Continuous
 62
     7
370
    30
100
AcDbLine
 10
26.725
 20
5.49024
 30
0.0
 11
26.7375
 21
5.49024
 31
0.0
  0
LINE
  5
B9
330
3E3
100
AcDbEntity
  8
HATCH
  6
Continuous
 62
     7
370
    30
100
AcDbLine
 10
26.825
 20
5.49024
 30
0.0
 11
26.8375
 21
5.49024
 31
0.0
  0
LINE
  5
BA
330
3E3
100
AcDbEntity
  8
HATCH
  6
Continuous
 62
     7
370
    30
100
AcDbLine
 10
26.925
 20
5.49024
 30
0.0
 11
26.9375
 21
5.49024
 31
0.0
  0
LINE
  5
BB
330
3E3
100
AcDbEntity
  8
HATCH
  6
Continuous
 62
     7
370
    30
100
AcDbLine
 10
26.375
 20
5.230427
 30
0.0
 11
26.3875
 21
5.230427
 31
0.0
  0
LINE
  5
BC
330
3E3
100
AcDbEntity
  8
HATCH
  6
Continuous
 62
     7
370
    30
100
AcDbLine
 10
26.475
 20
5.230427
 30
0.0
 11
26.4875
 21
5.230427
 31
0.0
  0
LINE
  5
BD
330
3E3
100
AcDbEntity
  8
HATCH
  6
Continuous
 62
     7
370
    30
100
AcDbLine
 10
26.575
 20
5.230427
 30
0.0
 11
26.5875
 21
5.230427
 31
0.0
  0
LINE
  5
BE
330
3E3
100
AcDbEntity
  8
HATCH
  6
Continuous
 62
     7
370
    30
100
AcDbLine
 10
26.675
 20
5.230427
 30
0.0
 11
26.6875
 21
5.230427
 31
0.0
  0
LINE
  5
BF
330
3E3
100
AcDbEntity
  8
HATCH
  6
Continuous
 62
     7
370
    30
100
AcDbLine
 10
26.775
 20
5.230427
 30
0.0
 11
26.7875
 21
5.230427
 31
0.0
  0
LINE
  5
C0
330
3E3
100
AcDbEntity
  8
HATCH
  6
Continuous
 62
     7
370
    30
100
AcDbLine
 10
26.68125
 20
5.230427
 30
0.0
 11
26.68125
 21
5.236677
 31
0.0
  0
LINE
  5
C1
330
3E3
100
AcDbEntity
  8
HATCH
  6
Continuous
 62
     7
370
    30
100
AcDbLine
 10
26.68125
 20
5.403635
 30
0.0
 11
26.68125
 21
5.409885
 31
0.0
  0
LINE
  5
C2
330
3E3
100
AcDbEntity
  8
HATCH
  6
Continuous
 62
     7
370
    30
100
AcDbLine
 10
26.63125
 20
5.317031
 30
0.0
 11
26.63125
 21
5.323281
 31
0.0
  0
LINE
  5
C3
330
3E3
100
AcDbEntity
  8
HATCH
  6
Continuous
 62
     7
370
    30
100
AcDbLine
 10
26.63125
 20
5.49024
 30
0.0
 11
26.63125
 21
5.49649
 31
0.0
  0
LINE
  5
C4
330
3E3
100
AcDbEntity
  8
HATCH
  6
Continuous
 62
     7
370
    30
100
AcDbLine
 10
26.58125
 20
5.230427
 30
0.0
 11
26.58125
 21
5.236677
 31
0.0
  0
LINE
  5
C5
330
3E3
100
AcDbEntity
  8
HATCH
  6
Continuous
 62
     7
370
    30
100
AcDbLine
 10
26.58125
 20
5.403635
 30
0.0
 11
26.58125
 21
5.409885
 31
0.0
  0
LINE
  5
C6
330
3E3
100
AcDbEntity
  8
HATCH
  6
Continuous
 62
     7
370
    30
100
AcDbLine
 10
26.53125
 20
5.317031
 30
0.0
 11
26.53125
 21
5.323281
 31
0.0
  0
LINE
  5
C7
330
3E3
100
AcDbEntity
  8
HATCH
  6
Continuous
 62
     7
370
    30
100
AcDbLine
 10
26.53125
 20
5.49024
 30
0.0
 11
26.53125
 21
5.49649
 31
0.0
  0
LINE
  5
C8
330
3E3
100
AcDbEntity
  8
HATCH
  6
Continuous
 62
     7
370
    30
100
AcDbLine
 10
26.48125
 20
5.230427
 30
0.0
 11
26.48125
 21
5.236677
 31
0.0
  0
LINE
  5
C9
330
3E3
100
AcDbEntity
  8
HATCH
  6
Continuous
 62
     7
370
    30
100
AcDbLine
 10
26.48125
 20
5.403635
 30
0.0
 11
26.48125
 21
5.409885
 31
0.0
  0
LINE
  5
CA
330
3E3
100
AcDbEntity
  8
HATCH
  6
Continuous
 62
     7
370
    30
100
AcDbLine
 10
26.43125
 20
5.317031
 30
0.0
 11
26.43125
 21
5.323281
 31
0.0
  0
LINE
  5
CB
330
3E3
100
AcDbEntity
  8
HATCH
  6
Continuous
 62
     7
370
    30
100
AcDbLine
 10
26.38125
 20
5.230427
 30
0.0
 11
26.38125
 21
5.236677
 31
0.0
  0
LINE
  5
CC
330
3E3
100
AcDbEntity
  8
HATCH
  6
Continuous
 62
     7
370
    30
100
AcDbLine
 10
26.38125
 20
5.403635
 30
0.0
 11
26.38125
 21
5.409885
 31
0.0
  0
LINE
  5
CD
330
3E3
100
AcDbEntity
  8
HATCH
  6
Continuous
 62
     7
370
    30
100
AcDbLine
 10
26.73125
 20
5.317031
 30
0.0
 11
26.73125
 21
5.323281
 31
0.0
  0
LINE
  5
CE
330
3E3
100
AcDbEntity
  8
HATCH
  6
Continuous
 62
     7
370
    30
100
AcDbLine
 10
26.73125
 20
5.49024
 30
0.0
 11
26.73125
 21
5.49649
 31
0.0
  0
LINE
  5
CF
330
3E3
100
AcDbEntity
  8
HATCH
  6
Continuous
 62
     7
370
    30
100
AcDbLine
 10
26.78125
 20
5.230427
 30
0.0
 11
26.78125
 21
5.236677
 31
0.0
  0
LINE
  5
D0
330
3E3
100
AcDbEntity
  8
HATCH
  6
Continuous
 62
     7
370
    30
100
AcDbLine
 10
26.78125
 20
5.403635
 30
0.0
 11
26.78125
 21
5.409885
 31
0.0
  0
LINE
  5
D1
330
3E3
100
AcDbEntity
  8
HATCH
  6
Continuous
 62
     7
370
    30
100
AcDbLine
 10
26.83125
 20
5.317031
 30
0.0
 11
26.83125
 21
5.323281
 31
0.0
  0
LINE
  5
D2
330
3E3
100
AcDbEntity
  8
HATCH
  6
Continuous
 62
     7
370
    30
100
AcDbLine
 10
26.83125
 20
5.49024
 30
0.0
 11
26.83125
 21
5.49649
 31
0.0
  0
LINE
  5
D3
330
3E3
100
AcDbEntity
  8
HATCH
  6
Continuous
 62
     7
370
    30
100
AcDbLine
 10
26.88125
 20
5.403635
 30
0.0
 11
26.88125
 21
5.409885
 31
0.0
  0
LINE
  5
D4
330
3E3
100
AcDbEntity
  8
HATCH
  6
Continuous
 62
     7
370
    30
100
AcDbLine
 10
26.93125
 20
5.49024
 30
0.0
 11
26.93125
 21
5.49649
 31
0.0
  0
LINE
  5
D5
330
3E3
100
AcDbEntity
  8
HATCH
  6
Continuous
 62
     7
370
    30
100
AcDbLine
 10
26.682813
 20
5.230427
 30
0.0
 11
26.682813
 21
5.235427
 31
0.0
  0
LINE
  5
D6
330
3E3
100
AcDbEntity
  8
HATCH
  6
Continuous
 62
     7
370
    30
100
AcDbLine
 10
26.682813
 20
5.403635
 30
0.0
 11
26.682813
 21
5.408635
 31
0.0
  0
LINE
  5
D7
330
3E3
100
AcDbEntity
  8
HATCH
  6
Continuous
 62
     7
370
    30
100
AcDbLine
 10
26.632812
 20
5.317031
 30
0.0
 11
26.632812
 21
5.322031
 31
0.0
  0
LINE
  5
D8
330
3E3
100
AcDbEntity
  8
HATCH
  6
Continuous
 62
     7
370
    30
100
AcDbLine
 10
26.632812
 20
5.49024
 30
0.0
 11
26.632812
 21
5.49524
 31
0.0
  0
LINE
  5
D9
330
3E3
100
AcDbEntity
  8
HATCH
  6
Continuous
 62
     7
370
    30
100
AcDbLine
 10
26.582812
 20
5.230427
 30
0.0
 11
26.582812
 21
5.235427
 31
0.0
  0
LINE
  5
DA
330
3E3
100
AcDbEntity
  8
HATCH
  6
Continuous
 62
     7
370
    30
100
AcDbLine
 10
26.582812
 20
5.403635
 30
0.0
 11
26.582812
 21
5.408635
 31
0.0
  0
LINE
  5
DB
330
3E3
100
AcDbEntity
  8
HATCH
  6
Continuous
 62
     7
370
    30
100
AcDbLine
 10
26.532812
 20
5.317031
 30
0.0
 11
26.532812
 21
5.322031
 31
0.0
  0
LINE
  5
DC
330
3E3
100
AcDbEntity
  8
HATCH
  6
Continuous
 62
     7
370
    30
100
AcDbLine
 10
26.532812
 20
5.49024
 30
0.0
 11
26.532812
 21
5.49524
 31
0.0
  0
LINE
  5
DD
330
3E3
100
AcDbEntity
  8
HATCH
  6
Continuous
 62
     7
370
    30
100
AcDbLine
 10
26.482812
 20
5.230427
 30
0.0
 11
26.482812
 21
5.235427
 31
0.0
  0
LINE
  5
DE
330
3E3
100
AcDbEntity
  8
HATCH
  6
Continuous
 62
     7
370
    30
100
AcDbLine
 10
26.482812
 20
5.403635
 30
0.0
 11
26.482812
 21
5.408635
 31
0.0
  0
LINE
  5
DF
330
3E3
100
AcDbEntity
  8
HATCH
  6
Continuous
 62
     7
370
    30
100
AcDbLine
 10
26.432813
 20
5.317031
 30
0.0
 11
26.432813
 21
5.322031
 31
0.0
  0
LINE
  5
E0
330
3E3
100
AcDbEntity
  8
HATCH
  6
Continuous
 62
     7
370
    30
100
AcDbLine
 10
26.382812
 20
5.230427
 30
0.0
 11
26.382812
 21
5.235427
 31
0.0
  0
LINE
  5
E1
330
3E3
100
AcDbEntity
  8
HATCH
  6
Continuous
 62
     7
370
    30
100
AcDbLine
 10
26.382812
 20
5.403635
 30
0.0
 11
26.382812
 21
5.408635
 31
0.0
  0
LINE
  5
E2
330
3E3
100
AcDbEntity
  8
HATCH
  6
Continuous
 62
     7
370
    30
100
AcDbLine
 10
26.732812
 20
5.317031
 30
0.0
 11
26.732812
 21
5.322031
 31
0.0
  0
LINE
  5
E3
330
3E3
100
AcDbEntity
  8
HATCH
  6
Continuous
 62
     7
370
    30
100
AcDbLine
 10
26.732812
 20
5.49024
 30
0.0
 11
26.732812
 21
5.49524
 31
0.0
  0
LINE
  5
E4
330
3E3
100
AcDbEntity
  8
HATCH
  6
Continuous
 62
     7
370
    30
100
AcDbLine
 10
26.782812
 20
5.230427
 30
0.0
 11
26.782812
 21
5.235427
 31
0.0
  0
LINE
  5
E5
330
3E3
100
AcDbEntity
  8
HATCH
  6
Continuous
 62
     7
370
    30
100
AcDbLine
 10
26.782812
 20
5.403635
 30
0.0
 11
26.782812
 21
5.408635
 31
0.0
  0
LINE
  5
E6
330
3E3
100
AcDbEntity
  8
HATCH
  6
Continuous
 62
     7
370
    30
100
AcDbLine
 10
26.832812
 20
5.317031
 30
0.0
 11
26.832812
 21
5.322031
 31
0.0
  0
LINE
  5
E7
330
3E3
100
AcDbEntity
  8
HATCH
  6
Continuous
 62
     7
370
    30
100
AcDbLine
 10
26.832812
 20
5.49024
 30
0.0
 11
26.832812
 21
5.49524
 31
0.0
  0
LINE
  5
E8
330
3E3
100
AcDbEntity
  8
HATCH
  6
Continuous
 62
     7
370
    30
100
AcDbLine
 10
26.882812
 20
5.403635
 30
0.0
 11
26.882812
 21
5.408635
 31
0.0
  0
LINE
  5
E9
330
3E3
100
AcDbEntity
  8
HATCH
  6
Continuous
 62
     7
370
    30
100
AcDbLine
 10
26.932813
 20
5.49024
 30
0.0
 11
26.932813
 21
5.49524
 31
0.0
  0
LINE
  5
EA
330
3E3
100
AcDbEntity
  8
HATCH
  6
Continuous
 62
     7
370
    30
100
AcDbLine
 10
26.679688
 20
5.230427
 30
0.0
 11
26.679688
 21
5.235427
 31
0.0
  0
LINE
  5
EB
330
3E3
100
AcDbEntity
  8
HATCH
  6
Continuous
 62
     7
370
    30
100
AcDbLine
 10
26.679688
 20
5.403635
 30
0.0
 11
26.679688
 21
5.408635
 31
0.0
  0
LINE
  5
EC
330
3E3
100
AcDbEntity
  8
HATCH
  6
Continuous
 62
     7
370
    30
100
AcDbLine
 10
26.629687
 20
5.317031
 30
0.0
 11
26.629687
 21
5.322031
 31
0.0
  0
LINE
  5
ED
330
3E3
100
AcDbEntity
  8
HATCH
  6
Continuous
 62
     7
370
    30
100
AcDbLine
 10
26.629687
 20
5.49024
 30
0.0
 11
26.629687
 21
5.49524
 31
0.0
  0
LINE
  5
EE
330
3E3
100
AcDbEntity
  8
HATCH
  6
Continuous
 62
     7
370
    30
100
AcDbLine
 10
26.579687
 20
5.230427
 30
0.0
 11
26.579687
 21
5.235427
 31
0.0
  0
LINE
  5
EF
330
3E3
100
AcDbEntity
  8
HATCH
  6
Continuous
 62
     7
370
    30
100
AcDbLine
 10
26.579687
 20
5.403635
 30
0.0
 11
26.579687
 21
5.408635
 31
0.0
  0
LINE
  5
F0
330
3E3
100
AcDbEntity
  8
HATCH
  6
Continuous
 62
     7
370
    30
100
AcDbLine
 10
26.529687
 20
5.317031
 30
0.0
 11
26.529687
 21
5.322031
 31
0.0
  0
LINE
  5
F1
330
3E3
100
AcDbEntity
  8
HATCH
  6
Continuous
 62
     7
370
    30
100
AcDbLine
 10
26.529687
 20
5.49024
 30
0.0
 11
26.529687
 21
5.49524
 31
0.0
  0
LINE
  5
F2
330
3E3
100
AcDbEntity
  8
HATCH
  6
Continuous
 62
     7
370
    30
100
AcDbLine
 10
26.479688
 20
5.230427
 30
0.0
 11
26.479688
 21
5.235427
 31
0.0
  0
LINE
  5
F3
330
3E3
100
AcDbEntity
  8
HATCH
  6
Continuous
 62
     7
370
    30
100
AcDbLine
 10
26.479688
 20
5.403635
 30
0.0
 11
26.479688
 21
5.408635
 31
0.0
  0
LINE
  5
F4
330
3E3
100
AcDbEntity
  8
HATCH
  6
Continuous
 62
     7
370
    30
100
AcDbLine
 10
26.429688
 20
5.317031
 30
0.0
 11
26.429688
 21
5.322031
 31
0.0
  0
LINE
  5
F5
330
3E3
100
AcDbEntity
  8
HATCH
  6
Continuous
 62
     7
370
    30
100
AcDbLine
 10
26.379687
 20
5.230427
 30
0.0
 11
26.379687
 21
5.235427
 31
0.0
  0
LINE
  5
F6
330
3E3
100
AcDbEntity
  8
HATCH
  6
Continuous
 62
     7
370
    30
100
AcDbLine
 10
26.379687
 20
5.403635
 30
0.0
 11
26.379687
 21
5.408635
 31
0.0
  0
LINE
  5
F7
330
3E3
100
AcDbEntity
  8
HATCH
  6
Continuous
 62
     7
370
    30
100
AcDbLine
 10
26.729688
 20
5.317031
 30
0.0
 11
26.729688
 21
5.322031
 31
0.0
  0
LINE
  5
F8
330
3E3
100
AcDbEntity
  8
HATCH
  6
Continuous
 62
     7
370
    30
100
AcDbLine
 10
26.729688
 20
5.49024
 30
0.0
 11
26.729688
 21
5.49524
 31
0.0
  0
LINE
  5
F9
330
3E3
100
AcDbEntity
  8
HATCH
  6
Continuous
 62
     7
370
    30
100
AcDbLine
 10
26.779687
 20
5.230427
 30
0.0
 11
26.779687
 21
5.235427
 31
0.0
  0
LINE
  5
FA
330
3E3
100
AcDbEntity
  8
HATCH
  6
Continuous
 62
     7
370
    30
100
AcDbLine
 10
26.779687
 20
5.403635
 30
0.0
 11
26.779687
 21
5.408635
 31
0.0
  0
LINE
  5
FB
330
3E3
100
AcDbEntity
  8
HATCH
  6
Continuous
 62
     7
370
    30
100
AcDbLine
 10
26.829687
 20
5.317031
 30
0.0
 11
26.829687
 21
5.322031
 31
0.0
  0
LINE
  5
FC
330
3E3
100
AcDbEntity
  8
HATCH
  6
Continuous
 62
     7
370
    30
100
AcDbLine
 10
26.829687
 20
5.49024
 30
0.0
 11
26.829687
 21
5.49524
 31
0.0
  0
LINE
  5
FD
330
3E3
100
AcDbEntity
  8
HATCH
  6
Continuous
 62
     7
370
    30
100
AcDbLine
 10
26.879687
 20
5.403635
 30
0.0
 11
26.879687
 21
5.408635
 31
0.0
  0
LINE
  5
FE
330
3E3
100
AcDbEntity
  8
HATCH
  6
Continuous
 62
     7
370
    30
100
AcDbLine
 10
26.929688
 20
5.49024
 30
0.0
 11
26.929688
 21
5.49524
 31
0.0
  0
LINE
  5
FF
330
3E3
100
AcDbEntity
  8
HATCH
  6
Continuous
 62
     7
370
    30
100
AcDbLine
 10
26.584375
 20
5.230427
 30
0.0
 11
26.586375
 21
5.233896
 31
0.0
  0
LINE
  5
100
330
3E3
100
AcDbEntity
  8
HATCH
  6
Continuous
 62
     7
370
    30
100
AcDbLine
 10
26.634375
 20
5.317031
 30
0.0
 11
26.636375
 21
5.3205
 31
0.0
  0
LINE
  5
101
330
3E3
100
AcDbEntity
  8
HATCH
  6
Continuous
 62
     7
370
    30
100
AcDbLine
 10
26.684375
 20
5.403635
 30
0.0
 11
26.686375
 21
5.407104
 31
0.0
  0
LINE
  5
102
330
3E3
100
AcDbEntity
  8
HATCH
  6
Continuous
 62
     7
370
    30
100
AcDbLine
 10
26.734375
 20
5.49024
 30
0.0
 11
26.736375
 21
5.493698
 31
0.0
  0
LINE
  5
103
330
3E3
100
AcDbEntity
  8
HATCH
  6
Continuous
 62
     7
370
    30
100
AcDbLine
 10
26.484375
 20
5.230427
 30
0.0
 11
26.486375
 21
5.233896
 31
0.0
  0
LINE
  5
104
330
3E3
100
AcDbEntity
  8
HATCH
  6
Continuous
 62
     7
370
    30
100
AcDbLine
 10
26.534375
 20
5.317031
 30
0.0
 11
26.536375
 21
5.3205
 31
0.0
  0
LINE
  5
105
330
3E3
100
AcDbEntity
  8
HATCH
  6
Continuous
 62
     7
370
    30
100
AcDbLine
 10
26.584375
 20
5.403635
 30
0.0
 11
26.586375
 21
5.407104
 31
0.0
  0
LINE
  5
106
330
3E3
100
AcDbEntity
  8
HATCH
  6
Continuous
 62
     7
370
    30
100
AcDbLine
 10
26.634375
 20
5.49024
 30
0.0
 11
26.636375
 21
5.493698
 31
0.0
  0
LINE
  5
107
330
3E3
100
AcDbEntity
  8
HATCH
  6
Continuous
 62
     7
370
    30
100
AcDbLine
 10
26.384375
 20
5.230427
 30
0.0
 11
26.386375
 21
5.233896
 31
0.0
  0
LINE
  5
108
330
3E3
100
AcDbEntity
  8
HATCH
  6
Continuous
 62
     7
370
    30
100
AcDbLine
 10
26.434375
 20
5.317031
 30
0.0
 11
26.436375
 21
5.3205
 31
0.0
  0
LINE
  5
109
330
3E3
100
AcDbEntity
  8
HATCH
  6
Continuous
 62
     7
370
    30
100
AcDbLine
 10
26.484375
 20
5.403635
 30
0.0
 11
26.486375
 21
5.407104
 31
0.0
  0
LINE
  5
10A
330
3E3
100
AcDbEntity
  8
HATCH
  6
Continuous
 62
     7
370
    30
100
AcDbLine
 10
26.534375
 20
5.49024
 30
0.0
 11
26.536375
 21
5.493698
 31
0.0
  0
LINE
  5
10B
330
3E3
100
AcDbEntity
  8
HATCH
  6
Continuous
 62
     7
370
    30
100
AcDbLine
 10
26.384375
 20
5.403635
 30
0.0
 11
26.386375
 21
5.407104
 31
0.0
  0
LINE
  5
10C
330
3E3
100
AcDbEntity
  8
HATCH
  6
Continuous
 62
     7
370
    30
100
AcDbLine
 10
26.684375
 20
5.230427
 30
0.0
 11
26.686375
 21
5.233896
 31
0.0
  0
LINE
  5
10D
330
3E3
100
AcDbEntity
  8
HATCH
  6
Continuous
 62
     7
370
    30
100
AcDbLine
 10
26.734375
 20
5.317031
 30
0.0
 11
26.736375
 21
5.3205
 31
0.0
  0
LINE
  5
10E
330
3E3
100
AcDbEntity
  8
HATCH
  6
Continuous
 62
     7
370
    30
100
AcDbLine
 10
26.784375
 20
5.403635
 30
0.0
 11
26.786375
 21
5.407104
 31
0.0
  0
LINE
  5
10F
330
3E3
100
AcDbEntity
  8
HATCH
  6
Continuous
 62
     7
370
    30
100
AcDbLine
 10
26.834375
 20
5.49024
 30
0.0
 11
26.836375
 21
5.493698
 31
0.0
  0
LINE
  5
110
330
3E3
100
AcDbEntity
  8
HATCH
  6
Continuous
 62
     7
370
    30
100
AcDbLine
 10
26.784375
 20
5.230427
 30
0.0
 11
26.786375
 21
5.233896
 31
0.0
  0
LINE
  5
111
330
3E3
100
AcDbEntity
  8
HATCH
  6
Continuous
 62
     7
370
    30
100
AcDbLine
 10
26.834375
 20
5.317031
 30
0.0
 11
26.836375
 21
5.3205
 31
0.0
  0
LINE
  5
112
330
3E3
100
AcDbEntity
  8
HATCH
  6
Continuous
 62
     7
370
    30
100
AcDbLine
 10
26.884375
 20
5.403635
 30
0.0
 11
26.886375
 21
5.407104
 31
0.0
  0
LINE
  5
113
330
3E3
100
AcDbEntity
  8
HATCH
  6
Continuous
 62
     7
370
    30
100
AcDbLine
 10
26.934375
 20
5.49024
 30
0.0
 11
26.936375
 21
5.493698
 31
0.0
  0
LINE
  5
114
330
3E3
100
AcDbEntity
  8
HATCH
  6
Continuous
 62
     7
370
    30
100
AcDbLine
 10
26.678125
 20
5.230427
 30
0.0
 11
26.676125
 21
5.233896
 31
0.0
  0
LINE
  5
115
330
3E3
100
AcDbEntity
  8
HATCH
  6
Continuous
 62
     7
370
    30
100
AcDbLine
 10
26.628125
 20
5.317031
 30
0.0
 11
26.626125
 21
5.3205
 31
0.0
  0
LINE
  5
116
330
3E3
100
AcDbEntity
  8
HATCH
  6
Continuous
 62
     7
370
    30
100
AcDbLine
 10
26.578125
 20
5.403635
 30
0.0
 11
26.576125
 21
5.407104
 31
0.0
  0
LINE
  5
117
330
3E3
100
AcDbEntity
  8
HATCH
  6
Continuous
 62
     7
370
    30
100
AcDbLine
 10
26.528125
 20
5.49024
 30
0.0
 11
26.526125
 21
5.493698
 31
0.0
  0
LINE
  5
118
330
3E3
100
AcDbEntity
  8
HATCH
  6
Continuous
 62
     7
370
    30
100
AcDbLine
 10
26.578125
 20
5.230427
 30
0.0
 11
26.576125
 21
5.233896
 31
0.0
  0
LINE
  5
119
330
3E3
100
AcDbEntity
  8
HATCH
  6
Continuous
 62
     7
370
    30
100
AcDbLine
 10
26.528125
 20
5.317031
 30
0.0
 11
26.526125
 21
5.3205
 31
0.0
  0
LINE
  5
11A
330
3E3
100
AcDbEntity
  8
HATCH
  6
Continuous
 62
     7
370
    30
100
AcDbLine
 10
26.478125
 20
5.403635
 30
0.0
 11
26.476125
 21
5.407104
 31
0.0
  0
LINE
  5
11B
330
3E3
100
AcDbEntity
  8
HATCH
  6
Continuous
 62
     7
370
    30
100
AcDbLine
 10
26.478125
 20
5.230427
 30
0.0
 11
26.476125
 21
5.233896
 31
0.0
  0
LINE
  5
11C
330
3E3
100
AcDbEntity
  8
HATCH
  6
Continuous
 62
     7
370
    30
100
AcDbLine
 10
26.428125
 20
5.317031
 30
0.0
 11
26.426125
 21
5.3205
 31
0.0
  0
LINE
  5
11D
330
3E3
100
AcDbEntity
  8
HATCH
  6
Continuous
 62
     7
370
    30
100
AcDbLine
 10
26.378125
 20
5.403635
 30
0.0
 11
26.376125
 21
5.407104
 31
0.0
  0
LINE
  5
11E
330
3E3
100
AcDbEntity
  8
HATCH
  6
Continuous
 62
     7
370
    30
100
AcDbLine
 10
26.378125
 20
5.230427
 30
0.0
 11
26.376125
 21
5.233896
 31
0.0
  0
LINE
  5
11F
330
3E3
100
AcDbEntity
  8
HATCH
  6
Continuous
 62
     7
370
    30
100
AcDbLine
 10
26.778125
 20
5.230427
 30
0.0
 11
26.776125
 21
5.233896
 31
0.0
  0
LINE
  5
120
330
3E3
100
AcDbEntity
  8
HATCH
  6
Continuous
 62
     7
370
    30
100
AcDbLine
 10
26.728125
 20
5.317031
 30
0.0
 11
26.726125
 21
5.3205
 31
0.0
  0
LINE
  5
121
330
3E3
100
AcDbEntity
  8
HATCH
  6
Continuous
 62
     7
370
    30
100
AcDbLine
 10
26.678125
 20
5.403635
 30
0.0
 11
26.676125
 21
5.407104
 31
0.0
  0
LINE
  5
122
330
3E3
100
AcDbEntity
  8
HATCH
  6
Continuous
 62
     7
370
    30
100
AcDbLine
 10
26.628125
 20
5.49024
 30
0.0
 11
26.626125
 21
5.493698
 31
0.0
  0
LINE
  5
123
330
3E3
100
AcDbEntity
  8
HATCH
  6
Continuous
 62
     7
370
    30
100
AcDbLine
 10
26.828125
 20
5.317031
 30
0.0
 11
26.826125
 21
5.3205
 31
0.0
  0
LINE
  5
124
330
3E3
100
AcDbEntity
  8
HATCH
  6
Continuous
 62
     7
370
    30
100
AcDbLine
 10
26.778125
 20
5.403635
 30
0.0
 11
26.776125
 21
5.407104
 31
0.0
  0
LINE
  5
125
330
3E3
100
AcDbEntity
  8
HATCH
  6
Continuous
 62
     7
370
    30
100
AcDbLine
 10
26.728125
 20
5.49024
 30
0.0
 11
26.726125
 21
5.493698
 31
0.0
  0
LINE
  5
126
330
3E3
100
AcDbEntity
  8
HATCH
  6
Continuous
 62
     7
370
    30
100
AcDbLine
 10
26.878125
 20
5.403635
 30
0.0
 11
26.876125
 21
5.407104
 31
0.0
  0
LINE
  5
127
330
3E3
100
AcDbEntity
  8
HATCH
  6
Continuous
 62
     7
370
    30
100
AcDbLine
 10
26.828125
 20
5.49024
 30
0.0
 11
26.826125
 21
5.493698
 31
0.0
  0
LINE
  5
128
330
3E3
100
AcDbEntity
  8
HATCH
  6
Continuous
 62
     7
370
    30
100
AcDbLine
 10
26.928125
 20
5.49024
 30
0.0
 11
26.926125
 21
5.493698
 31
0.0
  0
LINE
  5
129
330
3E3
100
AcDbEntity
  8
HATCH
  6
Continuous
 62
     7
370
    30
100
AcDbLine
 10
28.025
 20
6.009854
 30
0.0
 11
28.0375
 21
6.009854
 31
0.0
  0
LINE
  5
12A
330
3E3
100
AcDbEntity
  8
HATCH
  6
Continuous
 62
     7
370
    30
100
AcDbLine
 10
28.125
 20
6.009854
 30
0.0
 11
28.1375
 21
6.009854
 31
0.0
  0
LINE
  5
12B
330
3E3
100
AcDbEntity
  8
HATCH
  6
Continuous
 62
     7
370
    30
100
AcDbLine
 10
28.225
 20
6.009854
 30
0.0
 11
28.2375
 21
6.009854
 31
0.0
  0
LINE
  5
12C
330
3E3
100
AcDbEntity
  8
HATCH
  6
Continuous
 62
     7
370
    30
100
AcDbLine
 10
28.325
 20
6.009854
 30
0.0
 11
28.3375
 21
6.009854
 31
0.0
  0
LINE
  5
12D
330
3E3
100
AcDbEntity
  8
HATCH
  6
Continuous
 62
     7
370
    30
100
AcDbLine
 10
28.425
 20
6.009854
 30
0.0
 11
28.4375
 21
6.009854
 31
0.0
  0
LINE
  5
12E
330
3E3
100
AcDbEntity
  8
HATCH
  6
Continuous
 62
     7
370
    30
100
AcDbLine
 10
27.975
 20
6.096458
 30
0.0
 11
27.9875
 21
6.096458
 31
0.0
  0
LINE
  5
12F
330
3E3
100
AcDbEntity
  8
HATCH
  6
Continuous
 62
     7
370
    30
100
AcDbLine
 10
28.075
 20
6.096458
 30
0.0
 11
28.0875
 21
6.096458
 31
0.0
  0
LINE
  5
130
330
3E3
100
AcDbEntity
  8
HATCH
  6
Continuous
 62
     7
370
    30
100
AcDbLine
 10
28.175
 20
6.096458
 30
0.0
 11
28.1875
 21
6.096458
 31
0.0
  0
LINE
  5
131
330
3E3
100
AcDbEntity
  8
HATCH
  6
Continuous
 62
     7
370
    30
100
AcDbLine
 10
28.275
 20
6.096458
 30
0.0
 11
28.2875
 21
6.096458
 31
0.0
  0
LINE
  5
132
330
3E3
100
AcDbEntity
  8
HATCH
  6
Continuous
 62
     7
370
    30
100
AcDbLine
 10
28.375
 20
6.096458
 30
0.0
 11
28.3875
 21
6.096458
 31
0.0
  0
LINE
  5
133
330
3E3
100
AcDbEntity
  8
HATCH
  6
Continuous
 62
     7
370
    30
100
AcDbLine
 10
28.475
 20
6.096458
 30
0.0
 11
28.4875
 21
6.096458
 31
0.0
  0
LINE
  5
134
330
3E3
100
AcDbEntity
  8
HATCH
  6
Continuous
 62
     7
370
    30
100
AcDbLine
 10
27.832792
 20
6.183063
 30
0.0
 11
27.8375
 21
6.183063
 31
0.0
  0
LINE
  5
135
330
3E3
100
AcDbEntity
  8
HATCH
  6
Continuous
 62
     7
370
    30
100
AcDbLine
 10
27.925
 20
6.183063
 30
0.0
 11
27.9375
 21
6.183063
 31
0.0
  0
LINE
  5
136
330
3E3
100
AcDbEntity
  8
HATCH
  6
Continuous
 62
     7
370
    30
100
AcDbLine
 10
28.025
 20
6.183063
 30
0.0
 11
28.0375
 21
6.183063
 31
0.0
  0
LINE
  5
137
330
3E3
100
AcDbEntity
  8
HATCH
  6
Continuous
 62
     7
370
    30
100
AcDbLine
 10
28.125
 20
6.183063
 30
0.0
 11
28.1375
 21
6.183063
 31
0.0
  0
LINE
  5
138
330
3E3
100
AcDbEntity
  8
HATCH
  6
Continuous
 62
     7
370
    30
100
AcDbLine
 10
28.225
 20
6.183063
 30
0.0
 11
28.2375
 21
6.183063
 31
0.0
  0
LINE
  5
139
330
3E3
100
AcDbEntity
  8
HATCH
  6
Continuous
 62
     7
370
    30
100
AcDbLine
 10
28.325
 20
6.183063
 30
0.0
 11
28.3375
 21
6.183063
 31
0.0
  0
LINE
  5
13A
330
3E3
100
AcDbEntity
  8
HATCH
  6
Continuous
 62
     7
370
    30
100
AcDbLine
 10
28.425
 20
6.183063
 30
0.0
 11
28.4375
 21
6.183063
 31
0.0
  0
LINE
  5
13B
330
3E3
100
AcDbEntity
  8
HATCH
  6
Continuous
 62
     7
370
    30
100
AcDbLine
 10
28.525
 20
6.183063
 30
0.0
 11
28.5375
 21
6.183063
 31
0.0
  0
LINE
  5
13C
330
3E3
100
AcDbEntity
  8
HATCH
  6
Continuous
 62
     7
370
    30
100
AcDbLine
 10
27.775
 20
6.269656
 30
0.0
 11
27.7875
 21
6.269656
 31
0.0
  0
LINE
  5
13D
330
3E3
100
AcDbEntity
  8
HATCH
  6
Continuous
 62
     7
370
    30
100
AcDbLine
 10
27.875
 20
6.269656
 30
0.0
 11
27.8875
 21
6.269656
 31
0.0
  0
LINE
  5
13E
330
3E3
100
AcDbEntity
  8
HATCH
  6
Continuous
 62
     7
370
    30
100
AcDbLine
 10
27.975
 20
6.269656
 30
0.0
 11
27.9875
 21
6.269656
 31
0.0
  0
LINE
  5
13F
330
3E3
100
AcDbEntity
  8
HATCH
  6
Continuous
 62
     7
370
    30
100
AcDbLine
 10
28.075
 20
6.269656
 30
0.0
 11
28.0875
 21
6.269656
 31
0.0
  0
LINE
  5
140
330
3E3
100
AcDbEntity
  8
HATCH
  6
Continuous
 62
     7
370
    30
100
AcDbLine
 10
28.175
 20
6.269656
 30
0.0
 11
28.1875
 21
6.269656
 31
0.0
  0
LINE
  5
141
330
3E3
100
AcDbEntity
  8
HATCH
  6
Continuous
 62
     7
370
    30
100
AcDbLine
 10
28.275
 20
6.269656
 30
0.0
 11
28.2875
 21
6.269656
 31
0.0
  0
LINE
  5
142
330
3E3
100
AcDbEntity
  8
HATCH
  6
Continuous
 62
     7
370
    30
100
AcDbLine
 10
28.375
 20
6.269656
 30
0.0
 11
28.3875
 21
6.269656
 31
0.0
  0
LINE
  5
143
330
3E3
100
AcDbEntity
  8
HATCH
  6
Continuous
 62
     7
370
    30
100
AcDbLine
 10
28.475
 20
6.269656
 30
0.0
 11
28.4875
 21
6.269656
 31
0.0
  0
LINE
  5
144
330
3E3
100
AcDbEntity
  8
HATCH
  6
Continuous
 62
     7
370
    30
100
AcDbLine
 10
28.575
 20
6.269656
 30
0.0
 11
28.5875
 21
6.269656
 31
0.0
  0
LINE
  5
145
330
3E3
100
AcDbEntity
  8
HATCH
  6
Continuous
 62
     7
370
    30
100
AcDbLine
 10
28.675
 20
6.269656
 30
0.0
 11
28.6875
 21
6.269656
 31
0.0
  0
LINE
  5
146
330
3E3
100
AcDbEntity
  8
HATCH
  6
Continuous
 62
     7
370
    30
100
AcDbLine
 10
28.175
 20
5.92325
 30
0.0
 11
28.1875
 21
5.92325
 31
0.0
  0
LINE
  5
147
330
3E3
100
AcDbEntity
  8
HATCH
  6
Continuous
 62
     7
370
    30
100
AcDbLine
 10
28.275
 20
5.92325
 30
0.0
 11
28.2875
 21
5.92325
 31
0.0
  0
LINE
  5
148
330
3E3
100
AcDbEntity
  8
HATCH
  6
Continuous
 62
     7
370
    30
100
AcDbLine
 10
28.375
 20
5.92325
 30
0.0
 11
28.3875
 21
5.92325
 31
0.0
  0
LINE
  5
149
330
3E3
100
AcDbEntity
  8
HATCH
  6
Continuous
 62
     7
370
    30
100
AcDbLine
 10
28.475
 20
5.92325
 30
0.0
 11
28.4875
 21
5.92325
 31
0.0
  0
LINE
  5
14A
330
3E3
100
AcDbEntity
  8
HATCH
  6
Continuous
 62
     7
370
    30
100
AcDbLine
 10
28.23125
 20
6.009854
 30
0.0
 11
28.23125
 21
6.016104
 31
0.0
  0
LINE
  5
14B
330
3E3
100
AcDbEntity
  8
HATCH
  6
Continuous
 62
     7
370
    30
100
AcDbLine
 10
28.23125
 20
6.183063
 30
0.0
 11
28.23125
 21
6.189312
 31
0.0
  0
LINE
  5
14C
330
3E3
100
AcDbEntity
  8
HATCH
  6
Continuous
 62
     7
370
    30
100
AcDbLine
 10
28.18125
 20
5.92325
 30
0.0
 11
28.18125
 21
5.9295
 31
0.0
  0
LINE
  5
14D
330
3E3
100
AcDbEntity
  8
HATCH
  6
Continuous
 62
     7
370
    30
100
AcDbLine
 10
28.18125
 20
6.096458
 30
0.0
 11
28.18125
 21
6.102708
 31
0.0
  0
LINE
  5
14E
330
3E3
100
AcDbEntity
  8
HATCH
  6
Continuous
 62
     7
370
    30
100
AcDbLine
 10
28.18125
 20
6.269656
 30
0.0
 11
28.18125
 21
6.275906
 31
0.0
  0
LINE
  5
14F
330
3E3
100
AcDbEntity
  8
HATCH
  6
Continuous
 62
     7
370
    30
100
AcDbLine
 10
28.13125
 20
6.009854
 30
0.0
 11
28.13125
 21
6.016104
 31
0.0
  0
LINE
  5
150
330
3E3
100
AcDbEntity
  8
HATCH
  6
Continuous
 62
     7
370
    30
100
AcDbLine
 10
28.13125
 20
6.183063
 30
0.0
 11
28.13125
 21
6.189312
 31
0.0
  0
LINE
  5
151
330
3E3
100
AcDbEntity
  8
HATCH
  6
Continuous
 62
     7
370
    30
100
AcDbLine
 10
28.08125
 20
6.096458
 30
0.0
 11
28.08125
 21
6.102708
 31
0.0
  0
LINE
  5
152
330
3E3
100
AcDbEntity
  8
HATCH
  6
Continuous
 62
     7
370
    30
100
AcDbLine
 10
28.08125
 20
6.269656
 30
0.0
 11
28.08125
 21
6.275906
 31
0.0
  0
LINE
  5
153
330
3E3
100
AcDbEntity
  8
HATCH
  6
Continuous
 62
     7
370
    30
100
AcDbLine
 10
28.03125
 20
6.009854
 30
0.0
 11
28.03125
 21
6.016104
 31
0.0
  0
LINE
  5
154
330
3E3
100
AcDbEntity
  8
HATCH
  6
Continuous
 62
     7
370
    30
100
AcDbLine
 10
28.03125
 20
6.183063
 30
0.0
 11
28.03125
 21
6.189312
 31
0.0
  0
LINE
  5
155
330
3E3
100
AcDbEntity
  8
HATCH
  6
Continuous
 62
     7
370
    30
100
AcDbLine
 10
27.98125
 20
6.096458
 30
0.0
 11
27.98125
 21
6.102708
 31
0.0
  0
LINE
  5
156
330
3E3
100
AcDbEntity
  8
HATCH
  6
Continuous
 62
     7
370
    30
100
AcDbLine
 10
27.98125
 20
6.269656
 30
0.0
 11
27.98125
 21
6.275906
 31
0.0
  0
LINE
  5
157
330
3E3
100
AcDbEntity
  8
HATCH
  6
Continuous
 62
     7
370
    30
100
AcDbLine
 10
27.93125
 20
6.183063
 30
0.0
 11
27.93125
 21
6.189312
 31
0.0
  0
LINE
  5
158
330
3E3
100
AcDbEntity
  8
HATCH
  6
Continuous
 62
     7
370
    30
100
AcDbLine
 10
27.88125
 20
6.269656
 30
0.0
 11
27.88125
 21
6.275906
 31
0.0
  0
LINE
  5
159
330
3E3
100
AcDbEntity
  8
HATCH
  6
Continuous
 62
     7
370
    30
100
AcDbLine
 10
27.83125
 20
6.185
 30
0.0
 11
27.83125
 21
6.189312
 31
0.0
  0
LINE
  5
15A
330
3E3
100
AcDbEntity
  8
HATCH
  6
Continuous
 62
     7
370
    30
100
AcDbLine
 10
27.78125
 20
6.269656
 30
0.0
 11
27.78125
 21
6.275906
 31
0.0
  0
LINE
  5
15B
330
3E3
100
AcDbEntity
  8
HATCH
  6
Continuous
 62
     7
370
    30
100
AcDbLine
 10
28.28125
 20
5.92325
 30
0.0
 11
28.28125
 21
5.9295
 31
0.0
  0
LINE
  5
15C
330
3E3
100
AcDbEntity
  8
HATCH
  6
Continuous
 62
     7
370
    30
100
AcDbLine
 10
28.28125
 20
6.096458
 30
0.0
 11
28.28125
 21
6.102708
 31
0.0
  0
LINE
  5
15D
330
3E3
100
AcDbEntity
  8
HATCH
  6
Continuous
 62
     7
370
    30
100
AcDbLine
 10
28.28125
 20
6.269656
 30
0.0
 11
28.28125
 21
6.275906
 31
0.0
  0
LINE
  5
15E
330
3E3
100
AcDbEntity
  8
HATCH
  6
Continuous
 62
     7
370
    30
100
AcDbLine
 10
28.33125
 20
6.009854
 30
0.0
 11
28.33125
 21
6.016104
 31
0.0
  0
LINE
  5
15F
330
3E3
100
AcDbEntity
  8
HATCH
  6
Continuous
 62
     7
370
    30
100
AcDbLine
 10
28.33125
 20
6.183063
 30
0.0
 11
28.33125
 21
6.189312
 31
0.0
  0
LINE
  5
160
330
3E3
100
AcDbEntity
  8
HATCH
  6
Continuous
 62
     7
370
    30
100
AcDbLine
 10
28.38125
 20
5.92325
 30
0.0
 11
28.38125
 21
5.9295
 31
0.0
  0
LINE
  5
161
330
3E3
100
AcDbEntity
  8
HATCH
  6
Continuous
 62
     7
370
    30
100
AcDbLine
 10
28.38125
 20
6.096458
 30
0.0
 11
28.38125
 21
6.102708
 31
0.0
  0
LINE
  5
162
330
3E3
100
AcDbEntity
  8
HATCH
  6
Continuous
 62
     7
370
    30
100
AcDbLine
 10
28.38125
 20
6.269656
 30
0.0
 11
28.38125
 21
6.275906
 31
0.0
  0
LINE
  5
163
330
3E3
100
AcDbEntity
  8
HATCH
  6
Continuous
 62
     7
370
    30
100
AcDbLine
 10
28.43125
 20
6.009854
 30
0.0
 11
28.43125
 21
6.016104
 31
0.0
  0
LINE
  5
164
330
3E3
100
AcDbEntity
  8
HATCH
  6
Continuous
 62
     7
370
    30
100
AcDbLine
 10
28.43125
 20
6.183063
 30
0.0
 11
28.43125
 21
6.189312
 31
0.0
  0
LINE
  5
165
330
3E3
100
AcDbEntity
  8
HATCH
  6
Continuous
 62
     7
370
    30
100
AcDbLine
 10
28.48125
 20
5.92325
 30
0.0
 11
28.48125
 21
5.9295
 31
0.0
  0
LINE
  5
166
330
3E3
100
AcDbEntity
  8
HATCH
  6
Continuous
 62
     7
370
    30
100
AcDbLine
 10
28.48125
 20
6.096458
 30
0.0
 11
28.48125
 21
6.102708
 31
0.0
  0
LINE
  5
167
330
3E3
100
AcDbEntity
  8
HATCH
  6
Continuous
 62
     7
370
    30
100
AcDbLine
 10
28.48125
 20
6.269656
 30
0.0
 11
28.48125
 21
6.275906
 31
0.0
  0
LINE
  5
168
330
3E3
100
AcDbEntity
  8
HATCH
  6
Continuous
 62
     7
370
    30
100
AcDbLine
 10
28.53125
 20
6.183063
 30
0.0
 11
28.53125
 21
6.189312
 31
0.0
  0
LINE
  5
169
330
3E3
100
AcDbEntity
  8
HATCH
  6
Continuous
 62
     7
370
    30
100
AcDbLine
 10
28.58125
 20
6.269656
 30
0.0
 11
28.58125
 21
6.275906
 31
0.0
  0
LINE
  5
16A
330
3E3
100
AcDbEntity
  8
HATCH
  6
Continuous
 62
     7
370
    30
100
AcDbLine
 10
28.68125
 20
6.269656
 30
0.0
 11
28.68125
 21
6.275906
 31
0.0
  0
LINE
  5
16B
330
3E3
100
AcDbEntity
  8
HATCH
  6
Continuous
 62
     7
370
    30
100
AcDbLine
 10
28.232812
 20
6.009854
 30
0.0
 11
28.232812
 21
6.014854
 31
0.0
  0
LINE
  5
16C
330
3E3
100
AcDbEntity
  8
HATCH
  6
Continuous
 62
     7
370
    30
100
AcDbLine
 10
28.232812
 20
6.183063
 30
0.0
 11
28.232812
 21
6.188063
 31
0.0
  0
LINE
  5
16D
330
3E3
100
AcDbEntity
  8
HATCH
  6
Continuous
 62
     7
370
    30
100
AcDbLine
 10
28.182813
 20
5.92325
 30
0.0
 11
28.182813
 21
5.92825
 31
0.0
  0
LINE
  5
16E
330
3E3
100
AcDbEntity
  8
HATCH
  6
Continuous
 62
     7
370
    30
100
AcDbLine
 10
28.182813
 20
6.096458
 30
0.0
 11
28.182813
 21
6.101458
 31
0.0
  0
LINE
  5
16F
330
3E3
100
AcDbEntity
  8
HATCH
  6
Continuous
 62
     7
370
    30
100
AcDbLine
 10
28.182813
 20
6.269656
 30
0.0
 11
28.182813
 21
6.274656
 31
0.0
  0
LINE
  5
170
330
3E3
100
AcDbEntity
  8
HATCH
  6
Continuous
 62
     7
370
    30
100
AcDbLine
 10
28.132812
 20
6.009854
 30
0.0
 11
28.132812
 21
6.014854
 31
0.0
  0
LINE
  5
171
330
3E3
100
AcDbEntity
  8
HATCH
  6
Continuous
 62
     7
370
    30
100
AcDbLine
 10
28.132812
 20
6.183063
 30
0.0
 11
28.132812
 21
6.188063
 31
0.0
  0
LINE
  5
172
330
3E3
100
AcDbEntity
  8
HATCH
  6
Continuous
 62
     7
370
    30
100
AcDbLine
 10
28.082812
 20
6.096458
 30
0.0
 11
28.082812
 21
6.101458
 31
0.0
  0
LINE
  5
173
330
3E3
100
AcDbEntity
  8
HATCH
  6
Continuous
 62
     7
370
    30
100
AcDbLine
 10
28.082812
 20
6.269656
 30
0.0
 11
28.082812
 21
6.274656
 31
0.0
  0
LINE
  5
174
330
3E3
100
AcDbEntity
  8
HATCH
  6
Continuous
 62
     7
370
    30
100
AcDbLine
 10
28.032812
 20
6.009854
 30
0.0
 11
28.032812
 21
6.014854
 31
0.0
  0
LINE
  5
175
330
3E3
100
AcDbEntity
  8
HATCH
  6
Continuous
 62
     7
370
    30
100
AcDbLine
 10
28.032812
 20
6.183063
 30
0.0
 11
28.032812
 21
6.188063
 31
0.0
  0
LINE
  5
176
330
3E3
100
AcDbEntity
  8
HATCH
  6
Continuous
 62
     7
370
    30
100
AcDbLine
 10
27.982812
 20
6.096458
 30
0.0
 11
27.982812
 21
6.101458
 31
0.0
  0
LINE
  5
177
330
3E3
100
AcDbEntity
  8
HATCH
  6
Continuous
 62
     7
370
    30
100
AcDbLine
 10
27.982812
 20
6.269656
 30
0.0
 11
27.982812
 21
6.274656
 31
0.0
  0
LINE
  5
178
330
3E3
100
AcDbEntity
  8
HATCH
  6
Continuous
 62
     7
370
    30
100
AcDbLine
 10
27.932813
 20
6.183063
 30
0.0
 11
27.932813
 21
6.188063
 31
0.0
  0
LINE
  5
179
330
3E3
100
AcDbEntity
  8
HATCH
  6
Continuous
 62
     7
370
    30
100
AcDbLine
 10
27.882812
 20
6.269656
 30
0.0
 11
27.882812
 21
6.274656
 31
0.0
  0
LINE
  5
17A
330
3E3
100
AcDbEntity
  8
HATCH
  6
Continuous
 62
     7
370
    30
100
AcDbLine
 10
27.832812
 20
6.183063
 30
0.0
 11
27.832812
 21
6.188063
 31
0.0
  0
LINE
  5
17B
330
3E3
100
AcDbEntity
  8
HATCH
  6
Continuous
 62
     7
370
    30
100
AcDbLine
 10
27.782812
 20
6.269656
 30
0.0
 11
27.782812
 21
6.274656
 31
0.0
  0
LINE
  5
17C
330
3E3
100
AcDbEntity
  8
HATCH
  6
Continuous
 62
     7
370
    30
100
AcDbLine
 10
28.282812
 20
5.92325
 30
0.0
 11
28.282812
 21
5.92825
 31
0.0
  0
LINE
  5
17D
330
3E3
100
AcDbEntity
  8
HATCH
  6
Continuous
 62
     7
370
    30
100
AcDbLine
 10
28.282812
 20
6.096458
 30
0.0
 11
28.282812
 21
6.101458
 31
0.0
  0
LINE
  5
17E
330
3E3
100
AcDbEntity
  8
HATCH
  6
Continuous
 62
     7
370
    30
100
AcDbLine
 10
28.282812
 20
6.269656
 30
0.0
 11
28.282812
 21
6.274656
 31
0.0
  0
LINE
  5
17F
330
3E3
100
AcDbEntity
  8
HATCH
  6
Continuous
 62
     7
370
    30
100
AcDbLine
 10
28.332812
 20
6.009854
 30
0.0
 11
28.332812
 21
6.014854
 31
0.0
  0
LINE
  5
180
330
3E3
100
AcDbEntity
  8
HATCH
  6
Continuous
 62
     7
370
    30
100
AcDbLine
 10
28.332812
 20
6.183063
 30
0.0
 11
28.332812
 21
6.188063
 31
0.0
  0
LINE
  5
181
330
3E3
100
AcDbEntity
  8
HATCH
  6
Continuous
 62
     7
370
    30
100
AcDbLine
 10
28.382812
 20
5.92325
 30
0.0
 11
28.382812
 21
5.92825
 31
0.0
  0
LINE
  5
182
330
3E3
100
AcDbEntity
  8
HATCH
  6
Continuous
 62
     7
370
    30
100
AcDbLine
 10
28.382812
 20
6.096458
 30
0.0
 11
28.382812
 21
6.101458
 31
0.0
  0
LINE
  5
183
330
3E3
100
AcDbEntity
  8
HATCH
  6
Continuous
 62
     7
370
    30
100
AcDbLine
 10
28.382812
 20
6.269656
 30
0.0
 11
28.382812
 21
6.274656
 31
0.0
  0
LINE
  5
184
330
3E3
100
AcDbEntity
  8
HATCH
  6
Continuous
 62
     7
370
    30
100
AcDbLine
 10
28.432813
 20
6.009854
 30
0.0
 11
28.432813
 21
6.014854
 31
0.0
  0
LINE
  5
185
330
3E3
100
AcDbEntity
  8
HATCH
  6
Continuous
 62
     7
370
    30
100
AcDbLine
 10
28.432813
 20
6.183063
 30
0.0
 11
28.432813
 21
6.188063
 31
0.0
  0
LINE
  5
186
330
3E3
100
AcDbEntity
  8
HATCH
  6
Continuous
 62
     7
370
    30
100
AcDbLine
 10
28.482812
 20
5.92325
 30
0.0
 11
28.482812
 21
5.92825
 31
0.0
  0
LINE
  5
187
330
3E3
100
AcDbEntity
  8
HATCH
  6
Continuous
 62
     7
370
    30
100
AcDbLine
 10
28.482812
 20
6.096458
 30
0.0
 11
28.482812
 21
6.101458
 31
0.0
  0
LINE
  5
188
330
3E3
100
AcDbEntity
  8
HATCH
  6
Continuous
 62
     7
370
    30
100
AcDbLine
 10
28.482812
 20
6.269656
 30
0.0
 11
28.482812
 21
6.274656
 31
0.0
  0
LINE
  5
189
330
3E3
100
AcDbEntity
  8
HATCH
  6
Continuous
 62
     7
370
    30
100
AcDbLine
 10
28.532812
 20
6.183063
 30
0.0
 11
28.532812
 21
6.188063
 31
0.0
  0
LINE
  5
18A
330
3E3
100
AcDbEntity
  8
HATCH
  6
Continuous
 62
     7
370
    30
100
AcDbLine
 10
28.582812
 20
6.269656
 30
0.0
 11
28.582812
 21
6.274656
 31
0.0
  0
LINE
  5
18B
330
3E3
100
AcDbEntity
  8
HATCH
  6
Continuous
 62
     7
370
    30
100
AcDbLine
 10
28.682813
 20
6.269656
 30
0.0
 11
28.682813
 21
6.274656
 31
0.0
  0
LINE
  5
18C
330
3E3
100
AcDbEntity
  8
HATCH
  6
Continuous
 62
     7
370
    30
100
AcDbLine
 10
28.229688
 20
6.009854
 30
0.0
 11
28.229688
 21
6.014854
 31
0.0
  0
LINE
  5
18D
330
3E3
100
AcDbEntity
  8
HATCH
  6
Continuous
 62
     7
370
    30
100
AcDbLine
 10
28.229688
 20
6.183063
 30
0.0
 11
28.229688
 21
6.188063
 31
0.0
  0
LINE
  5
18E
330
3E3
100
AcDbEntity
  8
HATCH
  6
Continuous
 62
     7
370
    30
100
AcDbLine
 10
28.179688
 20
5.92325
 30
0.0
 11
28.179688
 21
5.92825
 31
0.0
  0
LINE
  5
18F
330
3E3
100
AcDbEntity
  8
HATCH
  6
Continuous
 62
     7
370
    30
100
AcDbLine
 10
28.179688
 20
6.096458
 30
0.0
 11
28.179688
 21
6.101458
 31
0.0
  0
LINE
  5
190
330
3E3
100
AcDbEntity
  8
HATCH
  6
Continuous
 62
     7
370
    30
100
AcDbLine
 10
28.179688
 20
6.269656
 30
0.0
 11
28.179688
 21
6.274656
 31
0.0
  0
LINE
  5
191
330
3E3
100
AcDbEntity
  8
HATCH
  6
Continuous
 62
     7
370
    30
100
AcDbLine
 10
28.129687
 20
6.009854
 30
0.0
 11
28.129687
 21
6.014854
 31
0.0
  0
LINE
  5
192
330
3E3
100
AcDbEntity
  8
HATCH
  6
Continuous
 62
     7
370
    30
100
AcDbLine
 10
28.129687
 20
6.183063
 30
0.0
 11
28.129687
 21
6.188063
 31
0.0
  0
LINE
  5
193
330
3E3
100
AcDbEntity
  8
HATCH
  6
Continuous
 62
     7
370
    30
100
AcDbLine
 10
28.079687
 20
6.096458
 30
0.0
 11
28.079687
 21
6.101458
 31
0.0
  0
LINE
  5
194
330
3E3
100
AcDbEntity
  8
HATCH
  6
Continuous
 62
     7
370
    30
100
AcDbLine
 10
28.079687
 20
6.269656
 30
0.0
 11
28.079687
 21
6.274656
 31
0.0
  0
LINE
  5
195
330
3E3
100
AcDbEntity
  8
HATCH
  6
Continuous
 62
     7
370
    30
100
AcDbLine
 10
28.029687
 20
6.009854
 30
0.0
 11
28.029687
 21
6.014854
 31
0.0
  0
LINE
  5
196
330
3E3
100
AcDbEntity
  8
HATCH
  6
Continuous
 62
     7
370
    30
100
AcDbLine
 10
28.029687
 20
6.183063
 30
0.0
 11
28.029687
 21
6.188063
 31
0.0
  0
LINE
  5
197
330
3E3
100
AcDbEntity
  8
HATCH
  6
Continuous
 62
     7
370
    30
100
AcDbLine
 10
27.979688
 20
6.096458
 30
0.0
 11
27.979688
 21
6.101458
 31
0.0
  0
LINE
  5
198
330
3E3
100
AcDbEntity
  8
HATCH
  6
Continuous
 62
     7
370
    30
100
AcDbLine
 10
27.979688
 20
6.269656
 30
0.0
 11
27.979688
 21
6.274656
 31
0.0
  0
LINE
  5
199
330
3E3
100
AcDbEntity
  8
HATCH
  6
Continuous
 62
     7
370
    30
100
AcDbLine
 10
27.929688
 20
6.183063
 30
0.0
 11
27.929688
 21
6.188063
 31
0.0
  0
LINE
  5
19A
330
3E3
100
AcDbEntity
  8
HATCH
  6
Continuous
 62
     7
370
    30
100
AcDbLine
 10
27.879687
 20
6.269656
 30
0.0
 11
27.879687
 21
6.274656
 31
0.0
  0
LINE
  5
19B
330
3E3
100
AcDbEntity
  8
HATCH
  6
Continuous
 62
     7
370
    30
100
AcDbLine
 10
27.829687
 20
6.186969
 30
0.0
 11
27.829687
 21
6.188063
 31
0.0
  0
LINE
  5
19C
330
3E3
100
AcDbEntity
  8
HATCH
  6
Continuous
 62
     7
370
    30
100
AcDbLine
 10
27.779687
 20
6.269656
 30
0.0
 11
27.779687
 21
6.274656
 31
0.0
  0
LINE
  5
19D
330
3E3
100
AcDbEntity
  8
HATCH
  6
Continuous
 62
     7
370
    30
100
AcDbLine
 10
28.279687
 20
5.92325
 30
0.0
 11
28.279687
 21
5.92825
 31
0.0
  0
LINE
  5
19E
330
3E3
100
AcDbEntity
  8
HATCH
  6
Continuous
 62
     7
370
    30
100
AcDbLine
 10
28.279687
 20
6.096458
 30
0.0
 11
28.279687
 21
6.101458
 31
0.0
  0
LINE
  5
19F
330
3E3
100
AcDbEntity
  8
HATCH
  6
Continuous
 62
     7
370
    30
100
AcDbLine
 10
28.279687
 20
6.269656
 30
0.0
 11
28.279687
 21
6.274656
 31
0.0
  0
LINE
  5
1A0
330
3E3
100
AcDbEntity
  8
HATCH
  6
Continuous
 62
     7
370
    30
100
AcDbLine
 10
28.329687
 20
6.009854
 30
0.0
 11
28.329687
 21
6.014854
 31
0.0
  0
LINE
  5
1A1
330
3E3
100
AcDbEntity
  8
HATCH
  6
Continuous
 62
     7
370
    30
100
AcDbLine
 10
28.329687
 20
6.183063
 30
0.0
 11
28.329687
 21
6.188063
 31
0.0
  0
LINE
  5
1A2
330
3E3
100
AcDbEntity
  8
HATCH
  6
Continuous
 62
     7
370
    30
100
AcDbLine
 10
28.379687
 20
5.92325
 30
0.0
 11
28.379687
 21
5.92825
 31
0.0
  0
LINE
  5
1A3
330
3E3
100
AcDbEntity
  8
HATCH
  6
Continuous
 62
     7
370
    30
100
AcDbLine
 10
28.379687
 20
6.096458
 30
0.0
 11
28.379687
 21
6.101458
 31
0.0
  0
LINE
  5
1A4
330
3E3
100
AcDbEntity
  8
HATCH
  6
Continuous
 62
     7
370
    30
100
AcDbLine
 10
28.379687
 20
6.269656
 30
0.0
 11
28.379687
 21
6.274656
 31
0.0
  0
LINE
  5
1A5
330
3E3
100
AcDbEntity
  8
HATCH
  6
Continuous
 62
     7
370
    30
100
AcDbLine
 10
28.429688
 20
6.009854
 30
0.0
 11
28.429688
 21
6.014854
 31
0.0
  0
LINE
  5
1A6
330
3E3
100
AcDbEntity
  8
HATCH
  6
Continuous
 62
     7
370
    30
100
AcDbLine
 10
28.429688
 20
6.183063
 30
0.0
 11
28.429688
 21
6.188063
 31
0.0
  0
LINE
  5
1A7
330
3E3
100
AcDbEntity
  8
HATCH
  6
Continuous
 62
     7
370
    30
100
AcDbLine
 10
28.479688
 20
5.92325
 30
0.0
 11
28.479688
 21
5.92825
 31
0.0
  0
LINE
  5
1A8
330
3E3
100
AcDbEntity
  8
HATCH
  6
Continuous
 62
     7
370
    30
100
AcDbLine
 10
28.479688
 20
6.096458
 30
0.0
 11
28.479688
 21
6.101458
 31
0.0
  0
LINE
  5
1A9
330
3E3
100
AcDbEntity
  8
HATCH
  6
Continuous
 62
     7
370
    30
100
AcDbLine
 10
28.479688
 20
6.269656
 30
0.0
 11
28.479688
 21
6.274656
 31
0.0
  0
LINE
  5
1AA
330
3E3
100
AcDbEntity
  8
HATCH
  6
Continuous
 62
     7
370
    30
100
AcDbLine
 10
28.529687
 20
6.183063
 30
0.0
 11
28.529687
 21
6.188063
 31
0.0
  0
LINE
  5
1AB
330
3E3
100
AcDbEntity
  8
HATCH
  6
Continuous
 62
     7
370
    30
100
AcDbLine
 10
28.579687
 20
6.269656
 30
0.0
 11
28.579687
 21
6.274656
 31
0.0
  0
LINE
  5
1AC
330
3E3
100
AcDbEntity
  8
HATCH
  6
Continuous
 62
     7
370
    30
100
AcDbLine
 10
28.679688
 20
6.269656
 30
0.0
 11
28.679688
 21
6.274656
 31
0.0
  0
LINE
  5
1AD
330
3E3
100
AcDbEntity
  8
HATCH
  6
Continuous
 62
     7
370
    30
100
AcDbLine
 10
28.134375
 20
6.009854
 30
0.0
 11
28.136375
 21
6.013312
 31
0.0
  0
LINE
  5
1AE
330
3E3
100
AcDbEntity
  8
HATCH
  6
Continuous
 62
     7
370
    30
100
AcDbLine
 10
28.184375
 20
6.096458
 30
0.0
 11
28.186375
 21
6.099917
 31
0.0
  0
LINE
  5
1AF
330
3E3
100
AcDbEntity
  8
HATCH
  6
Continuous
 62
     7
370
    30
100
AcDbLine
 10
28.234375
 20
6.183063
 30
0.0
 11
28.236375
 21
6.186521
 31
0.0
  0
LINE
  5
1B0
330
3E3
100
AcDbEntity
  8
HATCH
  6
Continuous
 62
     7
370
    30
100
AcDbLine
 10
28.284375
 20
6.269656
 30
0.0
 11
28.286375
 21
6.273125
 31
0.0
  0
LINE
  5
1B1
330
3E3
100
AcDbEntity
  8
HATCH
  6
Continuous
 62
     7
370
    30
100
AcDbLine
 10
28.034375
 20
6.009854
 30
0.0
 11
28.036375
 21
6.013312
 31
0.0
  0
LINE
  5
1B2
330
3E3
100
AcDbEntity
  8
HATCH
  6
Continuous
 62
     7
370
    30
100
AcDbLine
 10
28.084375
 20
6.096458
 30
0.0
 11
28.086375
 21
6.099917
 31
0.0
  0
LINE
  5
1B3
330
3E3
100
AcDbEntity
  8
HATCH
  6
Continuous
 62
     7
370
    30
100
AcDbLine
 10
28.134375
 20
6.183063
 30
0.0
 11
28.136375
 21
6.186521
 31
0.0
  0
LINE
  5
1B4
330
3E3
100
AcDbEntity
  8
HATCH
  6
Continuous
 62
     7
370
    30
100
AcDbLine
 10
28.184375
 20
6.269656
 30
0.0
 11
28.186375
 21
6.273125
 31
0.0
  0
LINE
  5
1B5
330
3E3
100
AcDbEntity
  8
HATCH
  6
Continuous
 62
     7
370
    30
100
AcDbLine
 10
27.984375
 20
6.096458
 30
0.0
 11
27.986375
 21
6.099917
 31
0.0
  0
LINE
  5
1B6
330
3E3
100
AcDbEntity
  8
HATCH
  6
Continuous
 62
     7
370
    30
100
AcDbLine
 10
28.034375
 20
6.183063
 30
0.0
 11
28.036375
 21
6.186521
 31
0.0
  0
LINE
  5
1B7
330
3E3
100
AcDbEntity
  8
HATCH
  6
Continuous
 62
     7
370
    30
100
AcDbLine
 10
28.084375
 20
6.269656
 30
0.0
 11
28.086375
 21
6.273125
 31
0.0
  0
LINE
  5
1B8
330
3E3
100
AcDbEntity
  8
HATCH
  6
Continuous
 62
     7
370
    30
100
AcDbLine
 10
27.934375
 20
6.183063
 30
0.0
 11
27.936375
 21
6.186521
 31
0.0
  0
LINE
  5
1B9
330
3E3
100
AcDbEntity
  8
HATCH
  6
Continuous
 62
     7
370
    30
100
AcDbLine
 10
27.984375
 20
6.269656
 30
0.0
 11
27.986375
 21
6.273125
 31
0.0
  0
LINE
  5
1BA
330
3E3
100
AcDbEntity
  8
HATCH
  6
Continuous
 62
     7
370
    30
100
AcDbLine
 10
27.834375
 20
6.183063
 30
0.0
 11
27.836375
 21
6.186521
 31
0.0
  0
LINE
  5
1BB
330
3E3
100
AcDbEntity
  8
HATCH
  6
Continuous
 62
     7
370
    30
100
AcDbLine
 10
27.884375
 20
6.269656
 30
0.0
 11
27.886375
 21
6.273125
 31
0.0
  0
LINE
  5
1BC
330
3E3
100
AcDbEntity
  8
HATCH
  6
Continuous
 62
     7
370
    30
100
AcDbLine
 10
27.784375
 20
6.269656
 30
0.0
 11
27.786375
 21
6.273125
 31
0.0
  0
LINE
  5
1BD
330
3E3
100
AcDbEntity
  8
HATCH
  6
Continuous
 62
     7
370
    30
100
AcDbLine
 10
28.184375
 20
5.92325
 30
0.0
 11
28.186375
 21
5.926719
 31
0.0
  0
LINE
  5
1BE
330
3E3
100
AcDbEntity
  8
HATCH
  6
Continuous
 62
     7
370
    30
100
AcDbLine
 10
28.234375
 20
6.009854
 30
0.0
 11
28.236375
 21
6.013312
 31
0.0
  0
LINE
  5
1BF
330
3E3
100
AcDbEntity
  8
HATCH
  6
Continuous
 62
     7
370
    30
100
AcDbLine
 10
28.284375
 20
6.096458
 30
0.0
 11
28.286375
 21
6.099917
 31
0.0
  0
LINE
  5
1C0
330
3E3
100
AcDbEntity
  8
HATCH
  6
Continuous
 62
     7
370
    30
100
AcDbLine
 10
28.334375
 20
6.183063
 30
0.0
 11
28.336375
 21
6.186521
 31
0.0
  0
LINE
  5
1C1
330
3E3
100
AcDbEntity
  8
HATCH
  6
Continuous
 62
     7
370
    30
100
AcDbLine
 10
28.384375
 20
6.269656
 30
0.0
 11
28.386375
 21
6.273125
 31
0.0
  0
LINE
  5
1C2
330
3E3
100
AcDbEntity
  8
HATCH
  6
Continuous
 62
     7
370
    30
100
AcDbLine
 10
28.284375
 20
5.92325
 30
0.0
 11
28.286375
 21
5.926719
 31
0.0
  0
LINE
  5
1C3
330
3E3
100
AcDbEntity
  8
HATCH
  6
Continuous
 62
     7
370
    30
100
AcDbLine
 10
28.334375
 20
6.009854
 30
0.0
 11
28.336375
 21
6.013312
 31
0.0
  0
LINE
  5
1C4
330
3E3
100
AcDbEntity
  8
HATCH
  6
Continuous
 62
     7
370
    30
100
AcDbLine
 10
28.384375
 20
6.096458
 30
0.0
 11
28.386375
 21
6.099917
 31
0.0
  0
LINE
  5
1C5
330
3E3
100
AcDbEntity
  8
HATCH
  6
Continuous
 62
     7
370
    30
100
AcDbLine
 10
28.434375
 20
6.183063
 30
0.0
 11
28.436375
 21
6.186521
 31
0.0
  0
LINE
  5
1C6
330
3E3
100
AcDbEntity
  8
HATCH
  6
Continuous
 62
     7
370
    30
100
AcDbLine
 10
28.484375
 20
6.269656
 30
0.0
 11
28.486375
 21
6.273125
 31
0.0
  0
LINE
  5
1C7
330
3E3
100
AcDbEntity
  8
HATCH
  6
Continuous
 62
     7
370
    30
100
AcDbLine
 10
28.384375
 20
5.92325
 30
0.0
 11
28.386375
 21
5.926719
 31
0.0
  0
LINE
  5
1C8
330
3E3
100
AcDbEntity
  8
HATCH
  6
Continuous
 62
     7
370
    30
100
AcDbLine
 10
28.434375
 20
6.009854
 30
0.0
 11
28.436375
 21
6.013312
 31
0.0
  0
LINE
  5
1C9
330
3E3
100
AcDbEntity
  8
HATCH
  6
Continuous
 62
     7
370
    30
100
AcDbLine
 10
28.484375
 20
6.096458
 30
0.0
 11
28.486375
 21
6.099917
 31
0.0
  0
LINE
  5
1CA
330
3E3
100
AcDbEntity
  8
HATCH
  6
Continuous
 62
     7
370
    30
100
AcDbLine
 10
28.534375
 20
6.183063
 30
0.0
 11
28.536375
 21
6.186521
 31
0.0
  0
LINE
  5
1CB
330
3E3
100
AcDbEntity
  8
HATCH
  6
Continuous
 62
     7
370
    30
100
AcDbLine
 10
28.584375
 20
6.269656
 30
0.0
 11
28.586375
 21
6.273125
 31
0.0
  0
LINE
  5
1CC
330
3E3
100
AcDbEntity
  8
HATCH
  6
Continuous
 62
     7
370
    30
100
AcDbLine
 10
28.484375
 20
5.92325
 30
0.0
 11
28.486375
 21
5.926719
 31
0.0
  0
LINE
  5
1CD
330
3E3
100
AcDbEntity
  8
HATCH
  6
Continuous
 62
     7
370
    30
100
AcDbLine
 10
28.684375
 20
6.269656
 30
0.0
 11
28.686375
 21
6.273125
 31
0.0
  0
LINE
  5
1CE
330
3E3
100
AcDbEntity
  8
HATCH
  6
Continuous
 62
     7
370
    30
100
AcDbLine
 10
28.278125
 20
5.92325
 30
0.0
 11
28.276125
 21
5.926719
 31
0.0
  0
LINE
  5
1CF
330
3E3
100
AcDbEntity
  8
HATCH
  6
Continuous
 62
     7
370
    30
100
AcDbLine
 10
28.228125
 20
6.009854
 30
0.0
 11
28.226125
 21
6.013312
 31
0.0
  0
LINE
  5
1D0
330
3E3
100
AcDbEntity
  8
HATCH
  6
Continuous
 62
     7
370
    30
100
AcDbLine
 10
28.178125
 20
6.096458
 30
0.0
 11
28.176125
 21
6.099917
 31
0.0
  0
LINE
  5
1D1
330
3E3
100
AcDbEntity
  8
HATCH
  6
Continuous
 62
     7
370
    30
100
AcDbLine
 10
28.128125
 20
6.183063
 30
0.0
 11
28.126125
 21
6.186521
 31
0.0
  0
LINE
  5
1D2
330
3E3
100
AcDbEntity
  8
HATCH
  6
Continuous
 62
     7
370
    30
100
AcDbLine
 10
28.078125
 20
6.269656
 30
0.0
 11
28.076125
 21
6.273125
 31
0.0
  0
LINE
  5
1D3
330
3E3
100
AcDbEntity
  8
HATCH
  6
Continuous
 62
     7
370
    30
100
AcDbLine
 10
28.178125
 20
5.92325
 30
0.0
 11
28.176125
 21
5.926719
 31
0.0
  0
LINE
  5
1D4
330
3E3
100
AcDbEntity
  8
HATCH
  6
Continuous
 62
     7
370
    30
100
AcDbLine
 10
28.128125
 20
6.009854
 30
0.0
 11
28.126125
 21
6.013312
 31
0.0
  0
LINE
  5
1D5
330
3E3
100
AcDbEntity
  8
HATCH
  6
Continuous
 62
     7
370
    30
100
AcDbLine
 10
28.078125
 20
6.096458
 30
0.0
 11
28.076125
 21
6.099917
 31
0.0
  0
LINE
  5
1D6
330
3E3
100
AcDbEntity
  8
HATCH
  6
Continuous
 62
     7
370
    30
100
AcDbLine
 10
28.028125
 20
6.183063
 30
0.0
 11
28.026125
 21
6.186521
 31
0.0
  0
LINE
  5
1D7
330
3E3
100
AcDbEntity
  8
HATCH
  6
Continuous
 62
     7
370
    30
100
AcDbLine
 10
27.978125
 20
6.269656
 30
0.0
 11
27.976125
 21
6.273125
 31
0.0
  0
LINE
  5
1D8
330
3E3
100
AcDbEntity
  8
HATCH
  6
Continuous
 62
     7
370
    30
100
AcDbLine
 10
28.028125
 20
6.009854
 30
0.0
 11
28.026125
 21
6.013312
 31
0.0
  0
LINE
  5
1D9
330
3E3
100
AcDbEntity
  8
HATCH
  6
Continuous
 62
     7
370
    30
100
AcDbLine
 10
27.978125
 20
6.096458
 30
0.0
 11
27.976125
 21
6.099917
 31
0.0
  0
LINE
  5
1DA
330
3E3
100
AcDbEntity
  8
HATCH
  6
Continuous
 62
     7
370
    30
100
AcDbLine
 10
27.928125
 20
6.183063
 30
0.0
 11
27.926125
 21
6.186521
 31
0.0
  0
LINE
  5
1DB
330
3E3
100
AcDbEntity
  8
HATCH
  6
Continuous
 62
     7
370
    30
100
AcDbLine
 10
27.878125
 20
6.269656
 30
0.0
 11
27.876125
 21
6.273125
 31
0.0
  0
LINE
  5
1DC
330
3E3
100
AcDbEntity
  8
HATCH
  6
Continuous
 62
     7
370
    30
100
AcDbLine
 10
27.778125
 20
6.269656
 30
0.0
 11
27.776125
 21
6.273125
 31
0.0
  0
LINE
  5
1DD
330
3E3
100
AcDbEntity
  8
HATCH
  6
Continuous
 62
     7
370
    30
100
AcDbLine
 10
28.378125
 20
5.92325
 30
0.0
 11
28.376125
 21
5.926719
 31
0.0
  0
LINE
  5
1DE
330
3E3
100
AcDbEntity
  8
HATCH
  6
Continuous
 62
     7
370
    30
100
AcDbLine
 10
28.328125
 20
6.009854
 30
0.0
 11
28.326125
 21
6.013312
 31
0.0
  0
LINE
  5
1DF
330
3E3
100
AcDbEntity
  8
HATCH
  6
Continuous
 62
     7
370
    30
100
AcDbLine
 10
28.278125
 20
6.096458
 30
0.0
 11
28.276125
 21
6.099917
 31
0.0
  0
LINE
  5
1E0
330
3E3
100
AcDbEntity
  8
HATCH
  6
Continuous
 62
     7
370
    30
100
AcDbLine
 10
28.228125
 20
6.183063
 30
0.0
 11
28.226125
 21
6.186521
 31
0.0
  0
LINE
  5
1E1
330
3E3
100
AcDbEntity
  8
HATCH
  6
Continuous
 62
     7
370
    30
100
AcDbLine
 10
28.178125
 20
6.269656
 30
0.0
 11
28.176125
 21
6.273125
 31
0.0
  0
LINE
  5
1E2
330
3E3
100
AcDbEntity
  8
HATCH
  6
Continuous
 62
     7
370
    30
100
AcDbLine
 10
28.478125
 20
5.92325
 30
0.0
 11
28.476125
 21
5.926719
 31
0.0
  0
LINE
  5
1E3
330
3E3
100
AcDbEntity
  8
HATCH
  6
Continuous
 62
     7
370
    30
100
AcDbLine
 10
28.428125
 20
6.009854
 30
0.0
 11
28.426125
 21
6.013312
 31
0.0
  0
LINE
  5
1E4
330
3E3
100
AcDbEntity
  8
HATCH
  6
Continuous
 62
     7
370
    30
100
AcDbLine
 10
28.378125
 20
6.096458
 30
0.0
 11
28.376125
 21
6.099917
 31
0.0
  0
LINE
  5
1E5
330
3E3
100
AcDbEntity
  8
HATCH
  6
Continuous
 62
     7
370
    30
100
AcDbLine
 10
28.328125
 20
6.183063
 30
0.0
 11
28.326125
 21
6.186521
 31
0.0
  0
LINE
  5
1E6
330
3E3
100
AcDbEntity
  8
HATCH
  6
Continuous
 62
     7
370
    30
100
AcDbLine
 10
28.278125
 20
6.269656
 30
0.0
 11
28.276125
 21
6.273125
 31
0.0
  0
LINE
  5
1E7
330
3E3
100
AcDbEntity
  8
HATCH
  6
Continuous
 62
     7
370
    30
100
AcDbLine
 10
28.478125
 20
6.096458
 30
0.0
 11
28.476125
 21
6.099917
 31
0.0
  0
LINE
  5
1E8
330
3E3
100
AcDbEntity
  8
HATCH
  6
Continuous
 62
     7
370
    30
100
AcDbLine
 10
28.428125
 20
6.183063
 30
0.0
 11
28.426125
 21
6.186521
 31
0.0
  0
LINE
  5
1E9
330
3E3
100
AcDbEntity
  8
HATCH
  6
Continuous
 62
     7
370
    30
100
AcDbLine
 10
28.378125
 20
6.269656
 30
0.0
 11
28.376125
 21
6.273125
 31
0.0
  0
LINE
  5
1EA
330
3E3
100
AcDbEntity
  8
HATCH
  6
Continuous
 62
     7
370
    30
100
AcDbLine
 10
28.528125
 20
6.183063
 30
0.0
 11
28.526125
 21
6.186521
 31
0.0
  0
LINE
  5
1EB
330
3E3
100
AcDbEntity
  8
HATCH
  6
Continuous
 62
     7
370
    30
100
AcDbLine
 10
28.478125
 20
6.269656
 30
0.0
 11
28.476125
 21
6.273125
 31
0.0
  0
LINE
  5
1EC
330
3E3
100
AcDbEntity
  8
HATCH
  6
Continuous
 62
     7
370
    30
100
AcDbLine
 10
28.578125
 20
6.269656
 30
0.0
 11
28.576125
 21
6.273125
 31
0.0
  0
LINE
  5
1ED
330
3E3
100
AcDbEntity
  8
HATCH
  6
Continuous
 62
     7
370
    30
100
AcDbLine
 10
28.678125
 20
6.269656
 30
0.0
 11
28.676125
 21
6.273125
 31
0.0
  0
LINE
  5
1EE
330
3E3
100
AcDbEntity
  8
HATCH
  6
Continuous
 62
     7
370
    30
100
AcDbLine
 10
29.325
 20
5.317031
 30
0.0
 11
29.3375
 21
5.317031
 31
0.0
  0
LINE
  5
1EF
330
3E3
100
AcDbEntity
  8
HATCH
  6
Continuous
 62
     7
370
    30
100
AcDbLine
 10
29.425
 20
5.317031
 30
0.0
 11
29.4375
 21
5.317031
 31
0.0
  0
LINE
  5
1F0
330
3E3
100
AcDbEntity
  8
HATCH
  6
Continuous
 62
     7
370
    30
100
AcDbLine
 10
29.525
 20
5.317031
 30
0.0
 11
29.5375
 21
5.317031
 31
0.0
  0
LINE
  5
1F1
330
3E3
100
AcDbEntity
  8
HATCH
  6
Continuous
 62
     7
370
    30
100
AcDbLine
 10
29.625
 20
5.317031
 30
0.0
 11
29.6375
 21
5.317031
 31
0.0
  0
LINE
  5
1F2
330
3E3
100
AcDbEntity
  8
HATCH
  6
Continuous
 62
     7
370
    30
100
AcDbLine
 10
29.375
 20
5.403635
 30
0.0
 11
29.3875
 21
5.403635
 31
0.0
  0
LINE
  5
1F3
330
3E3
100
AcDbEntity
  8
HATCH
  6
Continuous
 62
     7
370
    30
100
AcDbLine
 10
29.475
 20
5.403635
 30
0.0
 11
29.4875
 21
5.403635
 31
0.0
  0
LINE
  5
1F4
330
3E3
100
AcDbEntity
  8
HATCH
  6
Continuous
 62
     7
370
    30
100
AcDbLine
 10
29.575
 20
5.403635
 30
0.0
 11
29.5875
 21
5.403635
 31
0.0
  0
LINE
  5
1F5
330
3E3
100
AcDbEntity
  8
HATCH
  6
Continuous
 62
     7
370
    30
100
AcDbLine
 10
29.675
 20
5.403635
 30
0.0
 11
29.6875
 21
5.403635
 31
0.0
  0
LINE
  5
1F6
330
3E3
100
AcDbEntity
  8
HATCH
  6
Continuous
 62
     7
370
    30
100
AcDbLine
 10
29.425
 20
5.49024
 30
0.0
 11
29.4375
 21
5.49024
 31
0.0
  0
LINE
  5
1F7
330
3E3
100
AcDbEntity
  8
HATCH
  6
Continuous
 62
     7
370
    30
100
AcDbLine
 10
29.525
 20
5.49024
 30
0.0
 11
29.5375
 21
5.49024
 31
0.0
  0
LINE
  5
1F8
330
3E3
100
AcDbEntity
  8
HATCH
  6
Continuous
 62
     7
370
    30
100
AcDbLine
 10
29.625
 20
5.49024
 30
0.0
 11
29.6375
 21
5.49024
 31
0.0
  0
LINE
  5
1F9
330
3E3
100
AcDbEntity
  8
HATCH
  6
Continuous
 62
     7
370
    30
100
AcDbLine
 10
29.275
 20
5.230427
 30
0.0
 11
29.2875
 21
5.230427
 31
0.0
  0
LINE
  5
1FA
330
3E3
100
AcDbEntity
  8
HATCH
  6
Continuous
 62
     7
370
    30
100
AcDbLine
 10
29.375
 20
5.230427
 30
0.0
 11
29.3875
 21
5.230427
 31
0.0
  0
LINE
  5
1FB
330
3E3
100
AcDbEntity
  8
HATCH
  6
Continuous
 62
     7
370
    30
100
AcDbLine
 10
29.475
 20
5.230427
 30
0.0
 11
29.4875
 21
5.230427
 31
0.0
  0
LINE
  5
1FC
330
3E3
100
AcDbEntity
  8
HATCH
  6
Continuous
 62
     7
370
    30
100
AcDbLine
 10
29.575
 20
5.230427
 30
0.0
 11
29.5875
 21
5.230427
 31
0.0
  0
LINE
  5
1FD
330
3E3
100
AcDbEntity
  8
HATCH
  6
Continuous
 62
     7
370
    30
100
AcDbLine
 10
29.43125
 20
5.317031
 30
0.0
 11
29.43125
 21
5.323281
 31
0.0
  0
LINE
  5
1FE
330
3E3
100
AcDbEntity
  8
HATCH
  6
Continuous
 62
     7
370
    30
100
AcDbLine
 10
29.43125
 20
5.49024
 30
0.0
 11
29.43125
 21
5.49649
 31
0.0
  0
LINE
  5
1FF
330
3E3
100
AcDbEntity
  8
HATCH
  6
Continuous
 62
     7
370
    30
100
AcDbLine
 10
29.38125
 20
5.230427
 30
0.0
 11
29.38125
 21
5.236677
 31
0.0
  0
LINE
  5
200
330
3E3
100
AcDbEntity
  8
HATCH
  6
Continuous
 62
     7
370
    30
100
AcDbLine
 10
29.38125
 20
5.403635
 30
0.0
 11
29.38125
 21
5.409885
 31
0.0
  0
LINE
  5
201
330
3E3
100
AcDbEntity
  8
HATCH
  6
Continuous
 62
     7
370
    30
100
AcDbLine
 10
29.33125
 20
5.317031
 30
0.0
 11
29.33125
 21
5.323281
 31
0.0
  0
LINE
  5
202
330
3E3
100
AcDbEntity
  8
HATCH
  6
Continuous
 62
     7
370
    30
100
AcDbLine
 10
29.28125
 20
5.230427
 30
0.0
 11
29.28125
 21
5.236677
 31
0.0
  0
LINE
  5
203
330
3E3
100
AcDbEntity
  8
HATCH
  6
Continuous
 62
     7
370
    30
100
AcDbLine
 10
29.48125
 20
5.230427
 30
0.0
 11
29.48125
 21
5.236677
 31
0.0
  0
LINE
  5
204
330
3E3
100
AcDbEntity
  8
HATCH
  6
Continuous
 62
     7
370
    30
100
AcDbLine
 10
29.48125
 20
5.403635
 30
0.0
 11
29.48125
 21
5.409885
 31
0.0
  0
LINE
  5
205
330
3E3
100
AcDbEntity
  8
HATCH
  6
Continuous
 62
     7
370
    30
100
AcDbLine
 10
29.53125
 20
5.317031
 30
0.0
 11
29.53125
 21
5.323281
 31
0.0
  0
LINE
  5
206
330
3E3
100
AcDbEntity
  8
HATCH
  6
Continuous
 62
     7
370
    30
100
AcDbLine
 10
29.53125
 20
5.49024
 30
0.0
 11
29.53125
 21
5.49649
 31
0.0
  0
LINE
  5
207
330
3E3
100
AcDbEntity
  8
HATCH
  6
Continuous
 62
     7
370
    30
100
AcDbLine
 10
29.58125
 20
5.230427
 30
0.0
 11
29.58125
 21
5.236677
 31
0.0
  0
LINE
  5
208
330
3E3
100
AcDbEntity
  8
HATCH
  6
Continuous
 62
     7
370
    30
100
AcDbLine
 10
29.58125
 20
5.403635
 30
0.0
 11
29.58125
 21
5.409885
 31
0.0
  0
LINE
  5
209
330
3E3
100
AcDbEntity
  8
HATCH
  6
Continuous
 62
     7
370
    30
100
AcDbLine
 10
29.63125
 20
5.317031
 30
0.0
 11
29.63125
 21
5.323281
 31
0.0
  0
LINE
  5
20A
330
3E3
100
AcDbEntity
  8
HATCH
  6
Continuous
 62
     7
370
    30
100
AcDbLine
 10
29.63125
 20
5.49024
 30
0.0
 11
29.63125
 21
5.49649
 31
0.0
  0
LINE
  5
20B
330
3E3
100
AcDbEntity
  8
HATCH
  6
Continuous
 62
     7
370
    30
100
AcDbLine
 10
29.68125
 20
5.403635
 30
0.0
 11
29.68125
 21
5.409885
 31
0.0
  0
LINE
  5
20C
330
3E3
100
AcDbEntity
  8
HATCH
  6
Continuous
 62
     7
370
    30
100
AcDbLine
 10
29.432813
 20
5.317031
 30
0.0
 11
29.432813
 21
5.322031
 31
0.0
  0
LINE
  5
20D
330
3E3
100
AcDbEntity
  8
HATCH
  6
Continuous
 62
     7
370
    30
100
AcDbLine
 10
29.432813
 20
5.49024
 30
0.0
 11
29.432813
 21
5.49524
 31
0.0
  0
LINE
  5
20E
330
3E3
100
AcDbEntity
  8
HATCH
  6
Continuous
 62
     7
370
    30
100
AcDbLine
 10
29.382812
 20
5.230427
 30
0.0
 11
29.382812
 21
5.235427
 31
0.0
  0
LINE
  5
20F
330
3E3
100
AcDbEntity
  8
HATCH
  6
Continuous
 62
     7
370
    30
100
AcDbLine
 10
29.382812
 20
5.403635
 30
0.0
 11
29.382812
 21
5.408635
 31
0.0
  0
LINE
  5
210
330
3E3
100
AcDbEntity
  8
HATCH
  6
Continuous
 62
     7
370
    30
100
AcDbLine
 10
29.332812
 20
5.317031
 30
0.0
 11
29.332812
 21
5.322031
 31
0.0
  0
LINE
  5
211
330
3E3
100
AcDbEntity
  8
HATCH
  6
Continuous
 62
     7
370
    30
100
AcDbLine
 10
29.282812
 20
5.230427
 30
0.0
 11
29.282812
 21
5.235427
 31
0.0
  0
LINE
  5
212
330
3E3
100
AcDbEntity
  8
HATCH
  6
Continuous
 62
     7
370
    30
100
AcDbLine
 10
29.482812
 20
5.230427
 30
0.0
 11
29.482812
 21
5.235427
 31
0.0
  0
LINE
  5
213
330
3E3
100
AcDbEntity
  8
HATCH
  6
Continuous
 62
     7
370
    30
100
AcDbLine
 10
29.482812
 20
5.403635
 30
0.0
 11
29.482812
 21
5.408635
 31
0.0
  0
LINE
  5
214
330
3E3
100
AcDbEntity
  8
HATCH
  6
Continuous
 62
     7
370
    30
100
AcDbLine
 10
29.532812
 20
5.317031
 30
0.0
 11
29.532812
 21
5.322031
 31
0.0
  0
LINE
  5
215
330
3E3
100
AcDbEntity
  8
HATCH
  6
Continuous
 62
     7
370
    30
100
AcDbLine
 10
29.532812
 20
5.49024
 30
0.0
 11
29.532812
 21
5.49524
 31
0.0
  0
LINE
  5
216
330
3E3
100
AcDbEntity
  8
HATCH
  6
Continuous
 62
     7
370
    30
100
AcDbLine
 10
29.582812
 20
5.230427
 30
0.0
 11
29.582812
 21
5.235427
 31
0.0
  0
LINE
  5
217
330
3E3
100
AcDbEntity
  8
HATCH
  6
Continuous
 62
     7
370
    30
100
AcDbLine
 10
29.582812
 20
5.403635
 30
0.0
 11
29.582812
 21
5.408635
 31
0.0
  0
LINE
  5
218
330
3E3
100
AcDbEntity
  8
HATCH
  6
Continuous
 62
     7
370
    30
100
AcDbLine
 10
29.632812
 20
5.317031
 30
0.0
 11
29.632812
 21
5.322031
 31
0.0
  0
LINE
  5
219
330
3E3
100
AcDbEntity
  8
HATCH
  6
Continuous
 62
     7
370
    30
100
AcDbLine
 10
29.632812
 20
5.49024
 30
0.0
 11
29.632812
 21
5.49524
 31
0.0
  0
LINE
  5
21A
330
3E3
100
AcDbEntity
  8
HATCH
  6
Continuous
 62
     7
370
    30
100
AcDbLine
 10
29.682813
 20
5.403635
 30
0.0
 11
29.682813
 21
5.408635
 31
0.0
  0
LINE
  5
21B
330
3E3
100
AcDbEntity
  8
HATCH
  6
Continuous
 62
     7
370
    30
100
AcDbLine
 10
29.429688
 20
5.317031
 30
0.0
 11
29.429688
 21
5.322031
 31
0.0
  0
LINE
  5
21C
330
3E3
100
AcDbEntity
  8
HATCH
  6
Continuous
 62
     7
370
    30
100
AcDbLine
 10
29.429688
 20
5.49024
 30
0.0
 11
29.429688
 21
5.49524
 31
0.0
  0
LINE
  5
21D
330
3E3
100
AcDbEntity
  8
HATCH
  6
Continuous
 62
     7
370
    30
100
AcDbLine
 10
29.379687
 20
5.230427
 30
0.0
 11
29.379687
 21
5.235427
 31
0.0
  0
LINE
  5
21E
330
3E3
100
AcDbEntity
  8
HATCH
  6
Continuous
 62
     7
370
    30
100
AcDbLine
 10
29.379687
 20
5.403635
 30
0.0
 11
29.379687
 21
5.408635
 31
0.0
  0
LINE
  5
21F
330
3E3
100
AcDbEntity
  8
HATCH
  6
Continuous
 62
     7
370
    30
100
AcDbLine
 10
29.329687
 20
5.317031
 30
0.0
 11
29.329687
 21
5.322031
 31
0.0
  0
LINE
  5
220
330
3E3
100
AcDbEntity
  8
HATCH
  6
Continuous
 62
     7
370
    30
100
AcDbLine
 10
29.279687
 20
5.230427
 30
0.0
 11
29.279687
 21
5.235427
 31
0.0
  0
LINE
  5
221
330
3E3
100
AcDbEntity
  8
HATCH
  6
Continuous
 62
     7
370
    30
100
AcDbLine
 10
29.479688
 20
5.230427
 30
0.0
 11
29.479688
 21
5.235427
 31
0.0
  0
LINE
  5
222
330
3E3
100
AcDbEntity
  8
HATCH
  6
Continuous
 62
     7
370
    30
100
AcDbLine
 10
29.479688
 20
5.403635
 30
0.0
 11
29.479688
 21
5.408635
 31
0.0
  0
LINE
  5
223
330
3E3
100
AcDbEntity
  8
HATCH
  6
Continuous
 62
     7
370
    30
100
AcDbLine
 10
29.529687
 20
5.317031
 30
0.0
 11
29.529687
 21
5.322031
 31
0.0
  0
LINE
  5
224
330
3E3
100
AcDbEntity
  8
HATCH
  6
Continuous
 62
     7
370
    30
100
AcDbLine
 10
29.529687
 20
5.49024
 30
0.0
 11
29.529687
 21
5.49524
 31
0.0
  0
LINE
  5
225
330
3E3
100
AcDbEntity
  8
HATCH
  6
Continuous
 62
     7
370
    30
100
AcDbLine
 10
29.579687
 20
5.230427
 30
0.0
 11
29.579687
 21
5.235427
 31
0.0
  0
LINE
  5
226
330
3E3
100
AcDbEntity
  8
HATCH
  6
Continuous
 62
     7
370
    30
100
AcDbLine
 10
29.579687
 20
5.403635
 30
0.0
 11
29.579687
 21
5.408635
 31
0.0
  0
LINE
  5
227
330
3E3
100
AcDbEntity
  8
HATCH
  6
Continuous
 62
     7
370
    30
100
AcDbLine
 10
29.629687
 20
5.317031
 30
0.0
 11
29.629687
 21
5.322031
 31
0.0
  0
LINE
  5
228
330
3E3
100
AcDbEntity
  8
HATCH
  6
Continuous
 62
     7
370
    30
100
AcDbLine
 10
29.629687
 20
5.49024
 30
0.0
 11
29.629687
 21
5.49524
 31
0.0
  0
LINE
  5
229
330
3E3
100
AcDbEntity
  8
HATCH
  6
Continuous
 62
     7
370
    30
100
AcDbLine
 10
29.679688
 20
5.403635
 30
0.0
 11
29.679688
 21
5.408635
 31
0.0
  0
LINE
  5
22A
330
3E3
100
AcDbEntity
  8
HATCH
  6
Continuous
 62
     7
370
    30
100
AcDbLine
 10
29.284375
 20
5.230427
 30
0.0
 11
29.286375
 21
5.233896
 31
0.0
  0
LINE
  5
22B
330
3E3
100
AcDbEntity
  8
HATCH
  6
Continuous
 62
     7
370
    30
100
AcDbLine
 10
29.334375
 20
5.317031
 30
0.0
 11
29.336375
 21
5.3205
 31
0.0
  0
LINE
  5
22C
330
3E3
100
AcDbEntity
  8
HATCH
  6
Continuous
 62
     7
370
    30
100
AcDbLine
 10
29.384375
 20
5.403635
 30
0.0
 11
29.386375
 21
5.407104
 31
0.0
  0
LINE
  5
22D
330
3E3
100
AcDbEntity
  8
HATCH
  6
Continuous
 62
     7
370
    30
100
AcDbLine
 10
29.434375
 20
5.49024
 30
0.0
 11
29.436375
 21
5.493698
 31
0.0
  0
LINE
  5
22E
330
3E3
100
AcDbEntity
  8
HATCH
  6
Continuous
 62
     7
370
    30
100
AcDbLine
 10
29.384375
 20
5.230427
 30
0.0
 11
29.386375
 21
5.233896
 31
0.0
  0
LINE
  5
22F
330
3E3
100
AcDbEntity
  8
HATCH
  6
Continuous
 62
     7
370
    30
100
AcDbLine
 10
29.434375
 20
5.317031
 30
0.0
 11
29.436375
 21
5.3205
 31
0.0
  0
LINE
  5
230
330
3E3
100
AcDbEntity
  8
HATCH
  6
Continuous
 62
     7
370
    30
100
AcDbLine
 10
29.484375
 20
5.403635
 30
0.0
 11
29.486375
 21
5.407104
 31
0.0
  0
LINE
  5
231
330
3E3
100
AcDbEntity
  8
HATCH
  6
Continuous
 62
     7
370
    30
100
AcDbLine
 10
29.534375
 20
5.49024
 30
0.0
 11
29.536375
 21
5.493698
 31
0.0
  0
LINE
  5
232
330
3E3
100
AcDbEntity
  8
HATCH
  6
Continuous
 62
     7
370
    30
100
AcDbLine
 10
29.484375
 20
5.230427
 30
0.0
 11
29.486375
 21
5.233896
 31
0.0
  0
LINE
  5
233
330
3E3
100
AcDbEntity
  8
HATCH
  6
Continuous
 62
     7
370
    30
100
AcDbLine
 10
29.534375
 20
5.317031
 30
0.0
 11
29.536375
 21
5.3205
 31
0.0
  0
LINE
  5
234
330
3E3
100
AcDbEntity
  8
HATCH
  6
Continuous
 62
     7
370
    30
100
AcDbLine
 10
29.584375
 20
5.403635
 30
0.0
 11
29.586375
 21
5.407104
 31
0.0
  0
LINE
  5
235
330
3E3
100
AcDbEntity
  8
HATCH
  6
Continuous
 62
     7
370
    30
100
AcDbLine
 10
29.634375
 20
5.49024
 30
0.0
 11
29.636375
 21
5.493698
 31
0.0
  0
LINE
  5
236
330
3E3
100
AcDbEntity
  8
HATCH
  6
Continuous
 62
     7
370
    30
100
AcDbLine
 10
29.584375
 20
5.230427
 30
0.0
 11
29.586375
 21
5.233896
 31
0.0
  0
LINE
  5
237
330
3E3
100
AcDbEntity
  8
HATCH
  6
Continuous
 62
     7
370
    30
100
AcDbLine
 10
29.634375
 20
5.317031
 30
0.0
 11
29.636375
 21
5.3205
 31
0.0
  0
LINE
  5
238
330
3E3
100
AcDbEntity
  8
HATCH
  6
Continuous
 62
     7
370
    30
100
AcDbLine
 10
29.684375
 20
5.403635
 30
0.0
 11
29.686375
 21
5.407104
 31
0.0
  0
LINE
  5
239
330
3E3
100
AcDbEntity
  8
HATCH
  6
Continuous
 62
     7
370
    30
100
AcDbLine
 10
29.478125
 20
5.230427
 30
0.0
 11
29.476125
 21
5.233896
 31
0.0
  0
LINE
  5
23A
330
3E3
100
AcDbEntity
  8
HATCH
  6
Continuous
 62
     7
370
    30
100
AcDbLine
 10
29.428125
 20
5.317031
 30
0.0
 11
29.426125
 21
5.3205
 31
0.0
  0
LINE
  5
23B
330
3E3
100
AcDbEntity
  8
HATCH
  6
Continuous
 62
     7
370
    30
100
AcDbLine
 10
29.378125
 20
5.403635
 30
0.0
 11
29.376125
 21
5.407104
 31
0.0
  0
LINE
  5
23C
330
3E3
100
AcDbEntity
  8
HATCH
  6
Continuous
 62
     7
370
    30
100
AcDbLine
 10
29.378125
 20
5.230427
 30
0.0
 11
29.376125
 21
5.233896
 31
0.0
  0
LINE
  5
23D
330
3E3
100
AcDbEntity
  8
HATCH
  6
Continuous
 62
     7
370
    30
100
AcDbLine
 10
29.328125
 20
5.317031
 30
0.0
 11
29.326125
 21
5.3205
 31
0.0
  0
LINE
  5
23E
330
3E3
100
AcDbEntity
  8
HATCH
  6
Continuous
 62
     7
370
    30
100
AcDbLine
 10
29.278125
 20
5.230427
 30
0.0
 11
29.276125
 21
5.233896
 31
0.0
  0
LINE
  5
23F
330
3E3
100
AcDbEntity
  8
HATCH
  6
Continuous
 62
     7
370
    30
100
AcDbLine
 10
29.578125
 20
5.230427
 30
0.0
 11
29.576125
 21
5.233896
 31
0.0
  0
LINE
  5
240
330
3E3
100
AcDbEntity
  8
HATCH
  6
Continuous
 62
     7
370
    30
100
AcDbLine
 10
29.528125
 20
5.317031
 30
0.0
 11
29.526125
 21
5.3205
 31
0.0
  0
LINE
  5
241
330
3E3
100
AcDbEntity
  8
HATCH
  6
Continuous
 62
     7
370
    30
100
AcDbLine
 10
29.478125
 20
5.403635
 30
0.0
 11
29.476125
 21
5.407104
 31
0.0
  0
LINE
  5
242
330
3E3
100
AcDbEntity
  8
HATCH
  6
Continuous
 62
     7
370
    30
100
AcDbLine
 10
29.428125
 20
5.49024
 30
0.0
 11
29.426125
 21
5.493698
 31
0.0
  0
LINE
  5
243
330
3E3
100
AcDbEntity
  8
HATCH
  6
Continuous
 62
     7
370
    30
100
AcDbLine
 10
29.628125
 20
5.317031
 30
0.0
 11
29.626125
 21
5.3205
 31
0.0
  0
LINE
  5
244
330
3E3
100
AcDbEntity
  8
HATCH
  6
Continuous
 62
     7
370
    30
100
AcDbLine
 10
29.578125
 20
5.403635
 30
0.0
 11
29.576125
 21
5.407104
 31
0.0
  0
LINE
  5
245
330
3E3
100
AcDbEntity
  8
HATCH
  6
Continuous
 62
     7
370
    30
100
AcDbLine
 10
29.528125
 20
5.49024
 30
0.0
 11
29.526125
 21
5.493698
 31
0.0
  0
LINE
  5
246
330
3E3
100
AcDbEntity
  8
HATCH
  6
Continuous
 62
     7
370
    30
100
AcDbLine
 10
29.678125
 20
5.403635
 30
0.0
 11
29.676125
 21
5.407104
 31
0.0
  0
LINE
  5
247
330
3E3
100
AcDbEntity
  8
HATCH
  6
Continuous
 62
     7
370
    30
100
AcDbLine
 10
29.628125
 20
5.49024
 30
0.0
 11
29.626125
 21
5.493698
 31
0.0
  0
POINT
  5
248
330
3E3
100
AcDbEntity
  8
HATCH
  6
Continuous
 62
     7
370
    30
100
AcDbPoint
 10
26.437708
 20
5.208896
 30
0.0
  0
POINT
  5
249
330
3E3
100
AcDbEntity
  8
HATCH
  6
Continuous
 62
     7
370
    30
100
AcDbPoint
 10
26.478302
 20
5.232333
 30
0.0
  0
POINT
  5
24A
330
3E3
100
AcDbEntity
  8
HATCH
  6
Continuous
 62
     7
370
    30
100
AcDbPoint
 10
26.518896
 20
5.255771
 30
0.0
  0
POINT
  5
24B
330
3E3
100
AcDbEntity
  8
HATCH
  6
Continuous
 62
     7
370
    30
100
AcDbPoint
 10
26.55949
 20
5.279208
 30
0.0
  0
POINT
  5
24C
330
3E3
100
AcDbEntity
  8
HATCH
  6
Continuous
 62
     7
370
    30
100
AcDbPoint
 10
26.600094
 20
5.302646
 30
0.0
  0
POINT
  5
24D
330
3E3
100
AcDbEntity
  8
HATCH
  6
Continuous
 62
     7
370
    30
100
AcDbPoint
 10
26.640687
 20
5.326083
 30
0.0
  0
POINT
  5
24E
330
3E3
100
AcDbEntity
  8
HATCH
  6
Continuous
 62
     7
370
    30
100
AcDbPoint
 10
26.681281
 20
5.349521
 30
0.0
  0
POINT
  5
24F
330
3E3
100
AcDbEntity
  8
HATCH
  6
Continuous
 62
     7
370
    30
100
AcDbPoint
 10
26.721875
 20
5.372958
 30
0.0
  0
POINT
  5
250
330
3E3
100
AcDbEntity
  8
HATCH
  6
Continuous
 62
     7
370
    30
100
AcDbPoint
 10
26.762469
 20
5.396396
 30
0.0
  0
POINT
  5
251
330
3E3
100
AcDbEntity
  8
HATCH
  6
Continuous
 62
     7
370
    30
100
AcDbPoint
 10
26.803062
 20
5.419833
 30
0.0
  0
POINT
  5
252
330
3E3
100
AcDbEntity
  8
HATCH
  6
Continuous
 62
     7
370
    30
100
AcDbPoint
 10
26.843656
 20
5.443271
 30
0.0
  0
POINT
  5
253
330
3E3
100
AcDbEntity
  8
HATCH
  6
Continuous
 62
     7
370
    30
100
AcDbPoint
 10
26.88425
 20
5.466708
 30
0.0
  0
POINT
  5
254
330
3E3
100
AcDbEntity
  8
HATCH
  6
Continuous
 62
     7
370
    30
100
AcDbPoint
 10
26.924844
 20
5.490146
 30
0.0
  0
POINT
  5
255
330
3E3
100
AcDbEntity
  8
HATCH
  6
Continuous
 62
     7
370
    30
100
AcDbPoint
 10
26.965448
 20
5.513583
 30
0.0
  0
POINT
  5
256
330
3E3
100
AcDbEntity
  8
HATCH
  6
Continuous
 62
     7
370
    30
100
AcDbPoint
 10
26.393979
 20
5.237781
 30
0.0
  0
POINT
  5
257
330
3E3
100
AcDbEntity
  8
HATCH
  6
Continuous
 62
     7
370
    30
100
AcDbPoint
 10
26.434573
 20
5.261219
 30
0.0
  0
POINT
  5
258
330
3E3
100
AcDbEntity
  8
HATCH
  6
Continuous
 62
     7
370
    30
100
AcDbPoint
 10
26.475167
 20
5.284656
 30
0.0
  0
POINT
  5
259
330
3E3
100
AcDbEntity
  8
HATCH
  6
Continuous
 62
     7
370
    30
100
AcDbPoint
 10
26.51576
 20
5.308094
 30
0.0
  0
POINT
  5
25A
330
3E3
100
AcDbEntity
  8
HATCH
  6
Continuous
 62
     7
370
    30
100
AcDbPoint
 10
26.556354
 20
5.331531
 30
0.0
  0
POINT
  5
25B
330
3E3
100
AcDbEntity
  8
HATCH
  6
Continuous
 62
     7
370
    30
100
AcDbPoint
 10
26.596948
 20
5.354969
 30
0.0
  0
POINT
  5
25C
330
3E3
100
AcDbEntity
  8
HATCH
  6
Continuous
 62
     7
370
    30
100
AcDbPoint
 10
26.637542
 20
5.378406
 30
0.0
  0
POINT
  5
25D
330
3E3
100
AcDbEntity
  8
HATCH
  6
Continuous
 62
     7
370
    30
100
AcDbPoint
 10
26.678135
 20
5.401844
 30
0.0
  0
POINT
  5
25E
330
3E3
100
AcDbEntity
  8
HATCH
  6
Continuous
 62
     7
370
    30
100
AcDbPoint
 10
26.718729
 20
5.425281
 30
0.0
  0
POINT
  5
25F
330
3E3
100
AcDbEntity
  8
HATCH
  6
Continuous
 62
     7
370
    30
100
AcDbPoint
 10
26.759333
 20
5.448719
 30
0.0
  0
POINT
  5
260
330
3E3
100
AcDbEntity
  8
HATCH
  6
Continuous
 62
     7
370
    30
100
AcDbPoint
 10
26.799927
 20
5.472156
 30
0.0
  0
POINT
  5
261
330
3E3
100
AcDbEntity
  8
HATCH
  6
Continuous
 62
     7
370
    30
100
AcDbPoint
 10
26.840521
 20
5.495594
 30
0.0
  0
POINT
  5
262
330
3E3
100
AcDbEntity
  8
HATCH
  6
Continuous
 62
     7
370
    30
100
AcDbPoint
 10
26.881115
 20
5.519031
 30
0.0
  0
POINT
  5
263
330
3E3
100
AcDbEntity
  8
HATCH
  6
Continuous
 62
     7
370
    30
100
AcDbPoint
 10
26.390833
 20
5.290094
 30
0.0
  0
POINT
  5
264
330
3E3
100
AcDbEntity
  8
HATCH
  6
Continuous
 62
     7
370
    30
100
AcDbPoint
 10
26.431427
 20
5.313531
 30
0.0
  0
POINT
  5
265
330
3E3
100
AcDbEntity
  8
HATCH
  6
Continuous
 62
     7
370
    30
100
AcDbPoint
 10
26.472021
 20
5.336969
 30
0.0
  0
POINT
  5
266
330
3E3
100
AcDbEntity
  8
HATCH
  6
Continuous
 62
     7
370
    30
100
AcDbPoint
 10
26.512615
 20
5.360406
 30
0.0
  0
POINT
  5
267
330
3E3
100
AcDbEntity
  8
HATCH
  6
Continuous
 62
     7
370
    30
100
AcDbPoint
 10
26.553219
 20
5.383844
 30
0.0
  0
POINT
  5
268
330
3E3
100
AcDbEntity
  8
HATCH
  6
Continuous
 62
     7
370
    30
100
AcDbPoint
 10
26.593812
 20
5.407281
 30
0.0
  0
POINT
  5
269
330
3E3
100
AcDbEntity
  8
HATCH
  6
Continuous
 62
     7
370
    30
100
AcDbPoint
 10
26.634406
 20
5.430719
 30
0.0
  0
POINT
  5
26A
330
3E3
100
AcDbEntity
  8
HATCH
  6
Continuous
 62
     7
370
    30
100
AcDbPoint
 10
26.675
 20
5.454156
 30
0.0
  0
POINT
  5
26B
330
3E3
100
AcDbEntity
  8
HATCH
  6
Continuous
 62
     7
370
    30
100
AcDbPoint
 10
26.715594
 20
5.477594
 30
0.0
  0
POINT
  5
26C
330
3E3
100
AcDbEntity
  8
HATCH
  6
Continuous
 62
     7
370
    30
100
AcDbPoint
 10
26.756187
 20
5.501031
 30
0.0
  0
POINT
  5
26D
330
3E3
100
AcDbEntity
  8
HATCH
  6
Continuous
 62
     7
370
    30
100
AcDbPoint
 10
26.796781
 20
5.524469
 30
0.0
  0
POINT
  5
26E
330
3E3
100
AcDbEntity
  8
HATCH
  6
Continuous
 62
     7
370
    30
100
AcDbPoint
 10
26.387698
 20
5.342406
 30
0.0
  0
POINT
  5
26F
330
3E3
100
AcDbEntity
  8
HATCH
  6
Continuous
 62
     7
370
    30
100
AcDbPoint
 10
26.428292
 20
5.365844
 30
0.0
  0
POINT
  5
270
330
3E3
100
AcDbEntity
  8
HATCH
  6
Continuous
 62
     7
370
    30
100
AcDbPoint
 10
26.468885
 20
5.389281
 30
0.0
  0
POINT
  5
271
330
3E3
100
AcDbEntity
  8
HATCH
  6
Continuous
 62
     7
370
    30
100
AcDbPoint
 10
26.509479
 20
5.412719
 30
0.0
  0
POINT
  5
272
330
3E3
100
AcDbEntity
  8
HATCH
  6
Continuous
 62
     7
370
    30
100
AcDbPoint
 10
26.550073
 20
5.436156
 30
0.0
  0
POINT
  5
273
330
3E3
100
AcDbEntity
  8
HATCH
  6
Continuous
 62
     7
370
    30
100
AcDbPoint
 10
26.590667
 20
5.459594
 30
0.0
  0
POINT
  5
274
330
3E3
100
AcDbEntity
  8
HATCH
  6
Continuous
 62
     7
370
    30
100
AcDbPoint
 10
26.63126
 20
5.483031
 30
0.0
  0
POINT
  5
275
330
3E3
100
AcDbEntity
  8
HATCH
  6
Continuous
 62
     7
370
    30
100
AcDbPoint
 10
26.671854
 20
5.506469
 30
0.0
  0
POINT
  5
276
330
3E3
100
AcDbEntity
  8
HATCH
  6
Continuous
 62
     7
370
    30
100
AcDbPoint
 10
26.712458
 20
5.529906
 30
0.0
  0
POINT
  5
277
330
3E3
100
AcDbEntity
  8
HATCH
  6
Continuous
 62
     7
370
    30
100
AcDbPoint
 10
26.384552
 20
5.394719
 30
0.0
  0
POINT
  5
278
330
3E3
100
AcDbEntity
  8
HATCH
  6
Continuous
 62
     7
370
    30
100
AcDbPoint
 10
26.425146
 20
5.418156
 30
0.0
  0
POINT
  5
279
330
3E3
100
AcDbEntity
  8
HATCH
  6
Continuous
 62
     7
370
    30
100
AcDbPoint
 10
26.46574
 20
5.441594
 30
0.0
  0
POINT
  5
27A
330
3E3
100
AcDbEntity
  8
HATCH
  6
Continuous
 62
     7
370
    30
100
AcDbPoint
 10
26.506344
 20
5.465031
 30
0.0
  0
POINT
  5
27B
330
3E3
100
AcDbEntity
  8
HATCH
  6
Continuous
 62
     7
370
    30
100
AcDbPoint
 10
26.546937
 20
5.488469
 30
0.0
  0
POINT
  5
27C
330
3E3
100
AcDbEntity
  8
HATCH
  6
Continuous
 62
     7
370
    30
100
AcDbPoint
 10
26.587531
 20
5.511906
 30
0.0
  0
POINT
  5
27D
330
3E3
100
AcDbEntity
  8
HATCH
  6
Continuous
 62
     7
370
    30
100
AcDbPoint
 10
26.381417
 20
5.447031
 30
0.0
  0
POINT
  5
27E
330
3E3
100
AcDbEntity
  8
HATCH
  6
Continuous
 62
     7
370
    30
100
AcDbPoint
 10
26.42201
 20
5.470469
 30
0.0
  0
POINT
  5
27F
330
3E3
100
AcDbEntity
  8
HATCH
  6
Continuous
 62
     7
370
    30
100
AcDbPoint
 10
26.522042
 20
5.203458
 30
0.0
  0
POINT
  5
280
330
3E3
100
AcDbEntity
  8
HATCH
  6
Continuous
 62
     7
370
    30
100
AcDbPoint
 10
26.562635
 20
5.226896
 30
0.0
  0
POINT
  5
281
330
3E3
100
AcDbEntity
  8
HATCH
  6
Continuous
 62
     7
370
    30
100
AcDbPoint
 10
26.603229
 20
5.250333
 30
0.0
  0
POINT
  5
282
330
3E3
100
AcDbEntity
  8
HATCH
  6
Continuous
 62
     7
370
    30
100
AcDbPoint
 10
26.643823
 20
5.273771
 30
0.0
  0
POINT
  5
283
330
3E3
100
AcDbEntity
  8
HATCH
  6
Continuous
 62
     7
370
    30
100
AcDbPoint
 10
26.684417
 20
5.297208
 30
0.0
  0
POINT
  5
284
330
3E3
100
AcDbEntity
  8
HATCH
  6
Continuous
 62
     7
370
    30
100
AcDbPoint
 10
26.72501
 20
5.320646
 30
0.0
  0
POINT
  5
285
330
3E3
100
AcDbEntity
  8
HATCH
  6
Continuous
 62
     7
370
    30
100
AcDbPoint
 10
26.765604
 20
5.344083
 30
0.0
  0
POINT
  5
286
330
3E3
100
AcDbEntity
  8
HATCH
  6
Continuous
 62
     7
370
    30
100
AcDbPoint
 10
26.806208
 20
5.367521
 30
0.0
  0
POINT
  5
287
330
3E3
100
AcDbEntity
  8
HATCH
  6
Continuous
 62
     7
370
    30
100
AcDbPoint
 10
26.846802
 20
5.390958
 30
0.0
  0
POINT
  5
288
330
3E3
100
AcDbEntity
  8
HATCH
  6
Continuous
 62
     7
370
    30
100
AcDbPoint
 10
26.887396
 20
5.414396
 30
0.0
  0
POINT
  5
289
330
3E3
100
AcDbEntity
  8
HATCH
  6
Continuous
 62
     7
370
    30
100
AcDbPoint
 10
26.92799
 20
5.437833
 30
0.0
  0
POINT
  5
28A
330
3E3
100
AcDbEntity
  8
HATCH
  6
Continuous
 62
     7
370
    30
100
AcDbPoint
 10
26.606365
 20
5.198021
 30
0.0
  0
POINT
  5
28B
330
3E3
100
AcDbEntity
  8
HATCH
  6
Continuous
 62
     7
370
    30
100
AcDbPoint
 10
26.646969
 20
5.221458
 30
0.0
  0
POINT
  5
28C
330
3E3
100
AcDbEntity
  8
HATCH
  6
Continuous
 62
     7
370
    30
100
AcDbPoint
 10
26.687562
 20
5.244896
 30
0.0
  0
POINT
  5
28D
330
3E3
100
AcDbEntity
  8
HATCH
  6
Continuous
 62
     7
370
    30
100
AcDbPoint
 10
26.728156
 20
5.268333
 30
0.0
  0
POINT
  5
28E
330
3E3
100
AcDbEntity
  8
HATCH
  6
Continuous
 62
     7
370
    30
100
AcDbPoint
 10
26.76875
 20
5.291771
 30
0.0
  0
POINT
  5
28F
330
3E3
100
AcDbEntity
  8
HATCH
  6
Continuous
 62
     7
370
    30
100
AcDbPoint
 10
26.809344
 20
5.315208
 30
0.0
  0
POINT
  5
290
330
3E3
100
AcDbEntity
  8
HATCH
  6
Continuous
 62
     7
370
    30
100
AcDbPoint
 10
26.849937
 20
5.338646
 30
0.0
  0
POINT
  5
291
330
3E3
100
AcDbEntity
  8
HATCH
  6
Continuous
 62
     7
370
    30
100
AcDbPoint
 10
26.890531
 20
5.362083
 30
0.0
  0
POINT
  5
292
330
3E3
100
AcDbEntity
  8
HATCH
  6
Continuous
 62
     7
370
    30
100
AcDbPoint
 10
26.690698
 20
5.192583
 30
0.0
  0
POINT
  5
293
330
3E3
100
AcDbEntity
  8
HATCH
  6
Continuous
 62
     7
370
    30
100
AcDbPoint
 10
26.731292
 20
5.216021
 30
0.0
  0
POINT
  5
294
330
3E3
100
AcDbEntity
  8
HATCH
  6
Continuous
 62
     7
370
    30
100
AcDbPoint
 10
26.771885
 20
5.239458
 30
0.0
  0
POINT
  5
295
330
3E3
100
AcDbEntity
  8
HATCH
  6
Continuous
 62
     7
370
    30
100
AcDbPoint
 10
26.812479
 20
5.262896
 30
0.0
  0
POINT
  5
296
330
3E3
100
AcDbEntity
  8
HATCH
  6
Continuous
 62
     7
370
    30
100
AcDbPoint
 10
26.853083
 20
5.286333
 30
0.0
  0
POINT
  5
297
330
3E3
100
AcDbEntity
  8
HATCH
  6
Continuous
 62
     7
370
    30
100
AcDbPoint
 10
26.775031
 20
5.187146
 30
0.0
  0
POINT
  5
298
330
3E3
100
AcDbEntity
  8
HATCH
  6
Continuous
 62
     7
370
    30
100
AcDbPoint
 10
26.815625
 20
5.210583
 30
0.0
  0
POINT
  5
299
330
3E3
100
AcDbEntity
  8
HATCH
  6
Continuous
 62
     7
370
    30
100
AcDbPoint
 10
28.114667
 20
5.960583
 30
0.0
  0
POINT
  5
29A
330
3E3
100
AcDbEntity
  8
HATCH
  6
Continuous
 62
     7
370
    30
100
AcDbPoint
 10
28.15526
 20
5.984021
 30
0.0
  0
POINT
  5
29B
330
3E3
100
AcDbEntity
  8
HATCH
  6
Continuous
 62
     7
370
    30
100
AcDbPoint
 10
28.195854
 20
6.007458
 30
0.0
  0
POINT
  5
29C
330
3E3
100
AcDbEntity
  8
HATCH
  6
Continuous
 62
     7
370
    30
100
AcDbPoint
 10
28.236448
 20
6.030896
 30
0.0
  0
POINT
  5
29D
330
3E3
100
AcDbEntity
  8
HATCH
  6
Continuous
 62
     7
370
    30
100
AcDbPoint
 10
28.277042
 20
6.054333
 30
0.0
  0
POINT
  5
29E
330
3E3
100
AcDbEntity
  8
HATCH
  6
Continuous
 62
     7
370
    30
100
AcDbPoint
 10
28.317635
 20
6.077771
 30
0.0
  0
POINT
  5
29F
330
3E3
100
AcDbEntity
  8
HATCH
  6
Continuous
 62
     7
370
    30
100
AcDbPoint
 10
28.358229
 20
6.101208
 30
0.0
  0
POINT
  5
2A0
330
3E3
100
AcDbEntity
  8
HATCH
  6
Continuous
 62
     7
370
    30
100
AcDbPoint
 10
28.398823
 20
6.124646
 30
0.0
  0
POINT
  5
2A1
330
3E3
100
AcDbEntity
  8
HATCH
  6
Continuous
 62
     7
370
    30
100
AcDbPoint
 10
28.439417
 20
6.148083
 30
0.0
  0
POINT
  5
2A2
330
3E3
100
AcDbEntity
  8
HATCH
  6
Continuous
 62
     7
370
    30
100
AcDbPoint
 10
28.480021
 20
6.171521
 30
0.0
  0
POINT
  5
2A3
330
3E3
100
AcDbEntity
  8
HATCH
  6
Continuous
 62
     7
370
    30
100
AcDbPoint
 10
28.520615
 20
6.194958
 30
0.0
  0
POINT
  5
2A4
330
3E3
100
AcDbEntity
  8
HATCH
  6
Continuous
 62
     7
370
    30
100
AcDbPoint
 10
28.561208
 20
6.218396
 30
0.0
  0
POINT
  5
2A5
330
3E3
100
AcDbEntity
  8
HATCH
  6
Continuous
 62
     7
370
    30
100
AcDbPoint
 10
28.601802
 20
6.241833
 30
0.0
  0
POINT
  5
2A6
330
3E3
100
AcDbEntity
  8
HATCH
  6
Continuous
 62
     7
370
    30
100
AcDbPoint
 10
28.642396
 20
6.265271
 30
0.0
  0
POINT
  5
2A7
330
3E3
100
AcDbEntity
  8
HATCH
  6
Continuous
 62
     7
370
    30
100
AcDbPoint
 10
28.070927
 20
5.989458
 30
0.0
  0
POINT
  5
2A8
330
3E3
100
AcDbEntity
  8
HATCH
  6
Continuous
 62
     7
370
    30
100
AcDbPoint
 10
28.111521
 20
6.012896
 30
0.0
  0
POINT
  5
2A9
330
3E3
100
AcDbEntity
  8
HATCH
  6
Continuous
 62
     7
370
    30
100
AcDbPoint
 10
28.152115
 20
6.036333
 30
0.0
  0
POINT
  5
2AA
330
3E3
100
AcDbEntity
  8
HATCH
  6
Continuous
 62
     7
370
    30
100
AcDbPoint
 10
28.192708
 20
6.059771
 30
0.0
  0
POINT
  5
2AB
330
3E3
100
AcDbEntity
  8
HATCH
  6
Continuous
 62
     7
370
    30
100
AcDbPoint
 10
28.233302
 20
6.083208
 30
0.0
  0
POINT
  5
2AC
330
3E3
100
AcDbEntity
  8
HATCH
  6
Continuous
 62
     7
370
    30
100
AcDbPoint
 10
28.273906
 20
6.106646
 30
0.0
  0
POINT
  5
2AD
330
3E3
100
AcDbEntity
  8
HATCH
  6
Continuous
 62
     7
370
    30
100
AcDbPoint
 10
28.3145
 20
6.130083
 30
0.0
  0
POINT
  5
2AE
330
3E3
100
AcDbEntity
  8
HATCH
  6
Continuous
 62
     7
370
    30
100
AcDbPoint
 10
28.355094
 20
6.153521
 30
0.0
  0
POINT
  5
2AF
330
3E3
100
AcDbEntity
  8
HATCH
  6
Continuous
 62
     7
370
    30
100
AcDbPoint
 10
28.395687
 20
6.176958
 30
0.0
  0
POINT
  5
2B0
330
3E3
100
AcDbEntity
  8
HATCH
  6
Continuous
 62
     7
370
    30
100
AcDbPoint
 10
28.436281
 20
6.200396
 30
0.0
  0
POINT
  5
2B1
330
3E3
100
AcDbEntity
  8
HATCH
  6
Continuous
 62
     7
370
    30
100
AcDbPoint
 10
28.476875
 20
6.223833
 30
0.0
  0
POINT
  5
2B2
330
3E3
100
AcDbEntity
  8
HATCH
  6
Continuous
 62
     7
370
    30
100
AcDbPoint
 10
28.517469
 20
6.247271
 30
0.0
  0
POINT
  5
2B3
330
3E3
100
AcDbEntity
  8
HATCH
  6
Continuous
 62
     7
370
    30
100
AcDbPoint
 10
28.558062
 20
6.270708
 30
0.0
  0
POINT
  5
2B4
330
3E3
100
AcDbEntity
  8
HATCH
  6
Continuous
 62
     7
370
    30
100
AcDbPoint
 10
28.027188
 20
6.018333
 30
0.0
  0
POINT
  5
2B5
330
3E3
100
AcDbEntity
  8
HATCH
  6
Continuous
 62
     7
370
    30
100
AcDbPoint
 10
28.067792
 20
6.041771
 30
0.0
  0
POINT
  5
2B6
330
3E3
100
AcDbEntity
  8
HATCH
  6
Continuous
 62
     7
370
    30
100
AcDbPoint
 10
28.108385
 20
6.065208
 30
0.0
  0
POINT
  5
2B7
330
3E3
100
AcDbEntity
  8
HATCH
  6
Continuous
 62
     7
370
    30
100
AcDbPoint
 10
28.148979
 20
6.088646
 30
0.0
  0
POINT
  5
2B8
330
3E3
100
AcDbEntity
  8
HATCH
  6
Continuous
 62
     7
370
    30
100
AcDbPoint
 10
28.189573
 20
6.112083
 30
0.0
  0
POINT
  5
2B9
330
3E3
100
AcDbEntity
  8
HATCH
  6
Continuous
 62
     7
370
    30
100
AcDbPoint
 10
28.230167
 20
6.135521
 30
0.0
  0
POINT
  5
2BA
330
3E3
100
AcDbEntity
  8
HATCH
  6
Continuous
 62
     7
370
    30
100
AcDbPoint
 10
28.27076
 20
6.158958
 30
0.0
  0
POINT
  5
2BB
330
3E3
100
AcDbEntity
  8
HATCH
  6
Continuous
 62
     7
370
    30
100
AcDbPoint
 10
28.311354
 20
6.182396
 30
0.0
  0
POINT
  5
2BC
330
3E3
100
AcDbEntity
  8
HATCH
  6
Continuous
 62
     7
370
    30
100
AcDbPoint
 10
28.351948
 20
6.205833
 30
0.0
  0
POINT
  5
2BD
330
3E3
100
AcDbEntity
  8
HATCH
  6
Continuous
 62
     7
370
    30
100
AcDbPoint
 10
28.392542
 20
6.229271
 30
0.0
  0
POINT
  5
2BE
330
3E3
100
AcDbEntity
  8
HATCH
  6
Continuous
 62
     7
370
    30
100
AcDbPoint
 10
28.433146
 20
6.252708
 30
0.0
  0
POINT
  5
2BF
330
3E3
100
AcDbEntity
  8
HATCH
  6
Continuous
 62
     7
370
    30
100
AcDbPoint
 10
28.47374
 20
6.276146
 30
0.0
  0
POINT
  5
2C0
330
3E3
100
AcDbEntity
  8
HATCH
  6
Continuous
 62
     7
370
    30
100
AcDbPoint
 10
27.983458
 20
6.047208
 30
0.0
  0
POINT
  5
2C1
330
3E3
100
AcDbEntity
  8
HATCH
  6
Continuous
 62
     7
370
    30
100
AcDbPoint
 10
28.024052
 20
6.070646
 30
0.0
  0
POINT
  5
2C2
330
3E3
100
AcDbEntity
  8
HATCH
  6
Continuous
 62
     7
370
    30
100
AcDbPoint
 10
28.064646
 20
6.094083
 30
0.0
  0
POINT
  5
2C3
330
3E3
100
AcDbEntity
  8
HATCH
  6
Continuous
 62
     7
370
    30
100
AcDbPoint
 10
28.10524
 20
6.117521
 30
0.0
  0
POINT
  5
2C4
330
3E3
100
AcDbEntity
  8
HATCH
  6
Continuous
 62
     7
370
    30
100
AcDbPoint
 10
28.145833
 20
6.140958
 30
0.0
  0
POINT
  5
2C5
330
3E3
100
AcDbEntity
  8
HATCH
  6
Continuous
 62
     7
370
    30
100
AcDbPoint
 10
28.186427
 20
6.164396
 30
0.0
  0
POINT
  5
2C6
330
3E3
100
AcDbEntity
  8
HATCH
  6
Continuous
 62
     7
370
    30
100
AcDbPoint
 10
28.227031
 20
6.187833
 30
0.0
  0
POINT
  5
2C7
330
3E3
100
AcDbEntity
  8
HATCH
  6
Continuous
 62
     7
370
    30
100
AcDbPoint
 10
28.267625
 20
6.211271
 30
0.0
  0
POINT
  5
2C8
330
3E3
100
AcDbEntity
  8
HATCH
  6
Continuous
 62
     7
370
    30
100
AcDbPoint
 10
28.308219
 20
6.234708
 30
0.0
  0
POINT
  5
2C9
330
3E3
100
AcDbEntity
  8
HATCH
  6
Continuous
 62
     7
370
    30
100
AcDbPoint
 10
28.348812
 20
6.258146
 30
0.0
  0
POINT
  5
2CA
330
3E3
100
AcDbEntity
  8
HATCH
  6
Continuous
 62
     7
370
    30
100
AcDbPoint
 10
28.389406
 20
6.281583
 30
0.0
  0
POINT
  5
2CB
330
3E3
100
AcDbEntity
  8
HATCH
  6
Continuous
 62
     7
370
    30
100
AcDbPoint
 10
27.939719
 20
6.076083
 30
0.0
  0
POINT
  5
2CC
330
3E3
100
AcDbEntity
  8
HATCH
  6
Continuous
 62
     7
370
    30
100
AcDbPoint
 10
27.980313
 20
6.099521
 30
0.0
  0
POINT
  5
2CD
330
3E3
100
AcDbEntity
  8
HATCH
  6
Continuous
 62
     7
370
    30
100
AcDbPoint
 10
28.020917
 20
6.122958
 30
0.0
  0
POINT
  5
2CE
330
3E3
100
AcDbEntity
  8
HATCH
  6
Continuous
 62
     7
370
    30
100
AcDbPoint
 10
28.06151
 20
6.146396
 30
0.0
  0
POINT
  5
2CF
330
3E3
100
AcDbEntity
  8
HATCH
  6
Continuous
 62
     7
370
    30
100
AcDbPoint
 10
28.102104
 20
6.169833
 30
0.0
  0
POINT
  5
2D0
330
3E3
100
AcDbEntity
  8
HATCH
  6
Continuous
 62
     7
370
    30
100
AcDbPoint
 10
28.142698
 20
6.193271
 30
0.0
  0
POINT
  5
2D1
330
3E3
100
AcDbEntity
  8
HATCH
  6
Continuous
 62
     7
370
    30
100
AcDbPoint
 10
28.183292
 20
6.216708
 30
0.0
  0
POINT
  5
2D2
330
3E3
100
AcDbEntity
  8
HATCH
  6
Continuous
 62
     7
370
    30
100
AcDbPoint
 10
28.223885
 20
6.240146
 30
0.0
  0
POINT
  5
2D3
330
3E3
100
AcDbEntity
  8
HATCH
  6
Continuous
 62
     7
370
    30
100
AcDbPoint
 10
28.264479
 20
6.263583
 30
0.0
  0
POINT
  5
2D4
330
3E3
100
AcDbEntity
  8
HATCH
  6
Continuous
 62
     7
370
    30
100
AcDbPoint
 10
27.89599
 20
6.104969
 30
0.0
  0
POINT
  5
2D5
330
3E3
100
AcDbEntity
  8
HATCH
  6
Continuous
 62
     7
370
    30
100
AcDbPoint
 10
27.936583
 20
6.128406
 30
0.0
  0
POINT
  5
2D6
330
3E3
100
AcDbEntity
  8
HATCH
  6
Continuous
 62
     7
370
    30
100
AcDbPoint
 10
27.977177
 20
6.151844
 30
0.0
  0
POINT
  5
2D7
330
3E3
100
AcDbEntity
  8
HATCH
  6
Continuous
 62
     7
370
    30
100
AcDbPoint
 10
28.017771
 20
6.175281
 30
0.0
  0
POINT
  5
2D8
330
3E3
100
AcDbEntity
  8
HATCH
  6
Continuous
 62
     7
370
    30
100
AcDbPoint
 10
28.058365
 20
6.198719
 30
0.0
  0
POINT
  5
2D9
330
3E3
100
AcDbEntity
  8
HATCH
  6
Continuous
 62
     7
370
    30
100
AcDbPoint
 10
28.098958
 20
6.222156
 30
0.0
  0
POINT
  5
2DA
330
3E3
100
AcDbEntity
  8
HATCH
  6
Continuous
 62
     7
370
    30
100
AcDbPoint
 10
28.139552
 20
6.245594
 30
0.0
  0
POINT
  5
2DB
330
3E3
100
AcDbEntity
  8
HATCH
  6
Continuous
 62
     7
370
    30
100
AcDbPoint
 10
28.180156
 20
6.269031
 30
0.0
  0
POINT
  5
2DC
330
3E3
100
AcDbEntity
  8
HATCH
  6
Continuous
 62
     7
370
    30
100
AcDbPoint
 10
27.892844
 20
6.157281
 30
0.0
  0
POINT
  5
2DD
330
3E3
100
AcDbEntity
  8
HATCH
  6
Continuous
 62
     7
370
    30
100
AcDbPoint
 10
27.933438
 20
6.180719
 30
0.0
  0
POINT
  5
2DE
330
3E3
100
AcDbEntity
  8
HATCH
  6
Continuous
 62
     7
370
    30
100
AcDbPoint
 10
27.974042
 20
6.204156
 30
0.0
  0
POINT
  5
2DF
330
3E3
100
AcDbEntity
  8
HATCH
  6
Continuous
 62
     7
370
    30
100
AcDbPoint
 10
28.014635
 20
6.227594
 30
0.0
  0
POINT
  5
2E0
330
3E3
100
AcDbEntity
  8
HATCH
  6
Continuous
 62
     7
370
    30
100
AcDbPoint
 10
28.055229
 20
6.251031
 30
0.0
  0
POINT
  5
2E1
330
3E3
100
AcDbEntity
  8
HATCH
  6
Continuous
 62
     7
370
    30
100
AcDbPoint
 10
28.095823
 20
6.274469
 30
0.0
  0
POINT
  5
2E2
330
3E3
100
AcDbEntity
  8
HATCH
  6
Continuous
 62
     7
370
    30
100
AcDbPoint
 10
27.849115
 20
6.186156
 30
0.0
  0
POINT
  5
2E3
330
3E3
100
AcDbEntity
  8
HATCH
  6
Continuous
 62
     7
370
    30
100
AcDbPoint
 10
27.889708
 20
6.209594
 30
0.0
  0
POINT
  5
2E4
330
3E3
100
AcDbEntity
  8
HATCH
  6
Continuous
 62
     7
370
    30
100
AcDbPoint
 10
27.930302
 20
6.233031
 30
0.0
  0
POINT
  5
2E5
330
3E3
100
AcDbEntity
  8
HATCH
  6
Continuous
 62
     7
370
    30
100
AcDbPoint
 10
27.970896
 20
6.256469
 30
0.0
  0
POINT
  5
2E6
330
3E3
100
AcDbEntity
  8
HATCH
  6
Continuous
 62
     7
370
    30
100
AcDbPoint
 10
28.01149
 20
6.279906
 30
0.0
  0
POINT
  5
2E7
330
3E3
100
AcDbEntity
  8
HATCH
  6
Continuous
 62
     7
370
    30
100
AcDbPoint
 10
27.845969
 20
6.238469
 30
0.0
  0
POINT
  5
2E8
330
3E3
100
AcDbEntity
  8
HATCH
  6
Continuous
 62
     7
370
    30
100
AcDbPoint
 10
27.886563
 20
6.261906
 30
0.0
  0
POINT
  5
2E9
330
3E3
100
AcDbEntity
  8
HATCH
  6
Continuous
 62
     7
370
    30
100
AcDbPoint
 10
27.927167
 20
6.285344
 30
0.0
  0
POINT
  5
2EA
330
3E3
100
AcDbEntity
  8
HATCH
  6
Continuous
 62
     7
370
    30
100
AcDbPoint
 10
27.80224
 20
6.267344
 30
0.0
  0
POINT
  5
2EB
330
3E3
100
AcDbEntity
  8
HATCH
  6
Continuous
 62
     7
370
    30
100
AcDbPoint
 10
28.158396
 20
5.931708
 30
0.0
  0
POINT
  5
2EC
330
3E3
100
AcDbEntity
  8
HATCH
  6
Continuous
 62
     7
370
    30
100
AcDbPoint
 10
28.19899
 20
5.955146
 30
0.0
  0
POINT
  5
2ED
330
3E3
100
AcDbEntity
  8
HATCH
  6
Continuous
 62
     7
370
    30
100
AcDbPoint
 10
28.239583
 20
5.978583
 30
0.0
  0
POINT
  5
2EE
330
3E3
100
AcDbEntity
  8
HATCH
  6
Continuous
 62
     7
370
    30
100
AcDbPoint
 10
28.280177
 20
6.002021
 30
0.0
  0
POINT
  5
2EF
330
3E3
100
AcDbEntity
  8
HATCH
  6
Continuous
 62
     7
370
    30
100
AcDbPoint
 10
28.320781
 20
6.025458
 30
0.0
  0
POINT
  5
2F0
330
3E3
100
AcDbEntity
  8
HATCH
  6
Continuous
 62
     7
370
    30
100
AcDbPoint
 10
28.361375
 20
6.048896
 30
0.0
  0
POINT
  5
2F1
330
3E3
100
AcDbEntity
  8
HATCH
  6
Continuous
 62
     7
370
    30
100
AcDbPoint
 10
28.401969
 20
6.072333
 30
0.0
  0
POINT
  5
2F2
330
3E3
100
AcDbEntity
  8
HATCH
  6
Continuous
 62
     7
370
    30
100
AcDbPoint
 10
28.442562
 20
6.095771
 30
0.0
  0
POINT
  5
2F3
330
3E3
100
AcDbEntity
  8
HATCH
  6
Continuous
 62
     7
370
    30
100
AcDbPoint
 10
28.483156
 20
6.119208
 30
0.0
  0
POINT
  5
2F4
330
3E3
100
AcDbEntity
  8
HATCH
  6
Continuous
 62
     7
370
    30
100
AcDbPoint
 10
28.52375
 20
6.142646
 30
0.0
  0
POINT
  5
2F5
330
3E3
100
AcDbEntity
  8
HATCH
  6
Continuous
 62
     7
370
    30
100
AcDbPoint
 10
28.564344
 20
6.166083
 30
0.0
  0
POINT
  5
2F6
330
3E3
100
AcDbEntity
  8
HATCH
  6
Continuous
 62
     7
370
    30
100
AcDbPoint
 10
28.604937
 20
6.189521
 30
0.0
  0
POINT
  5
2F7
330
3E3
100
AcDbEntity
  8
HATCH
  6
Continuous
 62
     7
370
    30
100
AcDbPoint
 10
28.202135
 20
5.902833
 30
0.0
  0
POINT
  5
2F8
330
3E3
100
AcDbEntity
  8
HATCH
  6
Continuous
 62
     7
370
    30
100
AcDbPoint
 10
28.242729
 20
5.926271
 30
0.0
  0
POINT
  5
2F9
330
3E3
100
AcDbEntity
  8
HATCH
  6
Continuous
 62
     7
370
    30
100
AcDbPoint
 10
28.283323
 20
5.949708
 30
0.0
  0
POINT
  5
2FA
330
3E3
100
AcDbEntity
  8
HATCH
  6
Continuous
 62
     7
370
    30
100
AcDbPoint
 10
28.323917
 20
5.973146
 30
0.0
  0
POINT
  5
2FB
330
3E3
100
AcDbEntity
  8
HATCH
  6
Continuous
 62
     7
370
    30
100
AcDbPoint
 10
28.36451
 20
5.996583
 30
0.0
  0
POINT
  5
2FC
330
3E3
100
AcDbEntity
  8
HATCH
  6
Continuous
 62
     7
370
    30
100
AcDbPoint
 10
28.405104
 20
6.020021
 30
0.0
  0
POINT
  5
2FD
330
3E3
100
AcDbEntity
  8
HATCH
  6
Continuous
 62
     7
370
    30
100
AcDbPoint
 10
28.445698
 20
6.043458
 30
0.0
  0
POINT
  5
2FE
330
3E3
100
AcDbEntity
  8
HATCH
  6
Continuous
 62
     7
370
    30
100
AcDbPoint
 10
28.486292
 20
6.066896
 30
0.0
  0
POINT
  5
2FF
330
3E3
100
AcDbEntity
  8
HATCH
  6
Continuous
 62
     7
370
    30
100
AcDbPoint
 10
28.245865
 20
5.873958
 30
0.0
  0
POINT
  5
300
330
3E3
100
AcDbEntity
  8
HATCH
  6
Continuous
 62
     7
370
    30
100
AcDbPoint
 10
28.286458
 20
5.897396
 30
0.0
  0
POINT
  5
301
330
3E3
100
AcDbEntity
  8
HATCH
  6
Continuous
 62
     7
370
    30
100
AcDbPoint
 10
28.327052
 20
5.920833
 30
0.0
  0
POINT
  5
302
330
3E3
100
AcDbEntity
  8
HATCH
  6
Continuous
 62
     7
370
    30
100
AcDbPoint
 10
28.367656
 20
5.944271
 30
0.0
  0
POINT
  5
303
330
3E3
100
AcDbEntity
  8
HATCH
  6
Continuous
 62
     7
370
    30
100
AcDbPoint
 10
28.40825
 20
5.967708
 30
0.0
  0
POINT
  5
304
330
3E3
100
AcDbEntity
  8
HATCH
  6
Continuous
 62
     7
370
    30
100
AcDbPoint
 10
28.448844
 20
5.991146
 30
0.0
  0
POINT
  5
305
330
3E3
100
AcDbEntity
  8
HATCH
  6
Continuous
 62
     7
370
    30
100
AcDbPoint
 10
28.489437
 20
6.014583
 30
0.0
  0
POINT
  5
306
330
3E3
100
AcDbEntity
  8
HATCH
  6
Continuous
 62
     7
370
    30
100
AcDbPoint
 10
28.370792
 20
5.891958
 30
0.0
  0
POINT
  5
307
330
3E3
100
AcDbEntity
  8
HATCH
  6
Continuous
 62
     7
370
    30
100
AcDbPoint
 10
28.411385
 20
5.915396
 30
0.0
  0
POINT
  5
308
330
3E3
100
AcDbEntity
  8
HATCH
  6
Continuous
 62
     7
370
    30
100
AcDbPoint
 10
28.451979
 20
5.938833
 30
0.0
  0
POINT
  5
309
330
3E3
100
AcDbEntity
  8
HATCH
  6
Continuous
 62
     7
370
    30
100
AcDbPoint
 10
28.492573
 20
5.962271
 30
0.0
  0
POINT
  5
30A
330
3E3
100
AcDbEntity
  8
HATCH
  6
Continuous
 62
     7
370
    30
100
AcDbPoint
 10
28.495719
 20
5.909948
 30
0.0
  0
POINT
  5
30B
330
3E3
100
AcDbEntity
  8
HATCH
  6
Continuous
 62
     7
370
    30
100
AcDbPoint
 10
29.251771
 20
5.209802
 30
0.0
  0
POINT
  5
30C
330
3E3
100
AcDbEntity
  8
HATCH
  6
Continuous
 62
     7
370
    30
100
AcDbPoint
 10
29.292365
 20
5.23324
 30
0.0
  0
POINT
  5
30D
330
3E3
100
AcDbEntity
  8
HATCH
  6
Continuous
 62
     7
370
    30
100
AcDbPoint
 10
29.332958
 20
5.256677
 30
0.0
  0
POINT
  5
30E
330
3E3
100
AcDbEntity
  8
HATCH
  6
Continuous
 62
     7
370
    30
100
AcDbPoint
 10
29.373552
 20
5.280115
 30
0.0
  0
POINT
  5
30F
330
3E3
100
AcDbEntity
  8
HATCH
  6
Continuous
 62
     7
370
    30
100
AcDbPoint
 10
29.414146
 20
5.303552
 30
0.0
  0
POINT
  5
310
330
3E3
100
AcDbEntity
  8
HATCH
  6
Continuous
 62
     7
370
    30
100
AcDbPoint
 10
29.45475
 20
5.32699
 30
0.0
  0
POINT
  5
311
330
3E3
100
AcDbEntity
  8
HATCH
  6
Continuous
 62
     7
370
    30
100
AcDbPoint
 10
29.495344
 20
5.350427
 30
0.0
  0
POINT
  5
312
330
3E3
100
AcDbEntity
  8
HATCH
  6
Continuous
 62
     7
370
    30
100
AcDbPoint
 10
29.535937
 20
5.373865
 30
0.0
  0
POINT
  5
313
330
3E3
100
AcDbEntity
  8
HATCH
  6
Continuous
 62
     7
370
    30
100
AcDbPoint
 10
29.576531
 20
5.397302
 30
0.0
  0
POINT
  5
314
330
3E3
100
AcDbEntity
  8
HATCH
  6
Continuous
 62
     7
370
    30
100
AcDbPoint
 10
29.617125
 20
5.42074
 30
0.0
  0
POINT
  5
315
330
3E3
100
AcDbEntity
  8
HATCH
  6
Continuous
 62
     7
370
    30
100
AcDbPoint
 10
29.657719
 20
5.444177
 30
0.0
  0
POINT
  5
316
330
3E3
100
AcDbEntity
  8
HATCH
  6
Continuous
 62
     7
370
    30
100
AcDbPoint
 10
29.698313
 20
5.467615
 30
0.0
  0
POINT
  5
317
330
3E3
100
AcDbEntity
  8
HATCH
  6
Continuous
 62
     7
370
    30
100
AcDbPoint
 10
29.289229
 20
5.285552
 30
0.0
  0
POINT
  5
318
330
3E3
100
AcDbEntity
  8
HATCH
  6
Continuous
 62
     7
370
    30
100
AcDbPoint
 10
29.329823
 20
5.30899
 30
0.0
  0
POINT
  5
319
330
3E3
100
AcDbEntity
  8
HATCH
  6
Continuous
 62
     7
370
    30
100
AcDbPoint
 10
29.370417
 20
5.332427
 30
0.0
  0
POINT
  5
31A
330
3E3
100
AcDbEntity
  8
HATCH
  6
Continuous
 62
     7
370
    30
100
AcDbPoint
 10
29.41101
 20
5.355865
 30
0.0
  0
POINT
  5
31B
330
3E3
100
AcDbEntity
  8
HATCH
  6
Continuous
 62
     7
370
    30
100
AcDbPoint
 10
29.451604
 20
5.379302
 30
0.0
  0
POINT
  5
31C
330
3E3
100
AcDbEntity
  8
HATCH
  6
Continuous
 62
     7
370
    30
100
AcDbPoint
 10
29.492198
 20
5.40274
 30
0.0
  0
POINT
  5
31D
330
3E3
100
AcDbEntity
  8
HATCH
  6
Continuous
 62
     7
370
    30
100
AcDbPoint
 10
29.532792
 20
5.426177
 30
0.0
  0
POINT
  5
31E
330
3E3
100
AcDbEntity
  8
HATCH
  6
Continuous
 62
     7
370
    30
100
AcDbPoint
 10
29.573396
 20
5.449615
 30
0.0
  0
POINT
  5
31F
330
3E3
100
AcDbEntity
  8
HATCH
  6
Continuous
 62
     7
370
    30
100
AcDbPoint
 10
29.61399
 20
5.473052
 30
0.0
  0
POINT
  5
320
330
3E3
100
AcDbEntity
  8
HATCH
  6
Continuous
 62
     7
370
    30
100
AcDbPoint
 10
29.654583
 20
5.49649
 30
0.0
  0
POINT
  5
321
330
3E3
100
AcDbEntity
  8
HATCH
  6
Continuous
 62
     7
370
    30
100
AcDbPoint
 10
29.326677
 20
5.361302
 30
0.0
  0
POINT
  5
322
330
3E3
100
AcDbEntity
  8
HATCH
  6
Continuous
 62
     7
370
    30
100
AcDbPoint
 10
29.367271
 20
5.38474
 30
0.0
  0
POINT
  5
323
330
3E3
100
AcDbEntity
  8
HATCH
  6
Continuous
 62
     7
370
    30
100
AcDbPoint
 10
29.407875
 20
5.408177
 30
0.0
  0
POINT
  5
324
330
3E3
100
AcDbEntity
  8
HATCH
  6
Continuous
 62
     7
370
    30
100
AcDbPoint
 10
29.448469
 20
5.431615
 30
0.0
  0
POINT
  5
325
330
3E3
100
AcDbEntity
  8
HATCH
  6
Continuous
 62
     7
370
    30
100
AcDbPoint
 10
29.489062
 20
5.455052
 30
0.0
  0
POINT
  5
326
330
3E3
100
AcDbEntity
  8
HATCH
  6
Continuous
 62
     7
370
    30
100
AcDbPoint
 10
29.529656
 20
5.47849
 30
0.0
  0
POINT
  5
327
330
3E3
100
AcDbEntity
  8
HATCH
  6
Continuous
 62
     7
370
    30
100
AcDbPoint
 10
29.57025
 20
5.501927
 30
0.0
  0
POINT
  5
328
330
3E3
100
AcDbEntity
  8
HATCH
  6
Continuous
 62
     7
370
    30
100
AcDbPoint
 10
29.610844
 20
5.525365
 30
0.0
  0
POINT
  5
329
330
3E3
100
AcDbEntity
  8
HATCH
  6
Continuous
 62
     7
370
    30
100
AcDbPoint
 10
29.651438
 20
5.548802
 30
0.0
  0
POINT
  5
32A
330
3E3
100
AcDbEntity
  8
HATCH
  6
Continuous
 62
     7
370
    30
100
AcDbPoint
 10
29.364135
 20
5.437052
 30
0.0
  0
POINT
  5
32B
330
3E3
100
AcDbEntity
  8
HATCH
  6
Continuous
 62
     7
370
    30
100
AcDbPoint
 10
29.404729
 20
5.46049
 30
0.0
  0
POINT
  5
32C
330
3E3
100
AcDbEntity
  8
HATCH
  6
Continuous
 62
     7
370
    30
100
AcDbPoint
 10
29.445323
 20
5.483927
 30
0.0
  0
POINT
  5
32D
330
3E3
100
AcDbEntity
  8
HATCH
  6
Continuous
 62
     7
370
    30
100
AcDbPoint
 10
29.485917
 20
5.507365
 30
0.0
  0
POINT
  5
32E
330
3E3
100
AcDbEntity
  8
HATCH
  6
Continuous
 62
     7
370
    30
100
AcDbPoint
 10
29.526521
 20
5.530802
 30
0.0
  0
POINT
  5
32F
330
3E3
100
AcDbEntity
  8
HATCH
  6
Continuous
 62
     7
370
    30
100
AcDbPoint
 10
29.567115
 20
5.55424
 30
0.0
  0
POINT
  5
330
330
3E3
100
AcDbEntity
  8
HATCH
  6
Continuous
 62
     7
370
    30
100
AcDbPoint
 10
29.361
 20
5.489375
 30
0.0
  0
POINT
  5
331
330
3E3
100
AcDbEntity
  8
HATCH
  6
Continuous
 62
     7
370
    30
100
AcDbPoint
 10
29.336104
 20
5.204365
 30
0.0
  0
POINT
  5
332
330
3E3
100
AcDbEntity
  8
HATCH
  6
Continuous
 62
     7
370
    30
100
AcDbPoint
 10
29.376698
 20
5.227802
 30
0.0
  0
POINT
  5
333
330
3E3
100
AcDbEntity
  8
HATCH
  6
Continuous
 62
     7
370
    30
100
AcDbPoint
 10
29.417292
 20
5.25124
 30
0.0
  0
POINT
  5
334
330
3E3
100
AcDbEntity
  8
HATCH
  6
Continuous
 62
     7
370
    30
100
AcDbPoint
 10
29.457885
 20
5.274677
 30
0.0
  0
POINT
  5
335
330
3E3
100
AcDbEntity
  8
HATCH
  6
Continuous
 62
     7
370
    30
100
AcDbPoint
 10
29.498479
 20
5.298115
 30
0.0
  0
POINT
  5
336
330
3E3
100
AcDbEntity
  8
HATCH
  6
Continuous
 62
     7
370
    30
100
AcDbPoint
 10
29.539073
 20
5.321552
 30
0.0
  0
POINT
  5
337
330
3E3
100
AcDbEntity
  8
HATCH
  6
Continuous
 62
     7
370
    30
100
AcDbPoint
 10
29.579667
 20
5.34499
 30
0.0
  0
POINT
  5
338
330
3E3
100
AcDbEntity
  8
HATCH
  6
Continuous
 62
     7
370
    30
100
AcDbPoint
 10
29.620271
 20
5.368427
 30
0.0
  0
POINT
  5
339
330
3E3
100
AcDbEntity
  8
HATCH
  6
Continuous
 62
     7
370
    30
100
AcDbPoint
 10
29.660865
 20
5.391865
 30
0.0
  0
POINT
  5
33A
330
3E3
100
AcDbEntity
  8
HATCH
  6
Continuous
 62
     7
370
    30
100
AcDbPoint
 10
29.701458
 20
5.415302
 30
0.0
  0
POINT
  5
33B
330
3E3
100
AcDbEntity
  8
HATCH
  6
Continuous
 62
     7
370
    30
100
AcDbPoint
 10
29.420427
 20
5.198927
 30
0.0
  0
POINT
  5
33C
330
3E3
100
AcDbEntity
  8
HATCH
  6
Continuous
 62
     7
370
    30
100
AcDbPoint
 10
29.461021
 20
5.222365
 30
0.0
  0
POINT
  5
33D
330
3E3
100
AcDbEntity
  8
HATCH
  6
Continuous
 62
     7
370
    30
100
AcDbPoint
 10
29.501625
 20
5.245802
 30
0.0
  0
POINT
  5
33E
330
3E3
100
AcDbEntity
  8
HATCH
  6
Continuous
 62
     7
370
    30
100
AcDbPoint
 10
29.542219
 20
5.26924
 30
0.0
  0
POINT
  5
33F
330
3E3
100
AcDbEntity
  8
HATCH
  6
Continuous
 62
     7
370
    30
100
AcDbPoint
 10
29.582812
 20
5.292677
 30
0.0
  0
POINT
  5
340
330
3E3
100
AcDbEntity
  8
HATCH
  6
Continuous
 62
     7
370
    30
100
AcDbPoint
 10
29.623406
 20
5.316115
 30
0.0
  0
POINT
  5
341
330
3E3
100
AcDbEntity
  8
HATCH
  6
Continuous
 62
     7
370
    30
100
AcDbPoint
 10
29.664
 20
5.339552
 30
0.0
  0
POINT
  5
342
330
3E3
100
AcDbEntity
  8
HATCH
  6
Continuous
 62
     7
370
    30
100
AcDbPoint
 10
29.50476
 20
5.19349
 30
0.0
  0
POINT
  5
343
330
3E3
100
AcDbEntity
  8
HATCH
  6
Continuous
 62
     7
370
    30
100
AcDbPoint
 10
29.545354
 20
5.216927
 30
0.0
  0
POINT
  5
344
330
3E3
100
AcDbEntity
  8
HATCH
  6
Continuous
 62
     7
370
    30
100
AcDbPoint
 10
29.585948
 20
5.240365
 30
0.0
  0
POINT
  5
345
330
3E3
100
AcDbEntity
  8
HATCH
  6
Continuous
 62
     7
370
    30
100
AcDbPoint
 10
29.626542
 20
5.263802
 30
0.0
  0
POINT
  5
346
330
3E3
100
AcDbEntity
  8
HATCH
  6
Continuous
 62
     7
370
    30
100
AcDbPoint
 10
29.589094
 20
5.188052
 30
0.0
  0
POINT
  5
347
330
3E3
100
AcDbEntity
  8
HATCH
  6
Continuous
 62
     7
370
    30
100
AcDbPoint
 10
29.629687
 20
5.21149
 30
0.0
  0
LINE
  5
349
330
3E3
100
AcDbEntity
  8
DIM
  6
Continuous
 62
     7
370
    13
100
AcDbLine
 10
27.456552
 20
7.686906
 30
0.0
 11
28.005552
 21
7.686906
 31
0.0
  0
LINE
  5
34A
330
3E3
100
AcDbEntity
  8
DIM
  6
Continuous
 62
     7
370
    13
100
AcDbLine
 10
27.5375
 20
7.386906
 30
0.0
 11
28.005552
 21
7.386906
 31
0.0
  0
LINE
  5
34B
330
3E3
100
AcDbEntity
  8
DIM
  6
Continuous
 62
     7
370
    13
100
AcDbLine
 10
27.825552
 20
7.678896
 30
0.0
 11
27.825552
 21
8.046906
 31
0.0
  0
LINE
  5
34C
330
3E3
100
AcDbEntity
  8
DIM
  6
Continuous
 62
     7
370
    13
100
AcDbLine
 10
27.825552
 20
7.379417
 30
0.0
 11
27.825552
 21
7.026906
 31
0.0
  0
LINE
  5
34D
330
3E3
100
AcDbEntity
  8
DIM
  6
Continuous
 62
     7
370
    13
100
AcDbLine
 10
27.825552
 20
7.026906
 30
0.0
 11
27.645552
 21
7.026906
 31
0.0
  0
LINE
  5
34E
330
3E3
100
AcDbEntity
  8
LEGEND
  6
Continuous
 62
     7
370
    30
100
AcDbLine
 10
27.394052
 20
7.686906
 30
0.0
 11
27.394052
 21
7.686906
 31
0.0
  0
LINE
  5
34F
330
3E3
100
AcDbEntity
  8
LEGEND
  6
Continuous
 62
     7
370
    30
100
AcDbLine
 10
27.475
 20
7.386906
 30
0.0
 11
27.475
 21
7.386906
 31
0.0
  0
LINE
  5
350
330
3E3
100
AcDbEntity
  8
LEGEND
  6
Continuous
 62
     7
370
    30
100
AcDbLine
 10
27.825552
 20
7.386906
 30
0.0
 11
27.825552
 21
7.386906
 31
0.0
  0
LINE
  5
351
330
3E3
100
AcDbEntity
  8
TEXT
  6
Continuous
 62
     7
370
    13
100
AcDbLine
 10
25.142
 20
7.660208
 30
0.0
 11
24.86176
 21
8.484333
 31
0.0
  0
LINE
  5
352
330
3E3
100
AcDbEntity
  8
TEXT
  6
Continuous
 62
     7
370
    13
100
AcDbLine
 10
24.86176
 20
8.484333
 30
0.0
 11
25.03651
 21
8.484333
 31
0.0
  0
LINE
  5
354
330
3E3
100
AcDbEntity
  8
TEXT
  6
Continuous
 62
     7
370
    13
100
AcDbLine
 10
25.883833
 20
5.668365
 30
0.0
 11
25.308604
 21
5.668365
 31
0.0
  0
LINE
  5
355
330
3E3
100
AcDbEntity
  8
TEXT
  6
Continuous
 62
     7
370
    13
100
AcDbLine
 10
26.295188
 20
5.600198
 30
0.0
 11
25.917208
 21
5.386021
 31
0.0
  0
LINE
  5
356
330
3E3
100
AcDbEntity
  8
TEXT
  6
Continuous
 62
     7
370
    13
100
AcDbLine
 10
25.917208
 20
5.386021
 30
0.0
 11
25.737208
 21
5.386021
 31
0.0
  0
LINE
  5
357
330
3E3
100
AcDbEntity
  8
TEXT
  6
Continuous
 62
     7
370
    13
100
AcDbLine
 10
26.370156
 20
5.510854
 30
0.0
 11
25.931583
 21
4.90025
 31
0.0
  0
LINE
  5
358
330
3E3
100
AcDbEntity
  8
TEXT
  6
Continuous
 62
     7
370
    13
100
AcDbLine
 10
25.931583
 20
4.90025
 30
0.0
 11
25.751583
 21
4.90025
 31
0.0
  0
LINE
  5
359
330
3E3
100
AcDbEntity
  8
TEXT
  6
Continuous
 62
     7
370
    13
100
AcDbLine
 10
26.149906
 20
6.389458
 30
0.0
 11
26.12024
 21
6.864177
 31
0.0
  0
LINE
  5
35A
330
3E3
100
AcDbEntity
  8
TEXT
  6
Continuous
 62
     7
370
    13
100
AcDbLine
 10
26.12024
 20
6.864177
 30
0.0
 11
25.94024
 21
6.864177
 31
0.0
  0
LINE
  5
35B
330
3E3
100
AcDbEntity
  8
TEXT
  6
Continuous
 62
     7
370
    13
100
AcDbLine
 10
26.654385
 20
5.720615
 30
0.0
 11
26.818312
 21
6.635219
 31
0.0
  0
LINE
  5
35C
330
3E3
100
AcDbEntity
  8
TEXT
  6
Continuous
 62
     7
370
    13
100
AcDbLine
 10
26.818312
 20
6.635219
 30
0.0
 11
26.94675
 21
6.635219
 31
0.0
  0
LINE
  5
35D
330
3E3
100
AcDbEntity
  8
TEXT
  6
Continuous
 62
     7
370
    13
100
AcDbLine
 10
28.275469
 20
5.791396
 30
0.0
 11
27.80099
 21
5.967812
 31
0.0
  0
LINE
  5
35E
330
3E3
100
AcDbEntity
  8
TEXT
  6
Continuous
 62
     7
370
    13
100
AcDbLine
 10
28.689292
 20
5.661906
 30
0.0
 11
29.356125
 21
5.661906
 31
0.0
  0
LINE
  5
35F
330
3E3
100
AcDbEntity
  8
BORDER
  6
Continuous
 62
     7
370
    30
100
AcDbLine
 10
31.25
 20
11.081542
 30
0.0
 11
31.25
 21
10.875
 31
0.0
  0
LINE
  5
360
330
3E3
100
AcDbEntity
  8
BORDER
  6
Continuous
 62
     7
370
    30
100
AcDbLine
 10
23.25
 20
11.081542
 30
0.0
 11
23.25
 21
10.875
 31
0.0
  0
LINE
  5
361
330
3E3
100
AcDbEntity
  8
BORDER
  6
Continuous
 62
     7
370
    30
100
AcDbLine
 10
31.456542
 20
10.875
 30
0.0
 11
31.25
 21
10.875
 31
0.0
  0
LINE
  5
362
330
3E3
100
AcDbEntity
  8
BORDER
  6
Continuous
 62
     7
370
    30
100
AcDbLine
 10
31.456542
 20
0.125
 30
0.0
 11
31.25
 21
0.125
 31
0.0
  0
LINE
  5
363
330
3E3
100
AcDbEntity
  8
BORDER
  6
Continuous
 62
     7
370
    30
100
AcDbLine
 10
23.25
 20
10.875
 30
0.0
 11
23.043458
 21
10.875
 31
0.0
  0
LINE
  5
364
330
3E3
100
AcDbEntity
  8
BORDER
  6
Continuous
 62
     7
370
    30
100
AcDbLine
 10
31.25
 20
0.125
 30
0.0
 11
31.25
 21
-0.081542
 31
0.0
  0
LINE
  5
365
330
3E3
100
AcDbEntity
  8
BORDER
  6
Continuous
 62
     7
370
    30
100
AcDbLine
 10
23.25
 20
0.125
 30
0.0
 11
23.25
 21
-0.081542
 31
0.0
  0
LINE
  5
366
330
3E3
100
AcDbEntity
  8
BORDER
  6
Continuous
 62
     7
370
    30
100
AcDbLine
 10
23.25
 20
0.125
 30
0.0
 11
23.043458
 21
0.125
 31
0.0
  0
LINE
  5
368
330
3E3
100
AcDbEntity
  8
DIM
  6
Continuous
 62
     7
370
    30
100
AcDbLine
 10
26.686729
 20
9.187406
 30
0.0
 11
27.769876
 21
9.187406
 31
0.0
  0
INSERT
  5
369
330
3E3
100
AcDbEntity
  8
DIM
  6
Continuous
 62
     7
370
    13
100
AcDbBlockReference
  2
LARROW
 10
25.142
 20
7.660208
 30
0.0
 41
11.999999
 42
11.999999
 43
11.999999
 50
288.780345
  0
INSERT
  5
36B
330
3E3
100
AcDbEntity
  8
DIM
  6
Continuous
 62
     7
370
    13
100
AcDbBlockReference
  2
LARROW
 10
27.825552
 20
7.678896
 30
0.0
 41
12.0
 42
12.0
 43
12.0
 50
270.0
  0
INSERT
  5
36D
330
3E3
100
AcDbEntity
  8
DIM
  6
Continuous
 62
     7
370
    13
100
AcDbBlockReference
  2
LARROW
 10
27.825552
 20
7.379417
 30
0.0
 41
12.0
 42
12.0
 43
12.0
 50
90.0
  0
INSERT
  5
36F
330
3E3
100
AcDbEntity
  8
DIM
  6
Continuous
 62
     7
370
    13
100
AcDbBlockReference
  2
LARROW
 10
26.149906
 20
6.389458
 30
0.0
 41
12.000002
 42
12.000002
 43
12.000002
 50
273.575947
  0
INSERT
  5
371
330
3E3
100
AcDbEntity
  8
DIM
  6
Continuous
 62
     7
370
    13
100
AcDbBlockReference
  2
LARROW
 10
26.654385
 20
5.720615
 30
0.0
 41
11.999998
 42
11.999998
 43
11.999998
 50
259.838607
  0
INSERT
  5
373
330
3E3
100
AcDbEntity
  8
DIM
  6
Continuous
 62
     7
370
    13
100
AcDbBlockReference
  2
LARROW
 10
25.883833
 20
5.668365
 30
0.0
 41
12.0
 42
12.0
 43
12.0
  0
INSERT
  5
375
330
3E3
100
AcDbEntity
  8
DIM
  6
Continuous
 62
     7
370
    13
100
AcDbBlockReference
  2
LARROW
 10
26.295188
 20
5.600198
 30
0.0
 41
12.000003
 42
12.000003
 43
12.000003
 50
29.537509
  0
INSERT
  5
377
330
3E3
100
AcDbEntity
  8
DIM
  6
Continuous
 62
     7
370
    13
100
AcDbBlockReference
  2
LARROW
 10
26.370156
 20
5.510854
 30
0.0
 41
11.999999
 42
11.999999
 43
11.999999
 50
54.311789
  0
INSERT
  5
379
330
3E3
100
AcDbEntity
  8
DIM
  6
Continuous
 62
     7
370
    13
100
AcDbBlockReference
  2
LARROW
 10
28.275469
 20
5.791396
 30
0.0
 41
12.000001
 42
12.000001
 43
12.000001
 50
339.604314
  0
INSERT
  5
37B
330
3E3
100
AcDbEntity
  8
DIM
  6
Continuous
 62
     7
370
    13
100
AcDbBlockReference
  2
LARROW
 10
28.689292
 20
5.661906
 30
0.0
 41
12.0
 42
12.0
 43
12.0
 50
180.0
  0
TEXT
  5
61
330
3E3
100
AcDbEntity
  8
BORDER
  6
Continuous
 62
     7
370
    30
100
AcDbText
 10
30.062765
 20
1.2658
 30
0.0
 40
0.140396
  1
FIGURE
 41
0.925953
  7
Style-Arial
 72
     1
 11
30.401043
 21
1.2658
 31
0.0
100
AcDbText
  0
TEXT
  5
62
330
3E3
100
AcDbEntity
  8
BORDER
  6
Continuous
 62
     7
370
    30
100
AcDbText
 10
30.199096
 20
1.076451
 30
0.0
 40
0.140396
  1
2-33e
 41
0.925953
  7
Style-Arial
 72
     1
 11
30.427488
 21
1.076451
 31
0.0
100
AcDbText
  0
TEXT
  5
63
330
3E3
100
AcDbEntity
  8
BORDER
  6
Continuous
 62
     7
370
    30
100
AcDbText
 10
28.971806
 20
1.256727
 30
0.0
 40
0.140396
  1
DATE
 41
0.925953
  7
Style-Arial
 72
     1
 11
29.209214
 21
1.256727
 31
0.0
100
AcDbText
  0
TEXT
  5
64
330
3E3
100
AcDbEntity
  8
BORDER
  6
Continuous
 62
     7
370
    30
100
AcDbText
 10
28.797031
 20
1.071914
 30
0.0
 40
0.140396
  1
AUG 1992
 41
0.925953
  7
Style-Arial
 72
     1
 11
29.216212
 21
1.071914
 31
0.0
100
AcDbText
  0
TEXT
  5
6F
330
3E3
100
AcDbEntity
  8
NOTES
  6
Continuous
 62
     7
370
    30
100
AcDbText
 10
25.013935
 20
2.143865
 30
0.0
 40
0.140396
  1
ACI 503R-80, "USE OF EPOXY COMPOUNDS
 41
0.925953
  7
Style-Arial
 72
     1
 11
26.918802
 21
2.143865
 31
0.0
100
AcDbText
  0
TEXT
  5
70
330
3E3
100
AcDbEntity
  8
NOTES
  6
Continuous
 62
     7
370
    30
100
AcDbText
 10
25.011847
 20
1.957094
 30
0.0
 40
0.140396
  1
WITH CONCRETE" FOR GUIDANCE ON
 41
0.925953
  7
Style-Arial
 72
     1
 11
26.686637
 21
1.957094
 31
0.0
100
AcDbText
  0
TEXT
  5
71
330
3E3
100
AcDbEntity
  8
NOTES
  6
Continuous
 62
     7
370
    30
100
AcDbText
 10
25.000234
 20
1.77024
 30
0.0
 40
0.140396
  1
BONDING UNHARDENED CONCRETE TO
 41
0.925953
  7
Style-Arial
 72
     1
 11
26.772475
 21
1.77024
 31
0.0
100
AcDbText
  0
TEXT
  5
72
330
3E3
100
AcDbEntity
  8
NOTES
  6
Continuous
 62
     7
370
    30
100
AcDbText
 10
24.999071
 20
1.583385
 30
0.0
 40
0.140396
  1
HARDENED CONCRETE.
 41
0.925953
  7
Style-Arial
 72
     1
 11
26.061019
 21
1.583385
 31
0.0
100
AcDbText
  0
TEXT
  5
73
330
3E3
100
AcDbEntity
  8
NOTES
  6
Continuous
 62
     7
370
    30
100
AcDbText
 10
25.009404
 20
3.12674
 30
0.0
 40
0.140396
  1
TM 5-825-3/AFM 88-6, CHAPTER 3,
 41
0.925953
  7
Style-Arial
 72
     1
 11
26.479781
 21
3.12674
 31
0.0
100
AcDbText
  0
TEXT
  5
74
330
3E3
100
AcDbEntity
  8
NOTES
  6
Continuous
 62
     7
370
    30
100
AcDbText
 10
24.999454
 20
2.903042
 30
0.0
 40
0.140396
  1
RIGID PAVEMENTS FOR AIRFIELDS
 41
0.925953
  7
Style-Arial
 72
     1
 11
26.543997
 21
2.903042
 31
0.0
100
AcDbText
  0
TEXT
  5
75
330
3E3
100
AcDbEntity
  8
NOTES
  6
Continuous
 62
     7
370
    30
100
AcDbText
 10
24.99973
 20
2.707115
 30
0.0
 40
0.140396
  1
DATED AUGUST 1988 FOR DOWEL
 41
0.925953
  7
Style-Arial
 72
     1
 11
26.510435
 21
2.707115
 31
0.0
100
AcDbText
  0
TEXT
  5
76
330
3E3
100
AcDbEntity
  8
NOTES
  6
Continuous
 62
     7
370
    30
100
AcDbText
 10
25.013759
 20
2.509802
 30
0.0
 40
0.140396
  1
AND TIE BAR SIZE AND SPACING
 41
0.925953
  7
Style-Arial
 72
     1
 11
26.456492
 21
2.509802
 31
0.0
100
AcDbText
  0
TEXT
  5
77
330
3E3
100
AcDbEntity
  8
NOTES
  6
Continuous
 62
     7
370
    30
100
AcDbText
 10
24.999468
 20
3.829448
 30
0.0
 40
0.140396
  1
REPAIR OF RIGID PAVEMENTS USING
 41
0.925953
  7
Style-Arial
 72
     1
 11
26.659148
 21
3.829448
 31
0.0
100
AcDbText
  0
TEXT
  5
78
330
3E3
100
AcDbEntity
  8
NOTES
  6
Continuous
 62
     7
370
    30
100
AcDbText
 10
23.788219
 20
4.027417
 30
0.0
 40
0.140396
  1
REFERENCE: TM5-822-9/AFM 88-6, CHAPTER 10,
 41
0.925953
  7
Style-Arial
 72
     1
 11
25.894526
 21
4.027417
 31
0.0
100
AcDbText
  0
TEXT
  5
79
330
3E3
100
AcDbEntity
  8
NOTES
  6
Continuous
 62
     7
370
    30
100
AcDbText
 10
24.999384
 20
3.642594
 30
0.0
 40
0.140396
  1
EPOXY RESIN GROUTS, MORTARS AND 
 41
0.925953
  7
Style-Arial
 72
     1
 11
26.745715
 21
3.642594
 31
0.0
100
AcDbText
  0
TEXT
  5
97
330
3E3
100
AcDbEntity
  8
TEXT
  6
Continuous
 62
     7
370
    30
100
AcDbText
 10
25.070907
 20
8.430042
 30
0.0
 40
0.140396
  1
VERTICAL SAWCUT 2" MIN. DEPTH,
 41
0.925953
  7
Style-Arial
 72
     1
 11
26.60891
 21
8.430042
 31
0.0
100
AcDbText
  0
TEXT
  5
98
330
3E3
100
AcDbEntity
  8
TEXT
  6
Continuous
 62
     7
370
    30
100
AcDbText
 10
25.067624
 20
8.238792
 30
0.0
 40
0.140396
  1
CHIP AND BREAKOUT CONCRETE
 41
0.925953
  7
Style-Arial
 72
     1
 11
26.556579
 21
8.238792
 31
0.0
100
AcDbText
  0
TEXT
  5
99
330
3E3
100
AcDbEntity
  8
DIM
  6
Continuous
 62
     7
370
    30
100
AcDbText
 10
26.988727
 20
6.967312
 30
0.0
 40
0.140396
  1
2' MIN
 41
0.925953
  7
Style-Arial
 72
     1
 11
27.240801
 21
6.967312
 31
0.0
100
AcDbText
  0
TEXT
  5
9D
330
3E3
100
AcDbEntity
  8
TEXT
  6
Continuous
 62
     7
370
    30
100
AcDbText
 10
24.00952
 20
6.810344
 30
0.0
 40
0.140396
  1
SEE JOINT SEALANT
 41
0.925953
  7
Style-Arial
 72
     1
 11
24.916201
 21
6.810344
 31
0.0
100
AcDbText
  0
TEXT
  5
9E
330
3E3
100
AcDbEntity
  8
TEXT
  6
Continuous
 62
     7
370
    30
100
AcDbText
 10
24.159063
 20
6.630844
 30
0.0
 40
0.140396
  1
FIGURE NO. 2-13
 41
0.925953
  7
Style-Arial
 72
     1
 11
24.89165
 21
6.630844
 31
0.0
100
AcDbText
  0
TEXT
  5
9F
330
3E3
100
AcDbEntity
  8
TEXT
  6
Continuous
 62
     7
370
    30
100
AcDbText
 10
27.01829
 20
6.573042
 30
0.0
 40
0.140396
  1
PAINT & OIL ONE
 41
0.925953
  7
Style-Arial
 72
     1
 11
27.760341
 21
6.573042
 31
0.0
100
AcDbText
  0
TEXT
  5
A0
330
3E3
100
AcDbEntity
  8
TEXT
  6
Continuous
 62
     7
370
    30
100
AcDbText
 10
27.022509
 20
6.386823
 30
0.0
 40
0.140396
  1
END OF DOWEL
 41
0.925953
  7
Style-Arial
 72
     1
 11
27.720665
 21
6.386823
 31
0.0
100
AcDbText
  0
TEXT
  5
A1
330
3E3
100
AcDbEntity
  8
TEXT
  6
Continuous
 62
     7
370
    30
100
AcDbText
 10
28.652363
 20
6.017771
 30
0.0
 40
0.140396
  1
OLD CONCRETE
 41
0.925953
  7
Style-Arial
 72
     1
 11
29.369147
 21
6.017771
 31
0.0
100
AcDbText
  0
TEXT
  5
A2
330
3E3
100
AcDbEntity
  8
TEXT
  6
Continuous
 62
     7
370
    30
100
AcDbText
 10
29.348222
 20
5.614583
 30
0.0
 40
0.140396
  1
TIE BAR
 41
0.925953
  7
Style-Arial
 72
     1
 11
29.700273
 21
5.614583
 31
0.0
100
AcDbText
  0
TEXT
  5
A3
330
3E3
100
AcDbEntity
  8
TEXT
  6
Continuous
 62
     7
370
    30
100
AcDbText
 10
27.050229
 20
5.90774
 30
0.0
 40
0.140396
  1
EPOXY
 41
0.925953
  7
Style-Arial
 72
     1
 11
27.362547
 21
5.90774
 31
0.0
100
AcDbText
  0
TEXT
  5
A4
330
3E3
100
AcDbEntity
  8
TEXT
  6
Continuous
 62
     7
370
    30
100
AcDbText
 10
27.080488
 20
5.745979
 30
0.0
 40
0.140396
  1
RESIN
 41
0.925953
  7
Style-Arial
 72
     1
 11
27.350644
 21
5.745979
 31
0.0
100
AcDbText
  0
TEXT
  5
A5
330
3E3
100
AcDbEntity
  8
TEXT
  6
Continuous
 62
     7
370
    30
100
AcDbText
 10
26.994496
 20
5.296677
 30
0.0
 40
0.140396
  1
NEW CONCRETE
 41
0.925953
  7
Style-Arial
 72
     1
 11
27.736448
 21
5.296677
 31
0.0
100
AcDbText
  0
TEXT
  5
A6
330
3E3
100
AcDbEntity
  8
TEXT
  6
Continuous
 62
     7
370
    30
100
AcDbText
 10
24.583865
 20
5.613177
 30
0.0
 40
0.140396
  1
DOWEL
 41
0.925953
  7
Style-Arial
 72
     1
 11
24.913671
 21
5.613177
 31
0.0
100
AcDbText
  0
TEXT
  5
A7
330
3E3
100
AcDbEntity
  8
TEXT
  6
Continuous
 62
     7
370
    30
100
AcDbText
 10
24.588808
 20
5.896344
 30
0.0
 40
0.140396
  1
CONCRETE SLAB
 41
0.925953
  7
Style-Arial
 72
     1
 11
25.351121
 21
5.896344
 31
0.0
100
AcDbText
  0
TEXT
  5
A8
330
3E3
100
AcDbEntity
  8
TEXT
  6
Continuous
 62
     7
370
    30
100
AcDbText
 10
24.885383
 20
6.061073
 30
0.0
 40
0.140396
  1
ADJACENT
 41
0.925953
  7
Style-Arial
 72
     1
 11
25.363024
 21
6.061073
 31
0.0
100
AcDbText
  0
TEXT
  5
A9
330
3E3
100
AcDbEntity
  8
TEXT
  6
Continuous
 62
     7
370
    30
100
AcDbText
 10
24.334094
 20
5.348635
 30
0.0
 40
0.140396
  1
DRILL & EPOXY
 41
0.925953
  7
Style-Arial
 72
     1
 11
25.014811
 21
5.348635
 31
0.0
100
AcDbText
  0
TEXT
  5
AA
330
3E3
100
AcDbEntity
  8
TEXT
  6
Continuous
 62
     7
370
    30
100
AcDbText
 10
23.672452
 20
4.839781
 30
0.0
 40
0.140396
  1
SAWCUT AND REMOVE
 41
0.925953
  7
Style-Arial
 72
     1
 11
24.697044
 21
4.839781
 31
0.0
100
AcDbText
  0
TEXT
  5
348
330
3E3
100
AcDbEntity
  8
TITLE
  6
Continuous
 62
     7
370
    30
100
AcDbText
 10
23.92264
 20
1.165448
 30
0.0
 40
0.140396
  1
REPAIR OF CONCRETE PAVEMENTS (FAILED KEY)
 41
0.925953
  7
Style-Arial
 72
     1
 11
26.139923
 21
1.165448
 31
0.0
100
AcDbText
  0
TEXT
  5
353
330
3E3
100
AcDbEntity
  8
TEXT
  6
Continuous
 62
     7
370
    30
100
AcDbText
 10
24.319892
 20
4.65849
 30
0.0
 40
0.140396
  1
OLD KEY
 41
0.925953
  7
Style-Arial
 72
     1
 11
24.712914
 21
4.65849
 31
0.0
100
AcDbText
  0
TEXT
  5
37D
330
3E3
100
AcDbEntity
  8
NOTES
  6
Continuous
 62
     7
370
    30
100
AcDbText
 10
25.004447
 20
3.456812
 30
0.0
 40
0.140396
  1
CONCRETES
 41
0.925953
  7
Style-Arial
 72
     1
 11
25.569977
 21
3.456812
 31
0.0
100
AcDbText
  0
TEXT
  5
3CC
330
3E3
100
AcDbEntity
  8
TEXT
  6
Continuous
 62
     7
370
    30
100
AcDbText
 10
26.705543
 20
9.246698
 30
0.0
 40
0.140396
  1
FAILED KEY
 41
0.925953
  7
Style-Arial
 72
     1
 11
27.229804
 21
9.246698
 31
0.0
100
AcDbText
  0
LINE
  5
3CD
330
3E3
100
AcDbEntity
  8
_0
  6
Continuous
 62
     7
370
    30
100
AcDbLine
 10
28.275
 20
5.495658
 30
0.0
 11
28.275
 21
6.286906
 31
0.0
  0
ENDSEC
  0
SECTION
  2
OBJECTS
  0
DICTIONARY
  5
3D7
330
0
100
AcDbDictionary
281
     1
  3
ACAD_COLOR
350
3F6
  3
ACAD_GROUP
350
3F3
  3
ACAD_LAYOUT
350
3E7
  3
ACAD_MATERIAL
350
3F5
  3
ACAD_MLINESTYLE
350
3E1
  3
ACAD_PLOTSETTINGS
350
3F4
  3
ACAD_PLOTSTYLENAME
350
3D6
  3
ACAD_TABLESTYLE
350
40E
  3
AcadDim
350
403
  3
MicroStation
350
3FB
  0
DICTIONARY
  5
3D3
330
3D2
100
AcDbDictionary
280
     1
281
     1
  3
ACAD_LAYERFILTERS
360
3FA
  3
ACAD_LAYERSTATES
360
3D4
  0
DICTIONARY
  5
40A
330
3E3
100
AcDbDictionary
280
     1
281
     1
  3
ACAD_SORTENTS
360
40B
  0
DICTIONARY
  5
3F6
102
{ACAD_REACTORS
330
3D7
102
}
330
3D7
100
AcDbDictionary
281
     1
  0
DICTIONARY
  5
3F3
102
{ACAD_REACTORS
330
3D7
102
}
330
3D7
100
AcDbDictionary
281
     1
  0
DICTIONARY
  5
3E7
102
{ACAD_REACTORS
330
3D7
102
}
330
3D7
100
AcDbDictionary
281
     1
  3
Layout1
350
3EB
  3
Model
350
3E6
  0
DICTIONARY
  5
3F5
102
{ACAD_REACTORS
330
3D7
102
}
330
3D7
100
AcDbDictionary
281
     1
  0
DICTIONARY
  5
3E1
102
{ACAD_REACTORS
330
3D7
102
}
330
3D7
100
AcDbDictionary
281
     1
  3
Standard
350
3E0
  0
DICTIONARY
  5
3F4
102
{ACAD_REACTORS
330
3D7
102
}
330
3D7
100
AcDbDictionary
281
     1
  0
ACDBDICTIONARYWDFLT
  5
3D6
102
{ACAD_REACTORS
330
3D7
102
}
330
3D7
100
AcDbDictionary
281
     1
  3
Normal
350
3D5
100
AcDbDictionaryWithDefault
340
3D5
  0
DICTIONARY
  5
40E
102
{ACAD_REACTORS
330
3D7
102
}
330
3D7
100
AcDbDictionary
281
     1
  0
XRECORD
  5
403
102
{ACAD_REACTORS
330
3D7
102
}
330
3D7
100
AcDbXrecord
280
     1
 90
   990106
  3
 
 60
     0
 61
     0
 62
     1
 63
     1
 64
     0
 65
     0
 66
     0
 67
     3
 68
     1
 69
     1
 70
     0
 71
     0
 72
     0
 40
0.0
170
     0
  0
DICTIONARY
  5
3FB
102
{ACAD_REACTORS
330
3D7
102
}
330
3D7
100
AcDbDictionary
281
     1
  3
ApplicationElement 968
350
3C8
  3
ApplicationElement 975
350
3CF
  3
ModelApplicationElement 0 967
350
3C7
  0
DICTIONARY
  5
3FA
102
{ACAD_REACTORS
330
3D3
102
}
330
3D3
100
AcDbDictionary
281
     1
  0
DICTIONARY
  5
3D4
102
{ACAD_REACTORS
330
3D3
102
}
330
3D3
100
AcDbDictionary
281
     1
  0
SORTENTSTABLE
  5
40B
102
{ACAD_REACTORS
330
40A
102
}
330
40A
100
AcDbSortentsTable
330
3E3
331
61
  5
350
331
62
  5
351
331
63
  5
352
331
64
  5
353
331
65
  5
61
331
66
  5
62
331
67
  5
63
331
68
  5
64
331
69
  5
65
331
6A
  5
66
331
6B
  5
67
331
6C
  5
68
331
6D
  5
69
331
6E
  5
6A
331
6F
  5
354
331
70
  5
355
331
71
  5
356
331
72
  5
357
331
73
  5
358
331
74
  5
359
331
75
  5
35A
331
76
  5
35B
331
77
  5
35C
331
78
  5
35D
331
79
  5
35E
331
7A
  5
6B
331
7B
  5
6C
331
7C
  5
6D
331
7D
  5
6E
331
7E
  5
6F
331
7F
  5
70
331
80
  5
71
331
81
  5
72
331
82
  5
73
331
83
  5
74
331
84
  5
75
331
85
  5
76
331
86
  5
77
331
87
  5
78
331
88
  5
79
331
89
  5
7A
331
8A
  5
7B
331
8B
  5
7C
331
8C
  5
7D
331
8D
  5
7E
331
8E
  5
7F
331
8F
  5
80
331
90
  5
81
331
91
  5
82
331
92
  5
83
331
93
  5
84
331
94
  5
85
331
95
  5
86
331
97
  5
35F
331
98
  5
360
331
99
  5
361
331
9A
  5
87
331
9D
  5
362
331
9E
  5
363
331
9F
  5
364
331
A0
  5
365
331
A1
  5
366
331
A2
  5
368
331
A3
  5
369
331
A4
  5
36B
331
A5
  5
36D
331
A6
  5
36F
331
A7
  5
371
331
A8
  5
373
331
A9
  5
375
331
AA
  5
377
331
AB
  5
88
331
AC
  5
89
331
AD
  5
8A
331
AE
  5
8B
331
AF
  5
8C
331
B0
  5
8D
331
B1
  5
8E
331
B2
  5
8F
331
B3
  5
90
331
B4
  5
91
331
B5
  5
92
331
B6
  5
93
331
B7
  5
94
331
B8
  5
95
331
B9
  5
97
331
BA
  5
98
331
BB
  5
99
331
BC
  5
9A
331
BD
  5
9D
331
BE
  5
9E
331
BF
  5
9F
331
C0
  5
A0
331
C1
  5
A1
331
C2
  5
A2
331
C3
  5
A3
331
C4
  5
A4
331
C5
  5
A5
331
C6
  5
A6
331
C7
  5
A7
331
C8
  5
A8
331
C9
  5
A9
331
CA
  5
AA
331
CB
  5
AB
331
CC
  5
AC
331
CD
  5
AD
331
CE
  5
AE
331
CF
  5
AF
331
D0
  5
B0
331
D1
  5
B1
331
D2
  5
B2
331
D3
  5
B3
331
D4
  5
B4
331
D5
  5
B5
331
D6
  5
B6
331
D7
  5
B7
331
D8
  5
B8
331
D9
  5
B9
331
DA
  5
BA
331
DB
  5
BB
331
DC
  5
BC
331
DD
  5
BD
331
DE
  5
BE
331
DF
  5
BF
331
E0
  5
C0
331
E1
  5
C1
331
E2
  5
C2
331
E3
  5
C3
331
E4
  5
C4
331
E5
  5
C5
331
E6
  5
C6
331
E7
  5
C7
331
E8
  5
C8
331
E9
  5
C9
331
EA
  5
CA
331
EB
  5
CB
331
EC
  5
CC
331
ED
  5
CD
331
EE
  5
CE
331
EF
  5
CF
331
F0
  5
D0
331
F1
  5
D1
331
F2
  5
D2
331
F3
  5
D3
331
F4
  5
D4
331
F5
  5
D5
331
F6
  5
D6
331
F7
  5
D7
331
F8
  5
D8
331
F9
  5
D9
331
FA
  5
DA
331
FB
  5
DB
331
FC
  5
DC
331
FD
  5
DD
331
FE
  5
DE
331
FF
  5
DF
331
100
  5
E0
331
101
  5
E1
331
102
  5
E2
331
103
  5
E3
331
104
  5
E4
331
105
  5
E5
331
106
  5
E6
331
107
  5
E7
331
108
  5
E8
331
109
  5
E9
331
10A
  5
EA
331
10B
  5
EB
331
10C
  5
EC
331
10D
  5
ED
331
10E
  5
EE
331
10F
  5
EF
331
110
  5
F0
331
111
  5
F1
331
112
  5
F2
331
113
  5
F3
331
114
  5
F4
331
115
  5
F5
331
116
  5
F6
331
117
  5
F7
331
118
  5
F8
331
119
  5
F9
331
11A
  5
FA
331
11B
  5
FB
331
11C
  5
FC
331
11D
  5
FD
331
11E
  5
FE
331
11F
  5
FF
331
120
  5
100
331
121
  5
101
331
122
  5
102
331
123
  5
103
331
124
  5
104
331
125
  5
105
331
126
  5
106
331
127
  5
107
331
128
  5
108
331
129
  5
109
331
12A
  5
10A
331
12B
  5
10B
331
12C
  5
10C
331
12D
  5
10D
331
12E
  5
10E
331
12F
  5
10F
331
130
  5
110
331
131
  5
111
331
132
  5
112
331
133
  5
113
331
134
  5
114
331
135
  5
115
331
136
  5
116
331
137
  5
117
331
138
  5
118
331
139
  5
119
331
13A
  5
11A
331
13B
  5
11B
331
13C
  5
11C
331
13D
  5
11D
331
13E
  5
11E
331
13F
  5
11F
331
140
  5
120
331
141
  5
121
331
142
  5
122
331
143
  5
123
331
144
  5
124
331
145
  5
125
331
146
  5
126
331
147
  5
127
331
148
  5
128
331
149
  5
129
331
14A
  5
12A
331
14B
  5
12B
331
14C
  5
12C
331
14D
  5
12D
331
14E
  5
12E
331
14F
  5
12F
331
150
  5
130
331
151
  5
131
331
152
  5
132
331
153
  5
133
331
154
  5
134
331
155
  5
135
331
156
  5
136
331
157
  5
137
331
158
  5
138
331
159
  5
139
331
15A
  5
13A
331
15B
  5
13B
331
15C
  5
13C
331
15D
  5
13D
331
15E
  5
13E
331
15F
  5
13F
331
160
  5
140
331
161
  5
141
331
162
  5
142
331
163
  5
143
331
164
  5
144
331
165
  5
145
331
166
  5
146
331
167
  5
147
331
168
  5
148
331
169
  5
149
331
16A
  5
14A
331
16B
  5
14B
331
16C
  5
14C
331
16D
  5
14D
331
16E
  5
14E
331
16F
  5
14F
331
170
  5
150
331
171
  5
151
331
172
  5
152
331
173
  5
153
331
174
  5
154
331
175
  5
155
331
176
  5
156
331
177
  5
157
331
178
  5
158
331
179
  5
159
331
17A
  5
15A
331
17B
  5
15B
331
17C
  5
15C
331
17D
  5
15D
331
17E
  5
15E
331
17F
  5
15F
331
180
  5
160
331
181
  5
161
331
182
  5
162
331
183
  5
163
331
184
  5
164
331
185
  5
165
331
186
  5
166
331
187
  5
167
331
188
  5
168
331
189
  5
169
331
18A
  5
16A
331
18B
  5
16B
331
18C
  5
16C
331
18D
  5
16D
331
18E
  5
16E
331
18F
  5
16F
331
190
  5
170
331
191
  5
171
331
192
  5
172
331
193
  5
173
331
194
  5
174
331
195
  5
175
331
196
  5
176
331
197
  5
177
331
198
  5
178
331
199
  5
179
331
19A
  5
17A
331
19B
  5
17B
331
19C
  5
17C
331
19D
  5
17D
331
19E
  5
17E
331
19F
  5
17F
331
1A0
  5
180
331
1A1
  5
181
331
1A2
  5
182
331
1A3
  5
183
331
1A4
  5
184
331
1A5
  5
185
331
1A6
  5
186
331
1A7
  5
187
331
1A8
  5
188
331
1A9
  5
189
331
1AA
  5
18A
331
1AB
  5
18B
331
1AC
  5
18C
331
1AD
  5
18D
331
1AE
  5
18E
331
1AF
  5
18F
331
1B0
  5
190
331
1B1
  5
191
331
1B2
  5
192
331
1B3
  5
193
331
1B4
  5
194
331
1B5
  5
195
331
1B6
  5
196
331
1B7
  5
197
331
1B8
  5
198
331
1B9
  5
199
331
1BA
  5
19A
331
1BB
  5
19B
331
1BC
  5
19C
331
1BD
  5
19D
331
1BE
  5
19E
331
1BF
  5
19F
331
1C0
  5
1A0
331
1C1
  5
1A1
331
1C2
  5
1A2
331
1C3
  5
1A3
331
1C4
  5
1A4
331
1C5
  5
1A5
331
1C6
  5
1A6
331
1C7
  5
1A7
331
1C8
  5
1A8
331
1C9
  5
1A9
331
1CA
  5
1AA
331
1CB
  5
1AB
331
1CC
  5
1AC
331
1CD
  5
1AD
331
1CE
  5
1AE
331
1CF
  5
1AF
331
1D0
  5
1B0
331
1D1
  5
1B1
331
1D2
  5
1B2
331
1D3
  5
1B3
331
1D4
  5
1B4
331
1D5
  5
1B5
331
1D6
  5
1B6
331
1D7
  5
1B7
331
1D8
  5
1B8
331
1D9
  5
1B9
331
1DA
  5
1BA
331
1DB
  5
1BB
331
1DC
  5
1BC
331
1DD
  5
1BD
331
1DE
  5
1BE
331
1DF
  5
1BF
331
1E0
  5
1C0
331
1E1
  5
1C1
331
1E2
  5
1C2
331
1E3
  5
1C3
331
1E4
  5
1C4
331
1E5
  5
1C5
331
1E6
  5
1C6
331
1E7
  5
1C7
331
1E8
  5
1C8
331
1E9
  5
1C9
331
1EA
  5
1CA
331
1EB
  5
1CB
331
1EC
  5
1CC
331
1ED
  5
1CD
331
1EE
  5
1CE
331
1EF
  5
1CF
331
1F0
  5
1D0
331
1F1
  5
1D1
331
1F2
  5
1D2
331
1F3
  5
1D3
331
1F4
  5
1D4
331
1F5
  5
1D5
331
1F6
  5
1D6
331
1F7
  5
1D7
331
1F8
  5
1D8
331
1F9
  5
1D9
331
1FA
  5
1DA
331
1FB
  5
1DB
331
1FC
  5
1DC
331
1FD
  5
1DD
331
1FE
  5
1DE
331
1FF
  5
1DF
331
200
  5
1E0
331
201
  5
1E1
331
202
  5
1E2
331
203
  5
1E3
331
204
  5
1E4
331
205
  5
1E5
331
206
  5
1E6
331
207
  5
1E7
331
208
  5
1E8
331
209
  5
1E9
331
20A
  5
1EA
331
20B
  5
1EB
331
20C
  5
1EC
331
20D
  5
1ED
331
20E
  5
1EE
331
20F
  5
1EF
331
210
  5
1F0
331
211
  5
1F1
331
212
  5
1F2
331
213
  5
1F3
331
214
  5
1F4
331
215
  5
1F5
331
216
  5
1F6
331
217
  5
1F7
331
218
  5
1F8
331
219
  5
1F9
331
21A
  5
1FA
331
21B
  5
1FB
331
21C
  5
1FC
331
21D
  5
1FD
331
21E
  5
1FE
331
21F
  5
1FF
331
220
  5
200
331
221
  5
201
331
222
  5
202
331
223
  5
203
331
224
  5
204
331
225
  5
205
331
226
  5
206
331
227
  5
207
331
228
  5
208
331
229
  5
209
331
22A
  5
20A
331
22B
  5
20B
331
22C
  5
20C
331
22D
  5
20D
331
22E
  5
20E
331
22F
  5
20F
331
230
  5
210
331
231
  5
211
331
232
  5
212
331
233
  5
213
331
234
  5
214
331
235
  5
215
331
236
  5
216
331
237
  5
217
331
238
  5
218
331
239
  5
219
331
23A
  5
21A
331
23B
  5
21B
331
23C
  5
21C
331
23D
  5
21D
331
23E
  5
21E
331
23F
  5
21F
331
240
  5
220
331
241
  5
221
331
242
  5
222
331
243
  5
223
331
244
  5
224
331
245
  5
225
331
246
  5
226
331
247
  5
227
331
248
  5
228
331
249
  5
229
331
24A
  5
22A
331
24B
  5
22B
331
24C
  5
22C
331
24D
  5
22D
331
24E
  5
22E
331
24F
  5
22F
331
250
  5
230
331
251
  5
231
331
252
  5
232
331
253
  5
233
331
254
  5
234
331
255
  5
235
331
256
  5
236
331
257
  5
237
331
258
  5
238
331
259
  5
239
331
25A
  5
23A
331
25B
  5
23B
331
25C
  5
23C
331
25D
  5
23D
331
25E
  5
23E
331
25F
  5
23F
331
260
  5
240
331
261
  5
241
331
262
  5
242
331
263
  5
243
331
264
  5
244
331
265
  5
245
331
266
  5
246
331
267
  5
247
331
268
  5
248
331
269
  5
249
331
26A
  5
24A
331
26B
  5
24B
331
26C
  5
24C
331
26D
  5
24D
331
26E
  5
24E
331
26F
  5
24F
331
270
  5
250
331
271
  5
251
331
272
  5
252
331
273
  5
253
331
274
  5
254
331
275
  5
255
331
276
  5
256
331
277
  5
257
331
278
  5
258
331
279
  5
259
331
27A
  5
25A
331
27B
  5
25B
331
27C
  5
25C
331
27D
  5
25D
331
27E
  5
25E
331
27F
  5
25F
331
280
  5
260
331
281
  5
261
331
282
  5
262
331
283
  5
263
331
284
  5
264
331
285
  5
265
331
286
  5
266
331
287
  5
267
331
288
  5
268
331
289
  5
269
331
28A
  5
26A
331
28B
  5
26B
331
28C
  5
26C
331
28D
  5
26D
331
28E
  5
26E
331
28F
  5
26F
331
290
  5
270
331
291
  5
271
331
292
  5
272
331
293
  5
273
331
294
  5
274
331
295
  5
275
331
296
  5
276
331
297
  5
277
331
298
  5
278
331
299
  5
279
331
29A
  5
27A
331
29B
  5
27B
331
29C
  5
27C
331
29D
  5
27D
331
29E
  5
27E
331
29F
  5
27F
331
2A0
  5
280
331
2A1
  5
281
331
2A2
  5
282
331
2A3
  5
283
331
2A4
  5
284
331
2A5
  5
285
331
2A6
  5
286
331
2A7
  5
287
331
2A8
  5
288
331
2A9
  5
289
331
2AA
  5
28A
331
2AB
  5
28B
331
2AC
  5
28C
331
2AD
  5
28D
331
2AE
  5
28E
331
2AF
  5
28F
331
2B0
  5
290
331
2B1
  5
291
331
2B2
  5
292
331
2B3
  5
293
331
2B4
  5
294
331
2B5
  5
295
331
2B6
  5
296
331
2B7
  5
297
331
2B8
  5
298
331
2B9
  5
299
331
2BA
  5
29A
331
2BB
  5
29B
331
2BC
  5
29C
331
2BD
  5
29D
331
2BE
  5
29E
331
2BF
  5
29F
331
2C0
  5
2A0
331
2C1
  5
2A1
331
2C2
  5
2A2
331
2C3
  5
2A3
331
2C4
  5
2A4
331
2C5
  5
2A5
331
2C6
  5
2A6
331
2C7
  5
2A7
331
2C8
  5
2A8
331
2C9
  5
2A9
331
2CA
  5
2AA
331
2CB
  5
2AB
331
2CC
  5
2AC
331
2CD
  5
2AD
331
2CE
  5
2AE
331
2CF
  5
2AF
331
2D0
  5
2B0
331
2D1
  5
2B1
331
2D2
  5
2B2
331
2D3
  5
2B3
331
2D4
  5
2B4
331
2D5
  5
2B5
331
2D6
  5
2B6
331
2D7
  5
2B7
331
2D8
  5
2B8
331
2D9
  5
2B9
331
2DA
  5
2BA
331
2DB
  5
2BB
331
2DC
  5
2BC
331
2DD
  5
2BD
331
2DE
  5
2BE
331
2DF
  5
2BF
331
2E0
  5
2C0
331
2E1
  5
2C1
331
2E2
  5
2C2
331
2E3
  5
2C3
331
2E4
  5
2C4
331
2E5
  5
2C5
331
2E6
  5
2C6
331
2E7
  5
2C7
331
2E8
  5
2C8
331
2E9
  5
2C9
331
2EA
  5
2CA
331
2EB
  5
2CB
331
2EC
  5
2CC
331
2ED
  5
2CD
331
2EE
  5
2CE
331
2EF
  5
2CF
331
2F0
  5
2D0
331
2F1
  5
2D1
331
2F2
  5
2D2
331
2F3
  5
2D3
331
2F4
  5
2D4
331
2F5
  5
2D5
331
2F6
  5
2D6
331
2F7
  5
2D7
331
2F8
  5
2D8
331
2F9
  5
2D9
331
2FA
  5
2DA
331
2FB
  5
2DB
331
2FC
  5
2DC
331
2FD
  5
2DD
331
2FE
  5
2DE
331
2FF
  5
2DF
331
300
  5
2E0
331
301
  5
2E1
331
302
  5
2E2
331
303
  5
2E3
331
304
  5
2E4
331
305
  5
2E5
331
306
  5
2E6
331
307
  5
2E7
331
308
  5
2E8
331
309
  5
2E9
331
30A
  5
2EA
331
30B
  5
2EB
331
30C
  5
2EC
331
30D
  5
2ED
331
30E
  5
2EE
331
30F
  5
2EF
331
310
  5
2F0
331
311
  5
2F1
331
312
  5
2F2
331
313
  5
2F3
331
314
  5
2F4
331
315
  5
2F5
331
316
  5
2F6
331
317
  5
2F7
331
318
  5
2F8
331
319
  5
2F9
331
31A
  5
2FA
331
31B
  5
2FB
331
31C
  5
2FC
331
31D
  5
2FD
331
31E
  5
2FE
331
31F
  5
2FF
331
320
  5
300
331
321
  5
301
331
322
  5
302
331
323
  5
303
331
324
  5
304
331
325
  5
305
331
326
  5
306
331
327
  5
307
331
328
  5
308
331
329
  5
309
331
32A
  5
30A
331
32B
  5
30B
331
32C
  5
30C
331
32D
  5
30D
331
32E
  5
30E
331
32F
  5
30F
331
330
  5
310
331
331
  5
311
331
332
  5
312
331
333
  5
313
331
334
  5
314
331
335
  5
315
331
336
  5
316
331
337
  5
317
331
338
  5
318
331
339
  5
319
331
33A
  5
31A
331
33B
  5
31B
331
33C
  5
31C
331
33D
  5
31D
331
33E
  5
31E
331
33F
  5
31F
331
340
  5
320
331
341
  5
321
331
342
  5
322
331
343
  5
323
331
344
  5
324
331
345
  5
325
331
346
  5
326
331
347
  5
327
331
348
  5
379
331
349
  5
328
331
34A
  5
329
331
34B
  5
32A
331
34C
  5
32B
331
34D
  5
32C
331
34E
  5
32D
331
34F
  5
32E
331
350
  5
32F
331
351
  5
330
331
352
  5
331
331
353
  5
37B
331
354
  5
332
331
355
  5
333
331
356
  5
334
331
357
  5
335
331
358
  5
336
331
359
  5
337
331
35A
  5
338
331
35B
  5
339
331
35C
  5
33A
331
35D
  5
33B
331
35E
  5
33C
331
35F
  5
33D
331
360
  5
33E
331
361
  5
33F
331
362
  5
340
331
363
  5
341
331
364
  5
342
331
365
  5
343
331
366
  5
344
331
368
  5
345
331
369
  5
346
331
36B
  5
347
331
36D
  5
348
331
36F
  5
349
331
371
  5
34A
331
373
  5
34B
331
375
  5
34C
331
377
  5
34D
331
379
  5
34E
331
37B
  5
34F
  0
LAYOUT
  5
3EB
102
{ACAD_REACTORS
330
3E7
330
3E7
102
}
102
{ACAD_XDICTIONARY
360
3EC
102
}
330
3E7
100
AcDbPlotSettings
  1

  2
none_device
  4
Letter_(8.50_x_11.00_Inches)
  6

 40
6.35
 41
6.35
 42
6.350006
 43
6.350006
 44
215.899994
 45
279.399994
 46
0.0
 47
0.0
 48
0.0
 49
0.0
140
0.0
141
0.0
142
1.0
143
1.0
 70
   688
 72
     0
 73
     1
 74
     5
  7

 75
    16
 76
     0
 77
     2
 78
   300
147
1.0
148
0.0
149
0.0
100
AcDbLayout
  1
Layout1
 70
     1
 71
     1
 10
-0.25
 20
-0.25
 11
10.75
 21
8.25
 12
0.0
 22
0.0
 32
0.0
 14
1.049744
 24
0.799667
 34
-0.001526
 15
9.450623
 25
7.200577
 35
0.0
146
0.0
 13
0.0
 23
0.0
 33
0.0
 16
1.0
 26
0.0
 36
0.0
 17
0.0
 27
1.0
 37
0.0
 76
     0
330
3E8
1001
ACAD_PSEXT
1000
None
1000
None
1000
Not applicable
1000
The layout will not be plotted unless a new plotter configuration name is selected.
1070
     0
  0
LAYOUT
  5
3E6
102
{ACAD_REACTORS
330
3E7
330
3E7
102
}
330
3E7
100
AcDbPlotSettings
  1

  2
none_device
  4
ANSI_A_(8.50_x_11.00_Inches)
  6

 40
6.35
 41
19.049999
 42
6.350006
 43
19.049988
 44
215.899994
 45
279.399994
 46
0.0
 47
0.0
 48
0.0
 49
0.0
140
0.0
141
0.0
142
1.0
143
2.584895
 70
 11952
 72
     0
 73
     1
 74
     0
  7

 75
     0
 76
     0
 77
     2
 78
   300
147
0.386863
148
0.0
149
0.0
100
AcDbLayout
  1
Model
 70
     1
 71
     0
 10
0.0
 20
0.0
 11
12.0
 21
9.0
 12
0.0
 22
0.0
 32
0.0
 14
0.0
 24
0.0
 34
0.0
 15
0.0
 25
0.0
 35
0.0
146
0.0
 13
0.0
 23
0.0
 33
0.0
 16
1.0
 26
0.0
 36
0.0
 17
0.0
 27
1.0
 37
0.0
 76
     0
330
3E3
331
49
  0
MLINESTYLE
  5
3E0
102
{ACAD_REACTORS
330
3E1
102
}
330
3E1
100
AcDbMlineStyle
  2
STANDARD
 70
     0
  3

 62
   256
 51
90.0
 52
90.0
 71
     2
 49
0.5
 62
   256
  6
BYLAYER
 49
-0.5
 62
   256
  6
BYLAYER
  0
ACDBPLACEHOLDER
  5
3D5
102
{ACAD_REACTORS
330
3D6
102
}
330
3D6
  0
XRECORD
  5
3C8
102
{ACAD_REACTORS
330
3FB
102
}
330
3FB
100
AcDbXrecord
280
     1
310
3E4F020000004D6F64656C6572000000000000000000000000000000000000000000000000000000000000000000000000000000000000000000000000000000000000000000000000000000000000000000000000000000000000000000000000000000000000000000000000000000000000000000000000000000000000
310
00000000000000000000000000000000000000000000000000000000000000000000000000000000000000000000000000000000000000000000000000000000000000000000000000000000000000000000000000000000000000000000000000000000000000000000000000000000000000000000000000000000000000
310
00
310
00000000000000000000000000000000000000000000000000000000000000000000000000000000000000000000000000000000000000000000000000000000000000000000000000000000000000000000000000000000000000000000000000000000000000000000000000000000000000000000000000000000000000
310
00000000000000000000000000000000000000000000000000000000000000000000000000000000000000000000000000000000000000000000000000000000000000000000000000000000000000000000000000000000000000000000000000000000000000000000000000000000000000000000000000000000000000
310
00
310
00000000000000000000000000000000000000000000000000000000000000000000000000000000000000000000000000000000000000000000000000000000000000000000000000000000000000000000000000000000000000000000000000000000000000000000000000000000000000000000000000000000000000
310
00000000000000000000000000000000000000000000000000000000000000000000000000000000000000000000000000000000000000000000000000000000000000000000000000000000000000000000000000000000000000000000000000000000000000000000000000000000000000000000000000000000000000
310
00
310
00000000000000000000000000000000000000000000000000000000000000000000000000000000000000000000000000000000000000000000000000000000000000000000000000000000000000000000000000000000000000000000000000000000000000000000000000000000000000000000000000000000000000
310
00000000000000000000000000000000000000000000000000000000000000000000000000000000000000000000000000000000000000000000000000000000000000000000000000000000000000000000000000000000000000000000000000000000000000000000000000000000000000000000000000000000000000
310
00
310
00000000000000000000000000000000000000000000000000000000000000000000000000000000000000000000000000000000000000000000000000000000000000000000000000000000000000000000000000000000000000000000000000000000000000000000000000000000000000000000000000000000000000
310
00000000000000000000000000000000000000000000000000000000000000000000000000000000000000000000000000000000000000000000000000000000000000000000000000000000000000000000000000000000000000000000000000000000000000000000000000000000000000000000000000000000000000
310
00
310
00000000000000000000000000000000000000000000000000000000000000000000000000000000000000000000000000000000000000000000000000000000000000000000000000000000000000000000000000000000000000000000000000000000000000000000000000000000000000000000000000000000000000
310
00000000000000000000000000000000000000000000000000000000000000000000000000000000000000000000000000000000000000000000000000000000000000000000000000000000000000000000000000000000000000000000000000000000000000000000000000000000000000000000000000000000000000
310
00
310
00000000000000000000000000000000000000000000000000000000000000000000000000000000000000000000000000000000000000000000000000000000000000000000000000000000000000000000000000000000000000000000000000000000000000000000000000000000000000000000000000000000000000
310
00000000000000000000000000000000000000000000000000000000000000000000000000000000000000000000000000000000000000000000000000000000000000000000000000000000000000000000000000000000000000000000000000000000000000000000000000000000000000000000000000000000000000
310
00
310
00000000000000000000000000000000000000000000000000000000000000000000000000000000000000000000000000000000000000000000000000000000000000000000000000000000000000000000000000000000000000000000000000000000000000000000000000000000000000000000000000000000000000
310
00000000000000000000000000000000000000000000000000000000000000000000000000000000000000000000000000000000000000000000000000000000000000000000000000000000000000000000000000000000000000000000000000000000000000000000000000000000000000000000000000000000000000
310
00
310
00000000000000000000000000000000000000000000000000000000000000000000000000000000000000000000000000000000000000000000000000000000000000000000000000000000000000000000000000000000000000000000000000000000000000000000000000000000000000000000000000000000000000
310
00000000000000000000000000000000000000000000000000000000000000000000000000000000000000000000000000000000000000000000000000000000000000000000000000000000000000000000000000000000000000000000000000000000000000000000000000000000000000000000000000000000000000
310
00
310
00000000000000000000000000000000000000000000000000000000000000000000000000000000000000000000000000000000000000000000000000000000000000000000000000000000000000000000000000000000000000000000000000000000000000000000000000000000000000000000000000000000000000
310
00000000000000000000000000000000000000000000000000000000000000000000000000000000000000000000000000000000000000000000000000000000000000000000000000000000000000000000000000000000000000000000000000000000000000000000000000000000000000000000000000000000000000
310
00
310
00000000000000000000000000000000000000000000000000000000000000000000000000000000000000000000000000000000000000000000000000000000000000000000000000000000000000000000000000000000000000000000000000000000000000000000000000000000000000000000000000000000000000
310
00000000000000000000000000000000000000000000000000000000000000000000000000000000000000000000000000000000000000000000000000000000000000000000000000000000000000000000000000000000000000000000000000000000000000000000000000000000000000000000000000000000000000
310
00
310
00000000000000000000000000000000000000000000000000000000000000000000000000000000000000000000000000000000000000000000000000000000000000000000000000000000000000000000000000000000000000000000000000000000000000000000000000000000000000000000000000000000000000
310
00000000000000000000000000000000000000000000000000000000000000000000000000000000000000000000000000000000000000000000000000000000000000000000000000000000000000000000000000000000000000000000000000000000000000000000000000000000000000000000000000000000000000
310
00
310
00000000000000000000000000000000000000000000000000000000000000000000000000000000000000000000000000000000000000000000000000000000000000000000000000000000000000000000000000000000000000000000000000000000000000000000000000000000000000000000000000000000000000
310
00000000000000000000000000000000000000000000000000000000000000000000000000000000000000000000000000000000000000000000000000000000000000000000000000000000000000000000000000000000000000000000000000000000000000000000000000000000000000000000000000000000000000
310
00
310
00000000000000000000000000000000000000000000000000000000000000000000000000000000000000000000000000000000000000000000000000000000000000000000000000000000000000000000000000000000000000000000000000000000000000000000000000000000000000
  0
XRECORD
  5
3CF
102
{ACAD_REACTORS
330
3FB
102
}
330
3FB
100
AcDbXrecord
280
     1
310
3E4F020000004D6F64656C6572000000000000000000000000000000000000000000000000000000000000000000000000000000000000000000000000000000000000000000000000000000000000000000000000000000000000000000000000000000000000000000000000000000000000000000000000000000000000
310
00000000000000000000000000000000000000000000000000000000000000000000000000000000000000000000000000000000000000000000000000000000000000000000000000000000000000000000000000000000000000000000000000000000000000000000000000000000000000000000000000000000000000
310
00
310
00000000000000000000000000000000000000000000000000000000000000000000000000000000000000000000000000000000000000000000000000000000000000000000000000000000000000000000000000000000000000000000000000000000000000000000000000000000000000000000000000000000000000
310
00000000000000000000000000000000000000000000000000000000000000000000000000000000000000000000000000000000000000000000000000000000000000000000000000000000000000000000000000000000000000000000000000000000000000000000000000000000000000000000000000000000000000
310
00
310
00000000000000000000000000000000000000000000000000000000000000000000000000000000000000000000000000000000000000000000000000000000000000000000000000000000000000000000000000000000000000000000000000000000000000000000000000000000000000000000000000000000000000
310
00000000000000000000000000000000000000000000000000000000000000000000000000000000000000000000000000000000000000000000000000000000000000000000000000000000000000000000000000000000000000000000000000000000000000000000000000000000000000000000000000000000000000
310
00
310
00000000000000000000000000000000000000000000000000000000000000000000000000000000000000000000000000000000000000000000000000000000000000000000000000000000000000000000000000000000000000000000000000000000000000000000000000000000000000000000000000000000000000
310
00000000000000000000000000000000000000000000000000000000000000000000000000000000000000000000000000000000000000000000000000000000000000000000000000000000000000000000000000000000000000000000000000000000000000000000000000000000000000000000000000000000000000
310
00
310
00000000000000000000000000000000000000000000000000000000000000000000000000000000000000000000000000000000000000000000000000000000000000000000000000000000000000000000000000000000000000000000000000000000000000000000000000000000000000000000000000000000000000
310
00000000000000000000000000000000000000000000000000000000000000000000000000000000000000000000000000000000000000000000000000000000000000000000000000000000000000000000000000000000000000000000000000000000000000000000000000000000000000000000000000000000000000
310
00
310
00000000000000000000000000000000000000000000000000000000000000000000000000000000000000000000000000000000000000000000000000000000000000000000000000000000000000000000000000000000000000000000000000000000000000000000000000000000000000000000000000000000000000
310
00000000000000000000000000000000000000000000000000000000000000000000000000000000000000000000000000000000000000000000000000000000000000000000000000000000000000000000000000000000000000000000000000000000000000000000000000000000000000000000000000000000000000
310
00
310
00000000000000000000000000000000000000000000000000000000000000000000000000000000000000000000000000000000000000000000000000000000000000000000000000000000000000000000000000000000000000000000000000000000000000000000000000000000000000000000000000000000000000
310
00000000000000000000000000000000000000000000000000000000000000000000000000000000000000000000000000000000000000000000000000000000000000000000000000000000000000000000000000000000000000000000000000000000000000000000000000000000000000000000000000000000000000
310
00
310
00000000000000000000000000000000000000000000000000000000000000000000000000000000000000000000000000000000000000000000000000000000000000000000000000000000000000000000000000000000000000000000000000000000000000000000000000000000000000000000000000000000000000
310
00000000000000000000000000000000000000000000000000000000000000000000000000000000000000000000000000000000000000000000000000000000000000000000000000000000000000000000000000000000000000000000000000000000000000000000000000000000000000000000000000000000000000
310
00
310
00000000000000000000000000000000000000000000000000000000000000000000000000000000000000000000000000000000000000000000000000000000000000000000000000000000000000000000000000000000000000000000000000000000000000000000000000000000000000000000000000000000000000
310
00000000000000000000000000000000000000000000000000000000000000000000000000000000000000000000000000000000000000000000000000000000000000000000000000000000000000000000000000000000000000000000000000000000000000000000000000000000000000000000000000000000000000
310
00
310
00000000000000000000000000000000000000000000000000000000000000000000000000000000000000000000000000000000000000000000000000000000000000000000000000000000000000000000000000000000000000000000000000000000000000000000000000000000000000000000000000000000000000
310
00000000000000000000000000000000000000000000000000000000000000000000000000000000000000000000000000000000000000000000000000000000000000000000000000000000000000000000000000000000000000000000000000000000000000000000000000000000000000000000000000000000000000
310
00
310
00000000000000000000000000000000000000000000000000000000000000000000000000000000000000000000000000000000000000000000000000000000000000000000000000000000000000000000000000000000000000000000000000000000000000000000000000000000000000000000000000000000000000
310
00000000000000000000000000000000000000000000000000000000000000000000000000000000000000000000000000000000000000000000000000000000000000000000000000000000000000000000000000000000000000000000000000000000000000000000000000000000000000000000000000000000000000
310
00
310
00000000000000000000000000000000000000000000000000000000000000000000000000000000000000000000000000000000000000000000000000000000000000000000000000000000000000000000000000000000000000000000000000000000000000000000000000000000000000000000000000000000000000
310
00000000000000000000000000000000000000000000000000000000000000000000000000000000000000000000000000000000000000000000000000000000000000000000000000000000000000000000000000000000000000000000000000000000000000000000000000000000000000000000000000000000000000
310
00
310
00000000000000000000000000000000000000000000000000000000000000000000000000000000000000000000000000000000000000000000000000000000000000000000000000000000000000000000000000000000000000000000000000000000000000000000000000000000000000000000000000000000000000
310
00000000000000000000000000000000000000000000000000000000000000000000000000000000000000000000000000000000000000000000000000000000000000000000000000000000000000000000000000000000000000000000000000000000000000000000000000000000000000000000000000000000000000
310
00
310
00000000000000000000000000000000000000000000000000000000000000000000000000000000000000000000000000000000000000000000000000000000000000000000000000000000000000000000000000000000000000000000000000000000000000000000000000000000000000
  0
XRECORD
  5
3C7
102
{ACAD_REACTORS
330
3FB
102
}
330
3FB
100
AcDbXrecord
280
     1
310
DF56060034040701D0009A9999999999B93F000000000000000000000000000000000400000009000000000000000200000064000000640000000100000001000000190000007B14AE47E17A843F00000000004060409A9999999999B93F00000000004C2D41000000000070F7400000000000942141000000000000000000
310
0000000000000000000000000000000AD482040000000000000000000000000000F03F000000000000000000000000000030402D431CEBE2362A3F00000000000008400000000000000000009807C000000000000000007C1A61B9A711364020000000050000000A000000200000002000000020000000000000000000F03F
310
00
310
0000000000F03F000000000000F03F333333333333D33F333333333333D33F333333333333D33F000000000000F43F000000000000F43F000000000000F03F0200000064000000000000000000000000000840000000000000F83F00000000000000000000000000000000008056409A9999999999B93F0000000000000000
310
00000000000000000000000000000000000000000000000000000000000000000000000000000000000000000000000000000000000000000000000000000000000000000000000000000000000000000000000000000000000000000000000000000000000000000000000000000000000000000000000000000000000000
310
00
310
0000000000000000000000000000000000000000000000000000000000000000000000000000000000000000000000000000000000000000000000000000000000000000000000000000000000000000000000000000000000000000000000000000000000000000000000000000000000000000000000009A9999999999A9
310
3F9100000000000000000000000000000035A781D547960F40000000000000F03F000000000000F03F666666666666164000000000104068F200000000000000000000000000000000000000000000000000000000000000000000000000000000000000000000000000000000000000000000000000000000000000000000
310
00
310
00000000000000000000000000000000000000000000000000000000000000000000000000000000000000000000000000000000000000000000000000000000000000000000000000000000000000000000000000000000000000000000000000000000000000000000000000000000000000000000000000000000000000
310
000000000000000000000000000000000000000000000000000000000000000000000000000000000000000000000000000000000000000000000000FF000000000000000000000000000000000000000000000000000000000000000000000000000000000000000000000000000000000000000000000000000000000000
310
00
310
0000000000000000000000000000000000000000000000000000000000000000000000000000000000000000000000000000000000000000000000000000000000000000
  0
DICTIONARY
  5
3EC
330
3EB
100
AcDbDictionary
280
     1
281
     1
  3
ADSK_XREC_LAYOUTTHUMBNAIL
360
3ED
  0
XRECORD
  5
3ED
102
{ACAD_REACTORS
330
3EC
102
}
330
3EC
100
AcDbXrecord
280
     1
310
28000000B40000008B0000000100080000000000BC61000000000000000000000001000000000000FFFFFF0000000000FFFFFF000000000000000000000000000000000000000000000000000000000000000000330000006600000099000000CC000000FF00000000330000333300006633000099330000CC330000FF3300
310
0000660000336600006666000099660000CC660000FF66000000990000339900006699000099990000CC990000FF99000000CC000033CC000066CC000099CC0000CCCC0000FFCC000000FF000033FF000066FF000099FF0000CCFF0000FFFF000000003300330033006600330099003300CC003300FF003300003333003333
310
33006633330099333300CC333300FF33330000663300336633006666330099663300CC663300FF66330000993300339933006699330099993300CC993300FF99330000CC330033CC330066CC330099CC3300CCCC3300FFCC330000FF330033FF330066FF330099FF3300CCFF3300FFFF330000006600330066006600660099
310
006600CC006600FF00660000336600333366006633660099336600CC336600FF33660000666600336666006666660099666600CC666600FF66660000996600339966006699660099996600CC996600FF99660000CC660033CC660066CC660099CC6600CCCC6600FFCC660000FF660033FF660066FF660099FF6600CCFF6600
310
FFFF660000009900330099006600990099009900CC009900FF00990000339900333399006633990099339900CC339900FF33990000669900336699006666990099669900CC669900FF66990000999900339999006699990099999900CC999900FF99990000CC990033CC990066CC990099CC9900CCCC9900FFCC990000FF99
310
0033FF990066FF990099FF9900CCFF9900FFFF99000000CC003300CC006600CC009900CC00CC00CC00FF00CC000033CC003333CC006633CC009933CC00CC33CC00FF33CC000066CC003366CC006666CC009966CC00CC66CC00FF66CC000099CC003399CC006699CC009999CC00CC99CC00FF99CC0000CCCC0033CCCC0066CC
310
CC0099CCCC00CCCCCC00FFCCCC0000FFCC0033FFCC0066FFCC0099FFCC00CCFFCC00FFFFCC000000FF003300FF006600FF009900FF00CC00FF00FF00FF000033FF003333FF006633FF009933FF00CC33FF00FF33FF000066FF003366FF006666FF009966FF00CC66FF00FF66FF000099FF003399FF006699FF009999FF00CC
310
99FF00FF99FF0000CCFF0033CCFF0066CCFF0099CCFF00CCCCFF00FFCCFF0000FFFF0033FFFF0066FFFF0099FFFF00CCFFFF00FFFFFF00000000000D0D0D001A1A1A00282828003535350043434300505050005D5D5D006B6B6B00787878008686860093939300A1A1A100AEAEAE00BBBBBB00C9C9C900D6D6D600E4E4E400
310
F1F1F100FFFFFF0000000000000000000000000000000000000000000000000000000000000000000000000000000000E2E2E2E2E2E2E2E2E2E2E2E2E2E2E2E2E2E2E2E2E2E2E2E2E2E2E2E2E2E2E2E2E2E2E2E2E2E2E2E2E2E2E2E2E2E2E2E2E2E2E2E2E2E2E2E2E2E2E2E2E2E2E2E2E2E2E2E2E2E2E2E2E2E2E2E2E2E2E2
310
E2E2E2E2E2E2E2E2E2E2E2E2E2E2E2E2E2E2E2E2E2E2E2E2E2E2E2E2E2E2E2E2E2E2E2E2E2E2E2E2E2E2E2E2E2E2E2E2E2E2E2E2E2E2E2E2E2E2E2E2E2E2E2E2E2E2E2E2E2E2E2E2E2E2E2E2E2E2E2E2E2E2E2E2E2E2E2E2E2E2E2E2E2E2E2E2E2E2E2E2EFF5F5F5F5F5F5F5F5F5F5F5F5F5F5F5F5F5F5F5F5F5F5F5F5F5F5
310
F5F5F5F5F5F5F5F5F5F5F5F5F5F5F5F5F5F5F5F5F5F5F5F5F5F5F5F5F5F5F5F5F5F5F5F5F5F5F5F5F5F5F5F5F5F5F5F5F5F5F5F5F5F5F5F5F5F5F5F5F5F5F5F5F5F5F5F5F5F5F5F5F5F5F5F5F5F5F5F5F5F5F5F5F5F5F5F5F5F5F5F5F5F5F5F5F5F5F5F5F5F5F5F5F5F5F5F5F5F5F5F5F5F5F5F5F5F5F5F5F5F5F5F5F5F5F5
310
F5F5F5F5F5F5F5F5F5F5F5F5F5F5F5F5F5F5F5F5F5F5F5F5E2E2EFF5F5F5F5F5F5F5F5F5F5F5F5F5F5F5F5F5F5F5F5F5F5F5F5F5F5F5F5F5F5F5F5F5F5F5F5F5F5F5F5F5F5F5F5F5F5F5F5F5F5F5F5F5F5F5F5F5F5F5F5F5F5F5F5F5F5F5F5F5F5F5F5F5F5F5F5F5F5F5F5F5F5F5F5F5F5F5F5F5F5F5F5F5F5F5F5F5F5F5F5
310
F5F5F5F5F5F5F5F5F5F5F5F5F5F5F5F5F5F5F5F5F5F5F5F5F5F5F5F5F5F5F5F5F5F5F5F5F5F5F5F5F5F5F5F5F5F5F5F5F5F5F5F5F5F5F5F5F5F5F5F5F5F5F5F5F5F5F5F5F5F5F5F5F5F5F5F5F5E2E2EFF5F5F5F5F5F5F5F5F5F5F5F5F5F5F5F5F5F5F5F5F5F5F5F5F5F5F5F5F5F5F5F5F5F5F5F5F5F5F5F5F5F5F5F5F5F5F5
310
F5F5F5F5F5F5F5F5F5F5F5F5F5F5F5F5F5F5F5F5F5F5F5F5F5F5F5F5F5F5F5F5F5F5F5F5F5F5F5F5F5F5F5F5F5F5F5F5F5F5F5F5F5F5F5F5F5F5F5F5F5F5F5F5F5F5F5F5F5F5F5F5F5F5F5F5F5F5F5F5F5F5F5F5F5F5F5F5F5F5F5F5F5F5F5F5F5F5F5F5F5F5F5F5F5F5F5F5F5F5F5F5F5F5F5F5F5F5F5F5F5F5F5F5F5F5F5
310
F5F5F5E2E2EFF5F5F5E2E2E2E2E2E2E2E2F5F5F5F5F5F5F5F5F5E2E2E2E2E2E2E2E2E2E2E2E2E2E2E2E2F5F5F5F5F5F5F5F5E2E2E2E2E2E2E2E2E2E2E2E2E2E2E2E2F5F5F5F5F5F5F5F5F5E2E2E2E2E2E2E2E2E2E2E2E2E2E2E2F5F5F5F5F5F5F5F5F5E2E2E2E2E2E2E2E2E2E2E2E2E2E2E2F5F5F5F5F5F5F5F5F5E2E2E2E2
310
E2E2E2E2E2E2E2E2E2E2E2E2F5F5F5F5F5F5F5F5E2E2E2E2E2E2E2E2E2E2E2E2E2E2E2E2F5F5F5F5F5F5F5F5F5E2E2E2E2E2E2E2E2F5F5F5E2E2EFF5F5F5E2F5F5F5F5F5F5F5F5F5F5F5F5F5F5F5F5F5F5F5F5F5F5F5F5F5F5F5F5F5F5F5F5F5F5F5F5F5F5F5F5F5F5F5F5F5F5F5F5F5F5F5F5F5F5F5F5F5F5F5F5F5F5F5F5
310
F5F5F5F5F5F5F5F5F5F5F5F5F5F5F5F5F5F5F5F5F5F5F5F5F5F5F5F5F5F5F5F5F5F5F5F5F5F5F5F5F5F5F5F5F5F5F5F5F5F5F5F5F5F5F5F5F5F5F5F5F5F5F5F5F5F5F5F5F5F5F5F5F5F5F5F5F5F5F5F5F5F5F5F5F5F5F5F5F5F5F5F5F5F5F5F5F5F5F5F5F5F5F5F5F5E2F5F5F5E2E2EFF5F5F5E2F5F5F5F5F5F5F5F5F5F5F5
310
F5F5F5F5F5F5F5F5F5F5F5F5F5F5F5F5F5F5F5F5F5F5F5F5F5F5F5F5F5F5F5F5F5F5F5F5F5F5F5F5F5F5F5F5F5F5F5F5F5F5F5F5F5F5F5F5F5F5F5F5F5F5F5F5F5F5F5F5F5F5F5F5F5F5F5F5F5F5F5F5F5F5F5F5F5F5F5F5F5F5F5F5F5F5F5F5F5F5F5F5F5F5F5F5F5F5F5F5F5F5F5F5F5F5F5F5F5F5F5F5F5F5F5F5F5F5F5
310
F5F5F5F5F5F5F5F5F5F5F5F5F5F5F5F5F5F5F5F5F5F5F5F5F5F5F5F5F5F5F5E2F5F5F5E2E2EFF5F5F5E2F5F5F5F5F5F5F5F5F5F5F5F5F5F5F5F5F5F5F5F5F5F5F5F5F5F5F5F5F5F5F5F5F5F5F5F5F5F5F5F5F5F5F5F5F5F5F5F5F5F5F5F5F5F5F5F5F5F5F5F5F5F5F5F5F5F5F5F5F5F5F5F5F5F5F5F5F5F5F5F5F5F5F5F5F5
310
F5F5F5F5F5F5F5F5F5F5F5F5F5F5F5F5F5F5F5F5F5F5F5F5F5F5F5F5F5F5F5F5F5F5F5F5F5F5F5F5F5F5F5F5F5F5F5F5F5F5F5F5F5F5F5F5F5F5F5F5F5F5F5F5F5F5F5F5F5F5F5F5F5F5F5F5F5F5F5F5F5F5F5F5E2F5F5F5E2E2EFF5F5F5E2F5F5F5F5F5F5F5F5F5F5F5F5F5F5F5F5F5F5F5F5F5F5F5F5F5F5F5F5F5F5F5F5
310
F5F5F5F5F5F5F5F5F5F5F5F5F5F5F5F5F5F5F5F5F5F5F5F5F5F5F5F5F5F5F5F5F5F5F5F5F5F5F5F5F5F5F5F5F5F5F5F5F5F5F5F5F5F5F5F5F5F5F5F5F5F5F5F5F5F5F5F5F5F5F5F5F5F5F5F5F5F5F5F5F5F5F5F5F5F5F5F5F5F5F5F5F5F5F5F5F5F5F5F5F5F5F5F5F5F5F5F5F5F5F5F5F5F5F5F5F5F5F5F5F5F5F5F5F5F5F5
310
F5F5F5F5F5F5F5F5F5F5E2F5F5F5E2E2EFF5F5F5E2F5F5F5F5F5F5F5F5F5F5F5F5F5F5F5F5F5F5F5F5F5F5F5F5F5F5F5F5F5F5F5F5F5F5F5F5F5F5F5F5F5F5F5F5F5F5F5F5F5F5F5F5F5F5F5F5F5F5F5F5F5F5F5F5F5F5F5F5F5F5F5F5F5F5F5F5F5F5F5F5F5F5F5F5F5F5F5F5F5F5F5F5F5F5F5F5F5F5F5F5F5F5F5F5F5F5
310
F5F5F5F5F5F5F5F5F5F5F5F5F5F5F5F5F5F5F5F5F5F5F5F5F5F5F5F5F5F5F5F5F5F5F5F5F5F5F5F5F5F5F5F5F5F5F5F5F5F5F5F5F5F5F5F5F5F5F5F5F5F5F5E2F5F5F5E2E2EFF5F5F5E2F5F5F5F5F5F5F5F5F5F5F5F5F5F5F5F5F5F5F5F5F5F5F5F5F5F5F5F5F5F5F5F5F5F5F5F5F5F5F5F5F5F5F5F5F5F5F5F5F5F5F5F5F5
310
F5F5F5F5F5F5F5F5F5F5F5F5F5F5F5F5F5F5F5F5F5F5F5F5F5F5F5F5F5F5F5F5F5F5F5F5F5F5F5F5F5F5F5F5F5F5F5F5F5F5F5F5F5F5F5F5F5F5F5F5F5F5F5F5F5F5F5F5F5F5F5F5F5F5F5F5F5F5F5F5F5F5F5F5F5F5F5F5F5F5F5F5F5F5F5F5F5F5F5F5F5F5F5F5F5F5F5F5F5F5F5F5F5F5F5F5E2F5F5F5E2E2EFF5F5F5E2
310
F5F5F5F5F5F5F5F5F5F5F5F5F5F5F5F5F5F5F5F5F5F5F5F5F5F5F5F5F5F5F5F5F5F5F5F5F5F5F5F5F5F5F5F5F5F5F5F5F5F5F5F5F5F5F5F5F5F5F5F5F5F5F5F5F5F5F5F5F5F5F5F5F5F5F5F5F5F5F5F5F5F5F5F5F5F5F5F5F5F5F5F5F5F5F5F5F5F5F5F5F5F5F5F5F5F5F5F5F5F5F5F5F5F5F5F5F5F5F5F5F5F5F5F5F5F5F5
310
F5F5F5F5F5F5F5F5F5F5F5F5F5F5F5F5F5F5F5F5F5F5F5F5F5F5F5F5F5F5F5F5F5F5F5F5F5F5F5F5F5F5E2F5F5F5E2E2EFF5F5F5E2F5F5F5F5F5F5F5F5F5F5F5F5F5F5F5F5F5F5F5F5F5F5F5F5F5F5F5F5F5F5F5F5F5F5F5F5F5F5F5F5F5F5F5F5F5F5F5F5F5F5F5F5F5F5F5F5F5F5F5F5F5F5F5F5F5F5F5F5F5F5F5F5F5F5
310
F5F5F5F5F5F5F5F5F5F5F5F5F5F5F5F5F5F5F5F5F5F5F5F5F5F5F5F5F5F5F5F5F5F5F5F5F5F5F5F5F5F5F5F5F5F5F5F5F5F5F5F5F5F5F5F5F5F5F5F5F5F5F5F5F5F5F5F5F5F5F5F5F5F5F5F5F5F5F5F5F5F5F5F5F5F5F5F5F5F5F5F5F5F5F5E2F5F5F5E2E2EFF5F5F5F5F5F5F5F5F5F5F5F5F5F5F5F5F5F5F5F5F5F5F5F5F5
310
F5F5F5F5F5F5F5F5F5F5F5F5F5F5F5F5F5F5F5F5F5F5F5F5F5F5F5F5F5F5F5F5F5F5F5F5F5F5F5F5F5F5F5F5F5F5F5F5F5F5F5F5F5F5F5F5F5F5F5F5F5F5F5F5F5F5F5F5F5F5F5F5F5F5F5F5F5F5F5F5F5F5F5F5F5F5F5F5F5F5F5F5F5F5F5F5F5F5F5F5F5F5F5F5F5F5F5F5F5F5F5F5F5F5F5F5F5F5F5F5F5F5F5F5F5F5F5
310
F5F5F5F5F5F5F5F5F5F5F5F5F5F5F5F5F5F5F5F5F5F5F5F5F5E2E2EFF5F5F5F5F5F5F5F5F5F5F5F5F5F5F5F5F5F5F5F5F5F5F5F5F5F5F5F5F5F5F5F5F5F5F5F5F5F5F5F5F5F5F5F5F5F5F5F5F5F5F5F5F5F5F5F5F5F5F5F5F5F5F5F5F5F5F5F5F5F5F5F5F5F5F5F5F5F5F5F5F5F5F5F5F5F5F5F5F5F5F5F5F5F5F5F5F5F5F5
310
F5F5F5F5F5F5F5F5F5F5F5F5F5F5F5F5F5F5F5F5F5F5F5F5F5F5F5F5F5F5F5F5F5F5F5F5F5F5F5F5F5F5F5F5F5F5F5F5F5F5F5F5F5F5F5F5F5F5F5F5F5F5F5F5F5F5F5F5F5F5F5F5F5F5F5F5F5F5E2E2EFF5F5F5F5F5F5F5F5F5F5F5F5F5F5F5F5F5F5F5F5F5F5F5F5F5F5F5F5F5F5F5F5F5F5F5F5F5F5F5F5F5F5F5F5F5F5
310
F5F5F5F5F5F5F5F5F5F5F5F5F5F5F5F5F5F5F5F5F5F5F5F5F5F5F5F5F5F5F5F5F5F5F5F5F5F5F5F5F5F5F5F5F5F5F5F5F5F5F5F5F5F5F5F5F5F5F5F5F5F5F5F5F5F5F5F5F5F5F5F5F5F5F5F5F5F5F5F5F5F5F5F5F5F5F5F5F5F5F5F5F5F5F5F5F5F5F5F5F5F5F5F5F5F5F5F5F5F5F5F5F5F5F5F5F5F5F5F5F5F5F5F5F5F5F5
310
F5F5F5F5E2E2EFF5F5F5F5F5F5F5F5F5F5F5F5F5F5F5F5F5F5F5F5F5F5F5F5F5F5F5F5F5F5F5F5F5F5F5F5F5F5F5F5F5F5F5F5F5F5F5F5F5F5F5F5F5F5F5F5F5F5F5F5F5F5F5F5F5F5F5F5F5F5F5F5F5F5F5F5F5F5F5F5F5F5F5F5F5F5F5F5F5F5F5F5F5F5F5F5F5F5F5F5F5F5F5F5F5F5F5F5F5F5F5F5F5F5F5F5F5F5F5F5
310
F5F5F5F5F5F5F5F5F5F5F5F5F5F5F5F5F5F5F5F5F5F5F5F5F5F5F5F5F5F5F5F5F5F5F5F5F5F5F5F5F5F5F5F5F5F5F5F5F5F5F5F5F5F5F5F5F5E2E2EFF5F5F5F5F5F5F5F5F5F5F5F5F5F5F5F5F5F5F5F5E2E2E2E2E2E2E2E2E2E2E2E2E2E2E2E2E2E2E2E2E2E2E2E2E2E2E2E2E2E2E2E2E2E2E2E2E2E2E2E2E2E2E2E2E2E2E2
310
E2E2E2E2E2E2E2E2E2E2E2E2E2E2E2E2E2E2E2E2E2E2E2E2E2E2E2E2E2E2E2E2E2E2E2E2E2E2E2E2E2E2E2E2E2E2E2E2E2E2E2E2E2E2E2E2E2E2E2E2E2E2E2E2E2E2E2E2E2E2E2E2E2E2E2E2E2E2E2E2E2E2E2E2E2E2E2E2E2E2F5F5F5F5F5F5F5F5F5F5F5F5F5F5F5F5F5F5F5F5E2E2EFF5F5F5F5F5F5F5F5F5F5F5F5F5F5
310
F5F5F5F5F5F5E2F5F5F5F5F5F5F5F5F5F5F5F5F5F5F5F5F5F5F5F5F5F5F5F5F5F5F5F5F5F5F5F5F5F5F5F5F5F5F5F5F5F5F5F5F5F5F5F5F5F5F5F5F5F5F5F5F5F5F5F5F5F5F5F5F5F5F5F5F5F5F5F5F5F5F5F5F5F5F5F5F5F5F5F5F5F5F5F5F5F5F5F5F5F5F5F5F5F5F5F5F5F5F5F5F5F5F5F5F5F5F5F5F5F5F5F5F5F5F5F5
310
F5F5F5F5F5F5F5F5F5F5F5F5F5F5F5E2F5F5F5F5F5F5F5F5F5F5F5F5F5F5F5F5F5F5F5F5E2E2EFF5F5F5F5F5F5F5F5F5F5F5F5F5F5F5F5F5F5F5F5E2F5F5F5F5F5F5F5F5F5F5F5F5F5F5F5F5F5F5F5F5F5F5F5F5F5F5F5F5F5F5F5F5F5F5F5F5F5F5F5F5F5F5F5F5F5F5F5F5F5F5F5F5F5F5F5F5F5F5F5F5F5F5F5F5F5F5F5
310
F5F5F5F5F5F5F5F5F5F5F5F5F5F5F5F5F5F5F5F5F5F5F5F5F5F5F5F5F5F5F5F5F5F5F5F5F5F5F5F5F5F5F5F5F5F5F5F5F5F5F5F5F5F5F5F5F5F5F5F5F5F5F5F5F5F5F5F5E2F5F5F5F5F5F5F5F5F5F5F5F5F5F5F5F5F5F5F5F5E2E2EFF5F5F5F5F5F5F5F5F5F5F5F5F5F5F5F5F5F5F5F5E2F5F5F5F5F5F5F5F5F5F5F5F5F5F5
310
F5F5F5F5F5F5F5F5F5F5F5F5F5F5F5F5F5F5F5F5F5F5F5F5F5F5F5F5F5F5F5F5F5F5F5F5F5F5F5F5F5F5F5F5F5F5F5F5F5F5F5F5F5F5F5F5F5F5F5F5F5F5F5F5F5F5F5F5F5F5F5F5F5F5F5F5F5F5F5F5F5F5F5F5F5F5F5F5F5F5F5F5F5F5F5F5F5F5F5F5F5F5F5F5F5F5F5F5F5F5F5F5F5F5F5F5F5F5F5F5F5E2F5F5F5F5F5
310
F5F5F5F5F5F5F5F5F5F5F5F5F5F5F5E2E2EFF5F5F5F5F5F5F5F5F5F5F5F5F5F5F5F5F5F5F5F5E2F5F5F5F5F5F5F5F5F5F5F5F5F5F5F5F5F5F5F5F5F5F5F5F5F5F5F5F5F5F5F5F5F5F5F5F5F5F5F5F5F5F5F5F5F5F5F5F5F5F5F5F5F5F5F5F5F5F5F5F5F5F5F5F5F5F5F5F5F5F5F5F5F5F5F5F5F5F5F5F5F5F5F5F5F5F5F5F5
310
F5F5F5F5F5F5F5F5F5F5F5F5F5F5F5F5F5F5F5F5F5F5F5F5F5F5F5F5F5F5F5F5F5F5F5F5F5F5F5F5F5F5F5F5F5F5F5E2F5F5F5F5F5F5F5F5F5F5F5F5F5F5F5F5F5F5F5F5E2E2EFF5F5F5E2F5F5F5F5F5F5F5F5F5F5F5F5F5F5F5F5E2F5F5F5F5F5F5F5F5F5F5F5F5F5F5F5F5F5F5F5F5F5F5F5F5F5F5F5F5F5F5F5F5F5F5F5
310
F5F5F5F5F5F5F5F5F5F5F5F5F5F5F5F5F5F5F5F5F5F5F5F5F5F5F5F5F5F5F5F5F5F5F5F5F5F5F5F5F5F5F5F5F5F5F5F5F5F5F5F5F5F5F5F5F5F5F5F5F5F5F5F5F5F5F5F5F5F5F5F5F5F5F5F5F5F5F5F5F5F5F5F5F5F5F5F5F5F5F5F5F5F5F5F5F5F5F5F5E2F5F5F5F5F5F5F5F5F5F5F5F5F5F5F5F5E2F5F5F5E2E2EFF5F5F5
310
E2F5F5F5F5F5F5F5F5F5F5F5F5F5F5F5F5E2F5F5F5F5F5F5F5F5F5F5F5F5F5F5F5F5F5F5F5F5F5F5F5F5F5F5F5F5F5F5F5F5F5F5F5F5F5F5F5F5F5F5F5F5F5F5F5F5F5F5F5F5F5F5F5F5F5F5F5F5F5F5F5F5F5F5F5F5F5F5F5F5F5F5F5F5F5F5F5F5F5F5F5F5F5F5F5F5F5F5F5F5F5F5F5F5F5F5F5F5F5F5F5F5F5F5F5F5F5
310
F5F5F5F5F5F5F5F5F5F5F5F5F5F5F5F5F5F5F5F5F5F5F5F5F5F5E2F5F5F5F5F5F5F5F5F5F5F5F5F5F5F5F5E2F5F5F5E2E2EFF5F5F5E2F5F5F5F5F5F5F5F5F5F5F5F5F5F5F5F5E2F5F5F5F5F5F5F5F5F5F5F5F5F5F5F5F5F5F5F5F5F5F5F5F5F5F5F5F5F5F5F5F5F5F5F5F5F5F5F5F5F5F5F5F5F5F5F5F5F5F5F5F5F5F5F5F5
310
F5F5F5F5F5F5F5F5F5F5F5F5F5F5F5F5F5F5F5F5F5F5F5F5F5F5F5F5F5F5F5F5F5F5F5F5F5F5F5F5F5F5F5F5F5F5F5F5F5F5F5F5F5F5F5F5F5F5F5F5F5F5F5F5F5F5F5F5F5F5F5F5F5F5F5F5F5F5F5E2F5F5F5F5F5F5F5F5F5F5F5F5F5F5F5F5E2F5F5F5E2E2EFF5F5F5E2F5F5F5F5F5F5F5F5F5F5F5F5F5F5F5F5E2F5F5F5
310
F5F5F5F5F5F5F5F5F5F5F5F5F5F5F5F5F5F5F5F5F5F5F5F5F5F5F5F5F5F5F5F5F5F5F5F5F5F5F5F5F5F5F5F5F5F5F5F5F5F5F5F5F5F5F5F5F5F5F5F5F5F5F5F5F5F5F5F5F5F5F5F5F5F5F5F5F5F5F5F5F5F5F5F5F5F5F5F5F5F5F5F5F5F5F5F5F5F5F5F5F5F5F5F5F5F5F5F5F5F5F5F5F5F5F5F5F5F5F5F5F5F5F5F5F5F5F5
310
F5F5F5F5F5E2F5F5F5F5F5F5F5F5F5F5F5F5F5F5F5F5E2F5F5F5E2E2EFF5F5F5E2F5F5F5F5F5F5F5F5F5F5F5F5F5F5F5F5E2F5F5F5F5F5F5F5F5F5F5F5F5F5F5F5F5F5F5F5F5F5F5F5F5F5F5F5F5F5F5F5F5F5F5F5F5F5F5F5F5F5F5F5F5F5F5F5F5F5F5F5F5F5F5F5F5F5F5F5F5F5F5F5F5F5F5F5F5F5F5F5F5F5F5F5F5F5
310
F5F5F5F5F5F5F5F5F5F5F5F5F5F5F5F5F5F5F5F5F5F5F5F5F5F5F5F5F5F5F5F5F5F5F5F5F5F5F5F5F5F5F5F5F5F5F5F5F5F5F5F5F5F5F5F5F5F5E2F5F5F5F5F5F5F5F5F5F5F5F5F5F5F5F5E2F5F5F5E2E2EFF5F5F5E2F5F5F5F5F5F5F5F5F5F5F5F5F5F5F5F5E2F5F5F5F5F5F5F5F5F5F5F5F5F5F5F5F5F5F5F5F5F5F5F5F5
310
F5F5F5F5F5F5F5F5F5F5F5F5F5F5F5F5F5F5F5F5F5F5F5F5F5F5F5F5F5F5F5F5F5F5F5F5F5F5F5F5F5F5F5F5F5F5F5F5F5F5F5F5F5F5F5F5F5F5F5F5F5F5F5F5F5F5F5F5F5F5F5F5F5F5F5F5F5F5F5F5F5F5F5F5F5F5F5F5F5F5F5F5F5F5F5F5F5F5F5F5F5F5F5F5F5F5F5F5F5F5F5E2F5F5F5F5F5F5F5F5F5F5F5F5F5F5F5
310
F5E2F5F5F5E2E2EFF5F5F5E2F5F5F5F5F5F5F5F5F5F5F5F5F5F5F5F5E2F5F5F5F5F5F5F5F5F5F5F5F5F5F5F5F5F5F5F5F5F5F5F5F5F5F5F5F5F5F5F5F5F5F5F5F5F5F5F5F5F5F5F5F5F5F5F5F5F5F5F5F5F5F5F5F5F5F5F5F5F5F5F5F5F5F5F5F5F5F5F5F5F5F5F5F5F5F5F5F5F5F5F5F5F5F5F5F5F5F5F5F5F5F5F5F5F5F5
310
F5F5F5F5F5F5F5F5F5F5F5F5F5F5F5F5F5F5F5F5F5F5F5F5F5F5F5F5F5F5F5F5F5F5F5F5F5E2F5F5F5F5F5F5F5F5F5F5F5F5F5F5F5F5E2F5F5F5E2E2EFF5F5F5E2F5F5F5F5F5F5F5F5F5F5F5F5F5F5F5F5E2F5F5F5F5F5F5F5F5F5F5F5F5F5F5F5F5F5F5F5F5F5F5F5F5F5F5F5F5F5F5F5F5F5F5F5F5F5F5F5F5F5F5F5F5F5
310
F5F5F5F5F5F5F5F5F5F5F5F5F5F5F5F5F5F5F5F5F5F5F5F5F5F5F5F5F5F5F5F5F5F5F5F5F5F5F5F5F5F5F5F5F5F5F5F5F5F5F5F5F5F5F5F5F5F5F5F5F5F5F5F5F5F5F5F5F5F5F5F5F5F5F5F5F5F5F5F5F5F5F5F5F5F5F5F5F5F5E2F5F5F5F5F5F5F5F5F5F5F5F5F5F5F5F5E2F5F5F5E2E2EFF5F5F5E2F5F5F5F5F5F5F5F5F5
310
F5F5F5F5F5F5F5E2F5F5F5F5F5F5F5F5F5F5F5F5F5F5F5F5F5F5F5F5F5F5F5F5F5F5F5F5F5F5F5F5F5F5F5F5F5F5F5F5F5F5F5F5F5F5F5F5F5F5F5F5F5F5F5F5F5F5F5F5F5F5F5F5F5F5F5F5F5F5F5F5F5F5F5F5F5F5F5F5F5F5F5F5F5F5F5F5F5F5F5F5F5F5F5F5F5F5F5F5F5F5F5F5F5F5F5F5F5F5F5F5F5F5F5F5F5F5F5
310
F5F5F5F5F5F5F5F5F5F5F5F5F5F5F5F5E2F5F5F5F5F5F5F5F5F5F5F5F5F5F5F5F5E2F5F5F5E2E2EFF5F5F5E2F5F5F5F5F5F5F5F5F5F5F5F5F5F5F5F5E2F5F5F5F5F5F5F5F5F5F5F5F5F5F5F5F5F5F5F5F5F5F5F5F5F5F5F5F5F5F5F5F5F5F5F5F5F5F5F5F5F5F5F5F5F5F5F5F5F5F5F5F5F5F5F5F5F5F5F5F5F5F5F5F5F5F5
310
F5F5F5F5F5F5F5F5F5F5F5F5F5F5F5F5F5F5F5F5F5F5F5F5F5F5F5F5F5F5F5F5F5F5F5F5F5F5F5F5F5F5F5F5F5F5F5F5F5F5F5F5F5F5F5F5F5F5F5F5F5F5F5F5F5F5F5F5F5E2F5F5F5F5F5F5F5F5F5F5F5F5F5F5F5F5E2F5F5F5E2E2EFF5F5F5E2F5F5F5F5F5F5F5F5F5F5F5F5F5F5F5F5E2F5F5F5F5F5F5F5F5F5F5F5F5F5
310
F5F5F5F5F5F5F5F5F5F5F5F5F5F5F5F5F5F5F5F5F5F5F5F5F5F5F5F5F5F5F5F5F5F5F5F5F5F5F5F5F5F5F5F5F5F5F5F5F5F5F5F5F5F5F5F5F5F5F5F5F5F5F5F5F5F5F5F5F5F5F5F5F5F5F5F5F5F5F5F5F5F5F5F5F5F5F5F5F5F5F5F5F5F5F5F5F5F5F5F5F5F5F5F5F5F5F5F5F5F5F5F5F5F5F5F5F5F5F5F5F5F5E2F5F5F5F5
310
F5F5F5F5F5F5F5F5F5F5F5F5E2F5F5F5E2E2EFF5F5F5E2F5F5F5F5F5F5F5F5F5F5F5F5F5F5F5F5E2F5F5F5F5F5F5F5F5F5F5F5F5F5F5F5F5F5F5F5F5F5F5F5F5F5F5F5F5F5F5F5F5F5F5F5F5F5F5F5F5F5F5F5F5F5F5F5F5F5F5F5F5F5F5F5F5F5F5F5F5F5F5F5F5F5F5F5F5F5F5F5F5F5F5F5F5F5F5F5F5F5F5F5F5F5F5F5
310
F5F5F5F5F5F5F5F5F5F5F5F5F5F5F5F5F5F5F5F5F5F5F5F5F5F5F5F5F5F5F5F5F5F5F5F5F5F5F5F5F5F5F5F5F5F5F5F5E2F5F5F5F5F5F5F5F5F5F5F5F5F5F5F5F5E2F5F5F5E2E2EFF5F5F5E2F5F5F5F5F5F5F5F5F5F5F5F5F5F5F5F5E2F5F5F5F5F5F5F5F5F5F5F5F5F5F5F5F5F5F5F5F5F5F5F5F5F5F5F5F5F5F5F5F5F5F5
310
F5F5F5F5F5F5F5F5F5F5F5F5F5F5F5F5F5F5F5F5F5F5F5F5F5F5F5F5F5F5F5F5F5F5F5F5F5F5F5F5F5F5F5F5F5F5F5F5F5F5F5F5F5F5F5F5F5F5F5F5F5F5F5F5F5F5F5F5F5F5F5F5F5F5F5F5F5F5F5F5F5F5F5F5F5F5F5F5F5F5F5F5F5F5F5F5F5F5F5F5F5E2F5F5F5F5F5F5F5F5F5F5F5F5F5F5F5F5E2F5F5F5E2E2EFF5F5
310
F5E2F5F5F5F5F5F5F5F5F5F5F5F5F5F5F5F5E2F5F5F5F5F5F5F5F5F5F5F5F5F5F5F5F5F5F5F5F5F5F5F5F5F5F5F5F5F5F5F5F5F5F5F5F5F5F5F5F5F5F5F5F5F5F5F5F5F5F5F5F5F5F5F5F5F5F5F5F5F5F5F5F5F5F5F5F5F5F5F5F5F5F5F5F5F5F5F5F5F5F5F5F5F5F5F5F5F5F5F5F5F5F5F5F5F5F5F5F5F5F5F5F5F5F5F5F5
310
F5F5F5F5F5F5F5F5F5F5F5F5F5F5F5F5F5F5F5F5F5F5F5F5F5F5F5E2F5F5F5F5F5F5F5F5F5F5F5F5F5F5F5F5E2F5F5F5E2E2EFF5F5F5E2F5F5F5F5F5F5F5F5F5F5F5F5F5F5F5F5E2F5F5F5F5F5F5F5F5F5F5F5F5F5F5F5F5F5F5F5F5F5F5F5F5F5F5F5F5F5F5F5F5F5F5F5F5F5F5F5F5F5F5F5F5F5F5F5F5F5F5F5F5F5F5F5
310
F5F5F5F5F5F5F5F5F5F5F5F5F5F5F5F5F5F5F5F5F5F5F5F5F5F5F5F5F5F5F5F5F5F5F5F5F5F5F5F5F5F5F5F5F5F5F5F5F5F5F5F5F5F5F5F5F5F5F5F5F5F5F5F5F5F5F5F5F5F5F5F5F5F5F5F5F5F5F5F5E2F5F5F5F5F5F5F5F5F5F5F5F5F5F5F5F5E2F5F5F5E2E2EFF5F5F5E2F5F5F5F5F5F5F5F5F5F5F5F5F5F5F5F5E2F5F5
310
F5F5F5F5F5F5F5F5F5F5F5F5F5F5F5F5F5F5F5F5F5F5F5F5F5F5F5F5F5F5F5F5F5F5F5F5F5F5F5F5F5F5F5F5F5F5F5F5F5F5F5F5F5F5F5F5F5F5F5F5F5F5F5F5F5F5F5F5F5F5F5F5F5F5F5F5F5F5F5F5F5F5F5F5F5F5F5F5F5F5F5F5F5F5F5F5F5F5F5F5F5F5F5F5F5F5F5F5F5F5F5F5F5F5F5F5F5F5F5F5F5F5F5F5F5F5F5
310
F5F5F5F5F5F5E2F5F5F5F5F5F5F5F5F5F5F5F5F5F5F5F5E2F5F5F5E2E2EFF5F5F5E2F5F5F5F5F5F5F5F5F5F5F5F5F5F5F5F5E2F5F5F5F5F5F5F5F5F5F5F5F5F5F5F5F5F5F5F5F5F5F5F5F5F5F5F5F5F5F5F5F5F5F5F5F5F5F5F5F5F5F5F5F5F5F5F5F5F5F5F5F5F5F5F5F5F5F5F5F5F5F5F5F5F5F5F5F5F5F5F5F5F5F5F5F5
310
F5F5F5F5F5F5F5F5F5F5F5F5F5F5F5F5F5F5F5F5F5F5F5F5F5F5F5F5F5F5F5F5F5F5F5F5F5F5F5F5F5F5F5F5F5F5F5F5F5F5F5F5F5F5F5F5F5F5F5E2F5F5F5F5F5F5F5F5F5F5F5F5F5F5F5F5E2F5F5F5E2E2EFF5F5F5F5F5F5F5F5F5F5F5F5F5F5F5F5F5F5F5F5E2F5F5F5F5F5F5F5F5F5F5F5F5F5F5F5F5F5F5F5F5F5F5F5
310
F5F5F5F5F5F5F5F5F5F5F5F5F5F5F5F5F5F5F5F5F5F5F5F5F5F5F5F5F5F5F5F5F5F5F5F5F5F5F5F5F5F5F5F5F5F5F5F5F5F5F5F5F5F5F5F5F5F5F5F5F5F5F5F5F5F5F5F5F5F5F5F5F5F5F5F5F5F5F5F5F5F5F5F5F5F5F5F5F5F5F5F5F5F5F5F5F5F5F5F5F5F5F5F5F5F5F5F5F5F5F5F5E2F5F5F5F5F5F5F5F5F5F5F5F5F5F5
310
F5F5F5F5F5F5E2E2EFF5F5F5F5F5F5F5F5F5F5F5F5F5F5F5F5F5F5F5F5E2F5F5F5F5F5F5F5F5F5F5F5F5F5F5F5F5F5F5F5F5F5F5F5F5F5F5F5F5F5F5F5F5F5F5F5F5F5F5F5F5F5F5F5F5F5F5F5F5F5F5F5F5F5F5F5F5F5F5F5F5F5F5F5F5F5F5F5F5F5F5F5F5F5F5F5F5F5F5F5F5F5F5F5F5F5F5F5F5F5F5F5F5F5F5F5F5F5
310
F5F5F5F5F5F5F5F5F5F5F5F5F5F5F5F5F5F5F5F5F5F5F5F5F5F5F5F5F5F5F5F5F5F5F5F5F5F5E2F5F5F5F5F5F5F5F5F5F5F5F5F5F5F5F5F5F5F5F5E2E2EFF5F5F5F5F5F5F5F5F5F5F5F5F5F5F5F5F5F5F5F5E2F5F5F5F5F5F5F5F5F5F5F5F5F5F5F5F5F5F5F5F5F5F5F5F5F5F5F5F5F5F5F5F5F5F5F5F5F5F5F5F5F5F5F5F5
310
F5F5F5F5F5F5F5F5F5F5F5F5F5F5F5F5F5F5F5F5F5F5F5F5F5F5F5F5F5F5F5F5F5F5F5F5F5F5F5F5F5F5F5F5F5F5F5F5F5F5F5F5F5F5F5F5F5F5F5F5F5F5F5F5F5F5F5F5F5F5F5F5F5F5F5F5F5F5F5F5F5F5F5F5F5F5F5F5F5F5F5E2F5F5F5F5F5F5F5F5F5F5F5F5F5F5F5F5F5F5F5F5E2E2EFF5F5F5F5F5F5F5F5F5F5F5F5
310
F5F5F5F5F5F5F5F5E2F5F5F5F5F5F5F5F5F5F5F5F5F5F5F5F5F5F5F5F5F5F5F5F5F5F5F5F5F5F5F5F5F5F5F5F5F5F5F5F5F5F5F5F5F5F5F5F5F5F5F5F5F5F5F5F5F5F5F5F5F5F5F5F5F5F5F5F5F5F5F5F5F5F5F5F5F5F5F5F5F5F5F5F5F5F5F5F5F5F5F5F5F5F5F5F5F5F5F5F5F5F5F5F5F5F5F5F5F5F5F5F5F5F5F5F5F5F5
310
F5F5F5F5F5F5F5F5F5F5F5F5F5F5F5F5F5E2F5F5F5F5F5F5F5F5F5F5F5F5F5F5F5F5F5F5F5F5E2E2EFF5F5F5F5F5F5F5F5F5F5F5F5F5F5F5F5F5F5F5F5E2F5F5F5F5F5F5F5F5F5F5F5F5F5F5F5F5F5F5F5F5F5F5F5F5F5F5F5F5F5F5F5F5F5F5F5F5F5F5F5F5F5F5F5F5F5F5F5F5F5F5F5F5F5F5F5F5F5F5F5F5F5F5F5F5F5
310
F5F5F5F5F5F5F5F5F5F5F5F5F5F5F5F5F5F5F5F5F5F5F5F5F5F5F5F5F5F5F5F5F5F5F5F5F5F5F5F5F5F5F5F5F5F5F5F5F5F5F5F5F5F5F5F5F5F5F5F5F5F5F5F5F5F5F5F5F5F5E2F5F5F5F5F5F5F5F5F5F5F5F5F5F5F5F5F5F5F5F5E2E2EFF5F5F5F5F5F5F5F5F5F5F5F5F5F5F5F5F5F5F5F5E2F5F5F5F5F5F5F5F5F5F5F5F5
310
F5F5F5F5F5F5F5F5F5F5F5F5F5F5F5F5F5F5F5F5F5F5F5F5F5F5F5F5F5F5F5F5F5F5F5F5F5F5F5F5F5F5F5F5F5F5F5F5F5F5F5F5F5F5F5F5F5F5F5F5F5F5F5F5F5F5F5F5F5F5F5F5F5F5F5F5F5F5F5F5F5F5F5F5F5F5F5F5F5F5F5F5F5F5F5F5F5F5F5F5F5F5F5F5F5F5F5F5F5F5F5F5F5F5F5F5F5F5F5F5F5F5F5E2F5F5F5
310
F5F5F5F5F5F5F5F5F5F5F5F5F5F5F5F5F5E2E2EFF5F5F5F5F5F5F5F5F5F5F5F5F5F5F5F5F5F5F5F5E2F5F5F5F5F5F5F5F5F5F5F5F5F5F5F5F5F5F5F5F5F5F5F5F5F5F5F5F5F5F5F5F5F5F5F5F5F5F5F5F5F5F5F5F5F5F5F5F5F5F5F5F5F5F5F5F5F5F5F5F5F5F5F5F5F5F5F5F5F5F5F5F5F5F5F5F5F5F5F5F5F5F5F5F5F5F5
310
F5F5F5F5F5F5F5F5F5F5F5F5F5F5F5F5F5F5F5F5F5F5F5F5F5F5F5F5F5F5F5F5F5F5F5F5F5F5F5F5F5F5F5F5F5F5F5F5F5E2F5F5F5F5F5F5F5F5F5F5F5F5F5F5F5F5F5F5F5F5E2E2EFF5F5F5F5F5F5F5F5F5F5F5F5F5F5F5F5F5F5F5F5E2F5F5F5F5F5F5F5F5F5F5F5F5F5F5F5F5F5F5F5F5F5F5F5F5F5F5F5F5F5F5F5F5F5
310
F5F5F5F5F5F5F5F5F5F5F5F5F5F5F5F5F5F5F5F5F5F5F5F5F5F5F5F5F5F5F5F5F5F5F5F5F5F5F5F5F5F5F5F5F5F5F5F5F5F5F5F5F5F5F5F5F5F5F5F5F5F5F5F5F5F5F5F5F5F5F5F5F5F5F5F5F5F5F5F5F5F5F5F5F5F5F5F5F5F5F5F5F5F5F5F5F5F5F5F5F5F5E2F5F5F5F5F5F5F5F5F5F5F5F5F5F5F5F5F5F5F5F5E2E2EFF5
310
F5F5F5F5F5F5F5F5F5F5F5F5F5F5F5F5F5F5F5E2F5F5F5F5F5F5F5F5F5F5F5F5F5F5F5F5F5F5F5F5F5F5F5F5F5F5F5F5F5F5F5F5F5F5F5F5F5F5F5F5F5F5F5F5F5F5F5F5F5F5F5F5F5F5F5F5F5F5F5F5F5F5F5F5F5F5F5F5F5F5F5F5F5F5F5F5F5F5F5F5F5F5F5F5F5F5F5F5F5F5F5F5F5F5F5F5F5F5F5F5F5F5F5F5F5F5F5
310
F5F5F5F5F5F5F5F5F5F5F5F5F5F5F5F5F5F5F5F5F5F5F5F5F5F5F5F5E2F5F5F5F5F5F5F5F5F5F5F5F5F5F5F5F5F5F5F5F5E2E2EFF5F5F5E2F5F5F5F5F5F5F5F5F5F5F5F5F5F5F5F5E2F5F5F5F5F5F5F5F5F5F5F5F5F5F5F5F5F5F5F5F5F5F5F5F5F5F5F5F5F5F5F5F5F5F5F5F5F5F5F5F5F5F5F5F5F5F5F5F5F5F5F5F5F5F5
310
F5F5F5F5F5F5F5F5F5F5F5F5F5F5F5F5F5F5F5F5F5F5F5F5F5F5F5F5F5F5F5F5F5F5F5F5F5F5F5F5F5F5F5F5F5F5F5F5F5F5F5F5F5F5F5F5F5F5F5F5F5F5F5F5F5F5F5F5F5F5F5F5F5F5F5F5F5F5F5F5F5E2F5F5F5F5F5F5F5F5F5F5F5F5F5F5F5F5E2F5F5F5E2E2EFF5F5F5E2F5F5F5F5F5F5F5F5F5F5F5F5F5F5F5F5E2F5
310
F5F5F5F5F5F5F5F5F5F5F5F5F5F5F5F5F5F5F5F5F5F5F5F5F5F5F5F5F5F5F5F5F5F5F5F5F5F5F5F5F5F5F5F5F5F5F5F5F5F5F5F5F5F5F5F5F5F5F5F5F5F5F5F5F5F5F5F5F5F5F5F5F5F5F5F5F5F5F5F5F5F5F5F5F5F5F5F5F5F5F5F5F5F5F5F5F5F5F5F5F5F5F5F5F5F5F5F5F5F5F5F5F5F5F5F5F5F5F5F5F5F5F5F5F5F5F5
310
F5F5F5F5F5F5F5E2F5F5F5F5F5F5F5F5F5F5F5F5F5F5F5F5E2F5F5F5E2E2EFF5F5F5E2F5F5F5F5F5F5F5F5F5F5F5F5F5F5F5F5E2F5F5F5F5F5F5F5F5F5F5F5F5F5F5F5F5F5F5F5F5F5F5F5F5F5F5F5F5F5F5F5F5F5F5F5F5F5F5F5F5F5F5F5F5F5F5F5F5F5F5F5F5F5F5F5F5F5F5F5F5F5F5F5F5F5F5F5F5F5F5F5F5F5F5F5
310
F5F5F5F5F5F5F5F5F5F5F5F5F5F5F5F5F5F5F5F5F5F5F5F5F5F5F5F5F5F5F5F5F5F5F5F5F5F5F5F5F5F5F5F5F5F5F5F5F5F5F5F5F5F5F5F5F5F5F5F5E2F5F5F5F5F5F5F5F5F5F5F5F5F5F5F5F5E2F5F5F5E2E2EFF5F5F5E2F5F5F5F5F5F5F5F5F5F5F5F5F5F5F5F5E2F5F5F5F5F5F5F5F5F5F5F5F5F5F5F5F5F5F5F5F5F5F5
310
F5F5F5F5F5F5F5F5F5F5F5F5F5F5F5F5F5F5F5F5F5F5F5F5F5F5F5F5F5F5F5F5F5F5F5F5F5F5F5F5F5F5F5F5F5F5F5F5F5F5F5F5F5F5F5F5F5F5F5F5F5F5F5F5F5F5F5F5F5F5F5F5F5F5F5F5F5F5F5F5F5F5F5F5F5F5F5F5F5F5F5F5F5F5F5F5F5F5F5F5F5F5F5F5F5F5F5F5F5F5F5F5F5E2F5F5F5F5F5F5F5F5F5F5F5F5F5
310
F5F5F5E2F5F5F5E2E2EFF5F5F5E2F5F5F5F5F5F5F5F5F5F5F5F5F5F5F5F5E2F5F5F5F5F5F5F5F5F5F5F5F5F5F5F5F5F5F5F5F5F5F5F5F5F5F5F5F5F5F5F5F5F5F5F5F5F5F5F5F5F5F5F5F5F5F5F5F5F5F5F5F5F5F5F5F5F5F5F5F5F5F5F5F5F5F5F5F5F5F5F5F5F5F5F5F5F5F5F5F5F5F5F5F5F5F5F5F5F5F5F5F5F5F5F5F5
310
F5F5F5F5F5F5F5F5F5F5F5F5F5F5F5F5F5F5F5F5F5F5F5F5F5F5F5F5F5F5F5F5F5F5F5F5F5F5F5E2F5F5F5F5F5F5F5F5F5F5F5F5F5F5F5F5E2F5F5F5E2E2EFF5F5F5E2F5F5F5F5F5F5F5F5F5F5F5F5F5F5F5F5E2F5F5F5F5F5F5F5F5F5F5F5F5F5F5F5F5F5F5F5F5F5F5F5F5F5F5F5F5F5F5F5F5F5F5F5F5F5F5F5F5F5F5F5
310
F5F5F5F5F5F5F5F5F5F5F5F5F5F5F5F5F5F5F5F5F5F5F5F5F5F5F5F5F5F5F5F5F5F5F5F5F5F5F5F5F5F5F5F5F5F5F5F5F5F5F5F5F5F5F5F5F5F5F5F5F5F5F5F5F5F5F5F5F5F5F5F5F5F5F5F5F5F5F5F5F5F5F5F5F5F5F5F5F5F5F5F5E2F5F5F5F5F5F5F5F5F5F5F5F5F5F5F5F5E2F5F5F5E2E2EFF5F5F5E2F5F5F5F5F5F5F5
310
F5F5F5F5F5F5F5F5F5E2F5F5F5F5F5F5F5F5F5F5F5F5F5F5F5F5F5F5F5F5F5F5F5F5F5F5F5F5F5F5F5F5F5F5F5F5F5F5F5F5F5F5F5F5F5F5F5F5F5F5F5F5F5F5F5F5F5F5F5F5F5F5F5F5F5F5F5F5F5F5F5F5F5F5F5F5F5F5F5F5F5F5F5F5F5F5F5F5F5F5F5F5F5F5F5F5F5F5F5F5F5F5F5F5F5F5F5F5F5F5F5F5F5F5F5F5F5
310
F5F5F5F5F5F5F5F5F5F5F5F5F5F5F5F5F5F5E2F5F5F5F5F5F5F5F5F5F5F5F5F5F5F5F5E2F5F5F5E2E2EFF5F5F5E2F5F5F5F5F5F5F5F5F5F5F5F5F5F5F5F5E2F5F5F5F5F5F5F5F5F5F5F5F5F5F5F5F5F5F5F5F5F5F5F5F5F5F5F5F5F5F5F5F5F5F5F5F5F5F5F5F5F5F5F5F5F5F5F5F5F5F5F5F5F5F5F5F5F5F5F5F5F5F5F5F5
310
F5F5F5F5F5F5F5F5F5F5F5F5F5F5F5F5F5F5F5F5F5F5F5F5F5F5F5F5F5F5F5F5F5F5F5F5F5F5F5F5F5F5F5F5F5F5F5F5F5F5F5F5F5F5F5F5F5F5F5F5F5F5F5F5F5F5F5F5F5F5F5E2F5F5F5F5F5F5F5F5F5F5F5F5F5F5F5F5E2F5F5F5E2E2EFF5F5F5E2F5F5F5F5F5F5F5F5F5F5F5F5F5F5F5F5E2F5F5F5F5F5F5F5F5F5F5F5
310
F5F5F5F5F5F5F5F5F5F5F5F5F5F5F5F5F5F5F5F5F5F5F5F5F5F5F5F5F5F5F5F5F5F5F5F5F5F5F5F5F5F5F5F5F5F5F5F5F5F5F5F5F5F5F5F5F5F5F5F5F5F5F5F5F5F5F5F5F5F5F5F5F5F5F5F5F5F5F5F5F5F5F5F5F5F5F5F5F5F5F5F5F5F5F5F5F5F5F5F5F5F5F5F5F5F5F5F5F5F5F5F5F5F5F5F5F5F5F5F5F5F5F5F5E2F5F5
310
F5F5F5F5F5F5F5F5F5F5F5F5F5F5E2F5F5F5E2E2EFF5F5F5E2F5F5F5F5F5F5F5F5F5F5F5F5F5F5F5F5E2F5F5F5F5F5F5F5F5F5F5F5F5F5F5F5F5F5F5F5F5F5F5F5F5F5F5F5F5F5F5F5F5F5F5F5F5F5F5F5F5F5F5F5F5F5F5F5F5F5F5F5F5F5F5F5F5F5F5F5F5F5F5F5F5F5F5F5F5F5F5F5F5F5F5F5F5F5F5F5F5F5F5F5F5F5
310
F5F5F5F5F5F5F5F5F5F5F5F5F5F5F5F5F5F5F5F5F5F5F5F5F5F5F5F5F5F5F5F5F5F5F5F5F5F5F5F5F5F5F5F5F5F5F5F5F5F5E2F5F5F5F5F5F5F5F5F5F5F5F5F5F5F5F5E2F5F5F5E2E2EFF5F5F5E2F5F5F5F5F5F5F5F5F5F5F5F5F5F5F5F5E2F5F5F5F5F5F5F5F5F5F5F5F5F5F5F5F5F5F5F5F5F5F5F5F5F5F5F5F5F5F5F5F5
310
F5F5F5F5F5F5F5F5F5F5F5F5F5F5F5F5F5F5F5F5F5F5F5F5F5F5F5F5F5F5F5F5F5F5F5F5F5F5F5F5F5F5F5F5F5F5F5F5F5F5F5F5F5F5F5F5F5F5F5F5F5F5F5F5F5F5F5F5F5F5F5F5F5F5F5F5F5F5F5F5F5F5F5F5F5F5F5F5F5F5F5F5F5F5F5F5F5F5F5F5F5F5F5E2F5F5F5F5F5F5F5F5F5F5F5F5F5F5F5F5E2F5F5F5E2E2EF
310
F5F5F5E2F5F5F5F5F5F5F5F5F5F5F5F5F5F5F5F5E2F5F5F5F5F5F5F5F5F5F5F5F5F5F5F5F5F5F5F5F5F5F5F5F5F5F5F5F5F5F5F5F5F5F5F5F5F5F5F5F5F5F5F5F5F5F5F5F5F5F5F5F5F5F5F5F5F5F5F5F5F5F5F5F5F5F5F5F5F5F5F5F5F5F5F5F5F5F5F5F5F5F5F5F5F5F5F5F5F5F5F5F5F5F5F5F5F5F5F5F5F5F5F5F5F5F5
310
F5F5F5F5F5F5F5F5F5F5F5F5F5F5F5F5F5F5F5F5F5F5F5F5F5F5F5F5F5E2F5F5F5F5F5F5F5F5F5F5F5F5F5F5F5F5E2F5F5F5E2E2EFF5F5F5E2F5F5F5F5F5F5F5F5F5F5F5F5F5F5F5F5E2F5F5F5F5F5F5F5F5F5F5F5F5F5F5F5F5F5F5F5F5F5F5F5F5F5F5F5F5F5F5F5F5F5F5F5F5F5F5F5F5F5F5F5F5F5F5F5F5F5F5F5F5F5
310
F5F5F5F5F5F5F5F5F5F5F5F5F5F5F5F5F5F5F5F5F5F5F5F5F5F5F5F5F5F5F5F5F5F5F5F5F5F5F5F5F5F5F5F5F5F5F5F5F5F5F5F5F5F5F5F5F5F5F5F5F5F5F5F5F5F5F5F5F5F5F5F5F5F5F5F5F5F5F5F5F5F5E2F5F5F5F5F5F5F5F5F5F5F5F5F5F5F5F5E2F5F5F5E2E2EFF5F5F5E2F5F5F5F5F5F5F5F5F5F5F5F5F5F5F5F5E2
310
F5F5F5F5F5F5F5F5F5F5F5F5F5F5F5F5F5F5F5F5F5F5F5F5F5F5F5F5F5F5F5F5F5F5F5F5F5F5F5F5F5F5F5F5F5F5F5F5F5F5F5F5F5F5F5F5F5F5F5F5F5F5F5F5F5F5F5F5F5F5F5F5F5F5F5F5F5F5F5F5F5F5F5F5F5F5F5F5F5F5F5F5F5F5F5F5F5F5F5F5F5F5F5F5F5F5F5F5F5F5F5F5F5F5F5F5F5F5F5F5F5F5F5F5F5F5F5
310
F5F5F5F5F5F5F5F5E2F5F5F5F5F5F5F5F5F5F5F5F5F5F5F5F5E2F5F5F5E2E2EFF5F5F5E2F5F5F5F5F5F5F5F5F5F5F5F5F5F5F5F5E2F5F5F5F5F5F5F5F5F5F5F5F5F5F5F5F5F5F5F5F5F5F5F5F5F5F5F5F5F5F5F5F5F5F5F5F5F5F5F5F5F5F5F5F5F5F5F5F5F5F5F5F5F5F5F5F5F5F5F5F5F5F5F5F5F5F5F5F5F5F5F5F5F5F5
310
F5F5F5F5F5F5F5F5F5F5F5F5F5F5F5F5F5F5F5F5F5F5F5F5F5F5F5F5F5F5F5F5F5F5F5F5F5F5F5F5F5F5F5F5F5F5F5F5F5F5F5F5F5F5F5F5F5F5F5F5F5E2F5F5F5F5F5F5F5F5F5F5F5F5F5F5F5F5E2F5F5F5E2E2EFF5F5F5E2F5F5F5F5F5F5F5F5F5F5F5F5F5F5F5F5E2F5F5F5F5F5F5F5F5F5F5F5F5F5F5F5F5F5F5F5F5F5
310
F5F5F5F5F5F5F5F5F5F5F5F5F5F5F5F5F5F5F5F5F5F5F5F5F5F5F5F5F5F5F5F5F5F5F5F5F5F5F5F5F5F5F5F5F5F5F5F5F5F5F5F5F5F5F5F5F5F5F5F5F5F5F5F5F5F5F5F5F5F5F5F5F5F5F5F5F5F5F5F5F5F5F5F5F5F5F5F5F5F5F5F5F5F5F5F5F5F5F5F5F5F5F5F5F5F5F5F5F5F5F5F5F5F5E2F5F5F5F5F5F5F5F5F5F5F5F5
310
F5F5F5F5E2F5F5F5E2E2EFF5F5F5E2F5F5F5F5F5F5F5F5F5F5F5F5F5F5F5F5E2F5F5F5F5F5F5F5F5F5F5F5F5F5F5F5F5F5F5F5F5F5F5F5F5F5F5F5F5F5F5F5F5F5F5F5F5F5F5F5F5F5F5F5F5F5F5F5F5F5F5F5F5F5F5F5F5F5F5F5F5F5F5F5F5F5F5F5F5F5F5F5F5F5F5F5F5F5F5F5F5F5F5F5F5F5F5F5F5F5F5F5F5F5F5F5
310
F5F5F5F5F5F5F5F5F5F5F5F5F5F5F5F5F5F5F5F5F5F5F5F5F5F5F5F5F5F5F5F5F5F5F5F5F5F5F5F5E2F5F5F5F5F5F5F5F5F5F5F5F5F5F5F5F5E2F5F5F5E2E2EFF5F5F5F5F5F5F5F5F5F5F5F5F5F5F5F5F5F5F5F5E2F5F5F5F5F5F5F5F5F5F5F5F5F5F5F5F5F5F5F5F5F5F5F5F5F5F5F5F5F5F5F5F5F5F5F5F5F5F5F5F5F5F5
310
F5F5F5F5F5F5F5F5F5F5F5F5F5F5F5F5F5F5F5F5F5F5F5F5F5F5F5F5F5F5F5F5F5F5F5F5F5F5F5F5F5F5F5F5F5F5F5F5F5F5F5F5F5F5F5F5F5F5F5F5F5F5F5F5F5F5F5F5F5F5F5F5F5F5F5F5F5F5F5F5F5F5F5F5F5F5F5F5F5F5F5F5F5E2F5F5F5F5F5F5F5F5F5F5F5F5F5F5F5F5F5F5F5F5E2E2EFF5F5F5F5F5F5F5F5F5F5
310
F5F5F5F5F5F5F5F5F5F5E2F5F5F5F5F5F5F5F5F5F5F5F5F5F5F5F5F5F5F5F5F5F5F5F5F5F5F5F5F5F5F5F5F5F5F5F5F5F5F5F5F5F5F5F5F5F5F5F5F5F5F5F5F5F5F5F5F5F5F5F5F5F5F5F5F5F5F5F5F5F5F5F5F5F5F5F5F5F5F5F5F5F5F5F5F5F5F5F5F5F5F5F5F5F5F5F5F5F5F5F5F5F5F5F5F5F5F5F5F5F5F5F5F5F5F5F5
310
F5F5F5F5F5F5F5F5F5F5F5F5F5F5F5F5F5F5F5E2F5F5F5F5F5F5F5F5F5F5F5F5F5F5F5F5F5F5F5F5E2E2EFF5F5F5F5F5F5F5F5F5F5F5F5F5F5F5F5F5F5F5F5E2F5F5F5F5F5F5F5F5F5F5F5F5F5F5F5F5F5F5F5F5F5F5F5F5F5F5F5F5F5F5F5F5F5F5F5F5F5F5F5F5F5F5F5F5F5F5F5F5F5F5F5F5F5F5F5F5F5F5F5F5F5F5F5
310
F5F5F5F5F5F5F5F5F5F5F5F5F5F5F5F5F5F5F5F5F5F5F5F5F5F5F5F5F5F5F5F5F5F5F5F5F5F5F5F5F5F5F5F5F5F5F5F5F5F5F5F5F5F5F5F5F5F5F5F5F5F5F5F5F5F5F5F5F5F5F5F5E2F5F5F5F5F5F5F5F5F5F5F5F5F5F5F5F5F5F5F5F5E2E2EFF5F5F5F5F5F5F5F5F5F5F5F5F5F5F5F5F5F5F5F5E2F5F5F5F5F5F5F5F5F5F5
310
F5F5F5F5F5F5F5F5F5F5F5F5F5F5F5F5F5F5F5F5F5F5F5F5F5F5F5F5F5F5F5F5F5F5F5F5F5F5F5F5F5F5F5F5F5F5F5F5F5F5F5F5F5F5F5F5F5F5F5F5F5F5F5F5F5F5F5F5F5F5F5F5F5F5F5F5F5F5F5F5F5F5F5F5F5F5F5F5F5F5F5F5F5F5F5F5F5F5F5F5F5F5F5F5F5F5F5F5F5F5F5F5F5F5F5F5F5F5F5F5F5F5F5F5F5E2F5
310
F5F5F5F5F5F5F5F5F5F5F5F5F5F5F5F5F5F5F5E2E2EFF5F5F5F5F5F5F5F5F5F5F5F5F5F5F5F5F5F5F5F5E2F5F5F5F5F5F5F5F5F5F5F5F5F5F5F5F5F5F5F5F5F5F5F5F5F5F5F5F5F5F5F5F5F5F5F5F5F5F5F5F5F5F5F5F5F5F5F5F5F5F5F5F5F5F5F5F5F5F5F5F5F5F5F5F5F5F5F5F5F5F5F5F5F5F5F5F5F5F5F5F5F5F5F5F5
310
F5F5F5F5F5F5F5F5F5F5F5F5F5F5F5F5F5F5F5F5F5F5F5F5F5F5F5F5F5F5F5F5F5F5F5F5F5F5F5F5F5F5F5F5F5F5F5F5F5F5F5E2F5F5F5F5F5F5F5F5F5F5F5F5F5F5F5F5F5F5F5F5E2E2EFF5F5F5F5F5F5F5F5F5F5F5F5F5F5F5F5F5F5F5F5E2F5F5F5F5F5F5F5F5F5F5F5F5F5F5F5F5F5F5F5F5F5F5F5F5F5F5F5F5F5F5F5
310
F5F5F5F5F5F5F5F5F5F5F5F5F5F5F5F5F5F5F5F5F5F5F5F5F5F5F5F5F5F5F5F5F5F5F5F5F5F5F5F5F5F5F5F5F5F5F5F5F5F5F5F5F5F5F5F5F5F5F5F5F5F5F5F5F5F5F5F5F5F5F5F5F5F5F5F5F5F5F5F5F5F5F5F5F5F5F5F5F5F5F5F5F5F5F5F5F5F5F5F5F5F5F5F5E2F5F5F5F5F5F5F5F5F5F5F5F5F5F5F5F5F5F5F5F5E2E2
310
EFF5F5F5F5F5F5F5F5F5F5F5F5F5F5F5F5F5F5F5F5E2F5F5F5F5F5F5F5F5F5F5F5F5F5F5F5F5F5F5F5F5F5F5F5F5F5F5F5F5F5F5F5F5F5F5F5F5F5F5F5F5F5F5F5F5F5F5F5F5F5F5F5F5F5F5F5F5F5F5F5F5F5F5F5F5F5F5F5F5F5F5F5F5F5F5F5F5F5F5F5F5F5F5F5F5F5F5F5F5F5F5F5F5F5F5F5F5F5F5F5F5F5F5F5F5F5
310
F5F5F5F5F5F5F5F5F5F5F5F5F5F5F5F5F5F5F5F5F5F5F5F5F5F5F5F5F5F5E2F5F5F5F5F5F5F5F5F5F5F5F5F5F5F5F5F5F5F5F5E2E2EFF5F5F5F5F5F5F5F5F5F5F5F5F5F5F5F5F5F5F5F5E2F5F5F5F5F5F5F5F5F5F5F5F5F5F5F5F5F5F5F5F5F5F5F5F5F5F5F5F5F5F5F5F5F5F5F5F5F5F5F5F5F5F5F5F5F5F5F5F5F5F5F5F5
310
F5F5F5F5F5F5F5F5F5F5F5F5F5F5F5F5F5F5F5F5F5F5F5F5F5F5F5F5F5F5F5F5F5F5F5F5F5F5F5F5F5F5F5F5F5F5F5F5F5F5F5F5F5F5F5F5F5F5F5F5F5F5F5F5F5F5F5F5F5F5F5F5F5F5F5F5F5F5F5F5F5F5F5E2F5F5F5F5F5F5F5F5F5F5F5F5F5F5F5F5F5F5F5F5E2E2EFF5F5F5F5F5F5F5F5F5F5F5F5F5F5F5F5F5F5F5F5
310
E2F5F5F5F5F5F5F5F5F5F5F5F5F5F5F5F5F5F5F5F5F5F5F5F5F5F5F5F5F5F5F5F5F5F5F5F5F5F5F5F5F5F5F5F5F5F5F5F5F5F5F5F5F5F5F5F5F5F5F5F5F5F5F5F5F5F5F5F5F5F5F5F5F5F5F5F5F5F5F5F5F5F5F5F5F5F5F5F5F5F5F5F5F5F5F5F5F5F5F5F5F5F5F5F5F5F5F5F5F5F5F5F5F5F5F5F5F5F5F5F5F5F5F5F5F5F5
310
F5F5F5F5F5F5F5F5F5E2F5F5F5F5F5F5F5F5F5F5F5F5F5F5F5F5F5F5F5F5E2E2EFF5F5F5E2F5F5F5F5F5F5F5F5F5F5F5F5F5F5F5F5E2F5F5F5F5F5F5F5F5F5F5F5F5F5F5F5F5F5F5F5F5F5F5F5F5F5F5F5F5F5F5F5F5F5F5F5F5F5F5F5F5F5F5F5F5F5F5F5F5F5F5F5F5F5F5F5F5F5F5F5F5F5F5F5F5F5F5F5F5F5F5F5F5F5
310
F5F5F5F5F5F5F5F5F5F5F5F5F5F5F5F5F5F5F5F5F5F5F5F5F5F5F5F5F5F5F5F5F5F5F5F5F5F5F5F5F5F5F5F5F5F5F5F5F5F5F5F5F5F5F5F5F5F5F5F5F5F5E2F5F5F5F5F5F5F5F5F5F5F5F5F5F5F5F5E2F5F5F5E2E2EFF5F5F5E2F5F5F5F5F5F5F5F5F5F5F5F5F5F5F5F5E2F5F5F5F5F5F5F5F5F5F5F5F5F5F5F5F5F5F5F5F5
310
F5F5F5F5F5F5F5F5F5F5F5F5F5F5F5F5F5F5F5F5F5F5F5F5F5F5F5F5F5F5F5F5F5F5F5F5F5F5F5F5F5F5F5F5F5F5F5F5F5F5F5F5F5F5F5F5F5F5F5F5F5F5F5F5F5F5F5F5F5F5F5F5F5F5F5F5F5F5F5F5F5F5F5F5F5F5F5F5F5F5F5F5F5F5F5F5F5F5F5F5F5F5F5F5F5F5F5F5F5F5F5F5F5F5F5E2F5F5F5F5F5F5F5F5F5F5F5
310
F5F5F5F5F5E2F5F5F5E2E2EFF5F5F5E2F5F5F5F5F5F5F5F5F5F5F5F5F5F5F5F5E2F5F5F5F5F5F5F5F5F5F5F5F5F5F5F5F5F5F5F5F5F5F5F5F5F5F5F5F5F5F5F5F5F5F5F5F5F5F5F5F5F5F5F5F5F5F5F5F5F5F5F5F5F5F5F5F5F5F5F5F5F5F5F5F5F5F5F5F5F5F5F5F5F5F5F5F5F5F5F5F5F5F5F5F5F5F5F5F5F5F5F5F5F5F5
310
F5F5F5F5F5F5F5F5F5F5F5F5F5F5F5F5F5F5F5F5F5F5F5F5F5F5F5F5F5F5F5F5F5F5F5F5F5F5F5F5F5E2F5F5F5F5F5F5F5F5F5F5F5F5F5F5F5F5E2F5F5F5E2E2EFF5F5F5E2F5F5F5F5F5F5F5F5F5F5F5F5F5F5F5F5E2F5F5F5F5F5F5F5F5F5F5F5F5F5F5F5F5F5F5F5F5F5F5F5F5F5F5F5F5F5F5F5F5F5F5F5F5F5F5F5F5F5
310
F5F5F5F5F5F5F5F5F5F5F5F5F5F5F5F5F5F5F5F5F5F5F5F5F5F5F5F5F5F5F5F5F5F5F5F5F5F5F5F5F5F5F5F5F5F5F5F5F5F5F5F5F5F5F5F5F5F5F5F5F5F5F5F5F5F5F5F5F5F5F5F5F5F5F5F5F5F5F5F5F5F5F5F5F5F5F5F5F5F5F5F5F5F5E2F5F5F5F5F5F5F5F5F5F5F5F5F5F5F5F5E2F5F5F5E2E2EFF5F5F5E2F5F5F5F5F5
310
F5F5F5F5F5F5F5F5F5F5F5E2F5F5F5F5F5F5F5F5F5F5F5F5F5F5F5F5F5F5F5F5F5F5F5F5F5F5F5F5F5F5F5F5F5F5F5F5F5F5F5F5F5F5F5F5F5F5F5F5F5F5F5F5F5F5F5F5F5F5F5F5F5F5F5F5F5F5F5F5F5F5F5F5F5F5F5F5F5F5F5F5F5F5F5F5F5F5F5F5F5F5F5F5F5F5F5F5F5F5F5F5F5F5F5F5F5F5F5F5F5F5F5F5F5F5F5
310
F5F5F5F5F5F5F5F5F5F5F5F5F5F5F5F5F5F5F5F5E2F5F5F5F5F5F5F5F5F5F5F5F5F5F5F5F5E2F5F5F5E2E2EFF5F5F5E2F5F5F5F5F5F5F5F5F5F5F5F5F5F5F5F5E2F5F5F5F5F5F5F5F5F5F5F5F5F5F5F5F5F5F5F5F5F5F5F5F5F5F5F5F5F5F5F5F5F5F5F5F5F5F5F5F5F5F5F5F5F5F5F5F5F5F5F5F5F5F5F5F5F5F5F5F5F5F5
310
F5F5F5F5F5F5F5F5F5F5F5F5F5F5F5F5F5F5F5F5F5F5F5F5F5F5F5F5F5F5F5F5F5F5F5F5F5F5F5F5F5F5F5F5F5F5F5F5F5F5F5F5F5F5F5F5F5F5F5F5F5F5F5F5F5F5F5F5F5F5F5F5F5E2F5F5F5F5F5F5F5F5F5F5F5F5F5F5F5F5E2F5F5F5E2E2EFF5F5F5E2F5F5F5F5F5F5F5F5F5F5F5F5F5F5F5F5E2F5F5F5F5F5F5F5F5F5
310
F5F5F5F5F5F5F5F5F5F5F5F5F5F5F5F5F5F5F5F5F5F5F5F5F5F5F5F5F5F5F5F5F5F5F5F5F5F5F5F5F5F5F5F5F5F5F5F5F5F5F5F5F5F5F5F5F5F5F5F5F5F5F5F5F5F5F5F5F5F5F5F5F5F5F5F5F5F5F5F5F5F5F5F5F5F5F5F5F5F5F5F5F5F5F5F5F5F5F5F5F5F5F5F5F5F5F5F5F5F5F5F5F5F5F5F5F5F5F5F5F5F5F5F5F5F5E2
310
F5F5F5F5F5F5F5F5F5F5F5F5F5F5F5F5E2F5F5F5E2E2EFF5F5F5E2F5F5F5F5F5F5F5F5F5F5F5F5F5F5F5F5E2F5F5F5F5F5F5F5F5F5F5F5F5F5F5F5F5F5F5F5F5F5F5F5F5F5F5F5F5F5F5F5F5F5F5F5F5F5F5F5F5F5F5F5F5F5F5F5F5F5F5F5F5F5F5F5F5F5F5F5F5F5F5F5F5F5F5F5F5F5F5F5F5F5F5F5F5F5F5F5F5F5F5F5
310
F5F5F5F5F5F5F5F5F5F5F5F5F5F5F5F5F5F5F5F5F5F5F5F5F5F5F5F5F5F5F5F5F5F5F5F5F5F5F5F5F5F5F5F5F5F5F5F5F5F5F5F5E2F5F5F5F5F5F5F5F5F5F5F5F5F5F5F5F5E2F5F5F5E2E2EFF5F5F5E2F5F5F5F5F5F5F5F5F5F5F5F5F5F5F5F5E2F5F5F5F5F5F5F5F5F5F5F5F5F5F5F5F5F5F5F5F5F5F5F5F5F5F5F5F5F5F5
310
F5F5F5F5F5F5F5F5F5F5F5F5F5F5F5F5F5F5F5F5F5F5F5F5F5F5F5F5F5F5F5F5F5F5F5F5F5F5F5F5F5F5F5F5F5F5F5F5F5F5F5F5F5F5F5F5F5F5F5F5F5F5F5F5F5F5F5F5F5F5F5F5F5F5F5F5F5F5F5F5F5F5F5F5F5F5F5F5F5F5F5F5F5F5F5F5F5F5F5F5F5F5F5F5F5E2F5F5F5F5F5F5F5F5F5F5F5F5F5F5F5F5E2F5F5F5E2
310
E2EFF5F5F5E2F5F5F5F5F5F5F5F5F5F5F5F5F5F5F5F5E2F5F5F5F5F5F5F5F5F5F5F5F5F5F5F5F5F5F5F5F5F5F5F5F5F5F5F5F5F5F5F5F5F5F5F5F5F5F5F5F5F5F5F5F5F5F5F5F5F5F5F5F5F5F5F5F5F5F5F5F5F5F5F5F5F5F5F5F5F5F5F5F5F5F5F5F5F5F5F5F5F5F5F5F5F5F5F5F5F5F5F5F5F5F5F5F5F5F5F5F5F5F5F5F5
310
F5F5F5F5F5F5F5F5F5F5F5F5F5F5F5F5F5F5F5F5F5F5F5F5F5F5F5F5F5F5F5E2F5F5F5F5F5F5F5F5F5F5F5F5F5F5F5F5E2F5F5F5E2E2EFF5F5F5E2F5F5F5F5F5F5F5F5F5F5F5F5F5F5F5F5E2F5F5F5F5F5F5F5F5F5F5F5F5F5F5F5F5F5F5F5F5F5F5F5F5F5F5F5F5F5F5F5F5F5F5F5F5F5F5F5F5F5F5F5F5F5F5F5F5F5F5F5
310
F5F5F5F5F5F5F5F5F5F5F5F5F5F5F5F5F5F5F5F5F5F5F5F5F5F5F5F5F5F5F5F5F5F5F5F5F5F5F5F5F5F5F5F5F5F5F5F5F5F5F5F5F5F5F5F5F5F5F5F5F5F5F5F5F5F5F5F5F5F5F5F5F5F5F5F5F5F5F5F5F5F5F5F5E2F5F5F5F5F5F5F5F5F5F5F5F5F5F5F5F5E2F5F5F5E2E2EFF5F5F5E2F5F5F5F5F5F5F5F5F5F5F5F5F5F5F5
310
F5E2F5F5F5F5F5F5F5F5F5F5F5F5F5F5F5F5F5F5F5F5F5F5F5F5F5F5F5F5F5F5F5F5F5F5F5F5F5F5F5F5F5F5F5F5F5F5F5F5F5F5F5F5F5F5F5F5F5F5F5F5F5F5F5F5F5F5F5F5F5F5F5F5F5F5F5F5F5F5F5F5F5F5F5F5F5F5F5F5F5F5F5F5F5F5F5F5F5F5F5F5F5F5F5F5F5F5F5F5F5F5F5F5F5F5F5F5F5F5F5F5F5F5F5F5F5
310
F5F5F5F5F5F5F5F5F5F5E2F5F5F5F5F5F5F5F5F5F5F5F5F5F5F5F5E2F5F5F5E2E2EFF5F5F5E2F5F5F5F5F5F5F5F5F5F5F5F5F5F5F5F5E2F5F5F5F5F5F5F5F5F5F5F5F5F5F5F5F5F5F5F5F5F5F5F5F5F5F5F5F5F5F5F5F5F5F5F5F5F5F5F5F5F5F5F5F5F5F5F5F5F5F5F5F5F5F5F5F5F5F5F5F5F5F5F5F5F5F5F5F5F5F5F5F5
310
F5F5F5F5F5F5F5F5F5F5F5F5F5F5F5F5F5F5F5F5F5F5F5F5F5F5F5F5F5F5F5F5F5F5F5F5F5F5F5F5F5F5F5F5F5F5F5F5F5F5F5F5F5F5F5F5F5F5F5F5F5F5F5E2F5F5F5F5F5F5F5F5F5F5F5F5F5F5F5F5E2F5F5F5E2E2EFF5F5F5E2F5F5F5F5F5F5F5F5F5F5F5F5F5F5F5F5E2F5F5F5F5F5F5F5F5F5F5F5F5F5F5F5F5F5F5F5
310
F5F5F5F5F5F5F5F5F5F5F5F5F5F5F5F5F5F5F5F5F5F5F5F5F5F5F5F5F5F5F5F5F5F5F5F5F5F5F5F5F5F5F5F5F5F5F5F5F5F5F5F5F5F5F5F5F5F5F5F5F5F5F5F5F5F5F5F5F5F5F5F5F5F5F5F5F5F5F5F5F5F5F5F5F5F5F5F5F5F5F5F5F5F5F5F5F5F5F5F5F5F5F5F5F5F5F5F5F5F5F5F5F5F5F5F5E2F5F5F5F5F5F5F5F5F5F5
310
F5F5F5F5F5F5E2F5F5F5E2E2EFF5F5F5E2F5F5F5F5F5F5F5F5F5F5F5F5F5F5F5F5E2F5F5F5F5F5F5F5F5F5F5F5F5F5F5F5F5F5F5F5F5F5F5F5F5F5F5F5F5F5F5F5F5F5F5F5F5F5F5F5F5F5F5F5F5F5F5F5F5F5F5F5F5F5F5F5F5F5F5F5F5F5F5F5F5F5F5F5F5F5F5F5F5F5F5F5F5F5F5F5F5F5F5F5F5F5F5F5F5F5F5F5F5F5
310
F5F5F5F5F5F5F5F5F5F5F5F5F5F5F5F5F5F5F5F5F5F5F5F5F5F5F5F5F5F5F5F5F5F5F5F5F5F5F5F5F5F5E2F5F5F5F5F5F5F5F5F5F5F5F5F5F5F5F5E2F5F5F5E2E2EFF5F5F5E2F5F5F5F5F5F5F5F5F5F5F5F5F5F5F5F5E2F5F5F5F5F5F5F5F5F5F5F5F5F5F5F5F5F5F5F5F5F5F5F5F5F5F5F5F5F5F5F5F5F5F5F5F5F5F5F5F5
310
F5F5F5F5F5F5F5F5F5F5F5F5F5F5F5F5F5F5F5F5F5F5F5F5F5F5F5F5F5F5F5F5F5F5F5F5F5F5F5F5F5F5F5F5F5F5F5F5F5F5F5F5F5F5F5F5F5F5F5F5F5F5F5F5F5F5F5F5F5F5F5F5F5F5F5F5F5F5F5F5F5F5F5F5F5F5F5F5F5F5F5F5F5F5F5E2F5F5F5F5F5F5F5F5F5F5F5F5F5F5F5F5E2F5F5F5E2E2EFF5F5F5E2F5F5F5F5
310
F5F5F5F5F5F5F5F5F5F5F5F5E2F5F5F5F5F5F5F5F5F5F5F5F5F5F5F5F5F5F5F5F5F5F5F5F5F5F5F5F5F5F5F5F5F5F5F5F5F5F5F5F5F5F5F5F5F5F5F5F5F5F5F5F5F5F5F5F5F5F5F5F5F5F5F5F5F5F5F5F5F5F5F5F5F5F5F5F5F5F5F5F5F5F5F5F5F5F5F5F5F5F5F5F5F5F5F5F5F5F5F5F5F5F5F5F5F5F5F5F5F5F5F5F5F5F5
310
F5F5F5F5F5F5F5F5F5F5F5F5F5F5F5F5F5F5F5F5F5E2F5F5F5F5F5F5F5F5F5F5F5F5F5F5F5F5E2F5F5F5E2E2EFF5F5F5F5F5F5F5F5F5F5F5F5F5F5F5F5F5F5F5F5E2F5F5F5F5F5F5F5F5F5F5F5F5F5F5F5F5F5F5F5F5F5F5F5F5F5F5F5F5F5F5F5F5F5F5F5F5F5F5F5F5F5F5F5F5F5F5F5F5F5F5F5F5F5F5F5F5F5F5F5F5F5
310
F5F5F5F5F5F5F5F5F5F5F5F5F5F5F5F5F5F5F5F5F5F5F5F5F5F5F5F5F5F5F5F5F5F5F5F5F5F5F5F5F5F5F5F5F5F5F5F5F5F5F5F5F5F5F5F5F5F5F5F5F5F5F5F5F5F5F5F5F5F5F5F5F5F5E2F5F5F5F5F5F5F5F5F5F5F5F5F5F5F5F5F5F5F5F5E2E2EFF5F5F5F5F5F5F5F5F5F5F5F5F5F5F5F5F5F5F5F5E2F5F5F5F5F5F5F5F5
310
F5F5F5F5F5F5F5F5F5F5F5F5F5F5F5F5F5F5F5F5F5F5F5F5F5F5F5F5F5F5F5F5F5F5F5F5F5F5F5F5F5F5F5F5F5F5F5F5F5F5F5F5F5F5F5F5F5F5F5F5F5F5F5F5F5F5F5F5F5F5F5F5F5F5F5F5F5F5F5F5F5F5F5F5F5F5F5F5F5F5F5F5F5F5F5F5F5F5F5F5F5F5F5F5F5F5F5F5F5F5F5F5F5F5F5F5F5F5F5F5F5F5F5F5F5F5F5
310
E2F5F5F5F5F5F5F5F5F5F5F5F5F5F5F5F5F5F5F5F5E2E2EFF5F5F5F5F5F5F5F5F5F5F5F5F5F5F5F5F5F5F5F5E2F5F5F5F5F5F5F5F5F5F5F5F5F5F5F5F5F5F5F5F5F5F5F5F5F5F5F5F5F5F5F5F5F5F5F5F5F5F5F5F5F5F5F5F5F5F5F5F5F5F5F5F5F5F5F5F5F5F5F5F5F5F5F5F5F5F5F5F5F5F5F5F5F5F5F5F5F5F5F5F5F5F5
310
F5F5F5F5F5F5F5F5F5F5F5F5F5F5F5F5F5F5F5F5F5F5F5F5F5F5F5F5F5F5F5F5F5F5F5F5F5F5F5F5F5F5F5F5F5F5F5F5F5F5F5F5F5E2F5F5F5F5F5F5F5F5F5F5F5F5F5F5F5F5F5F5F5F5E2E2EFF5F5F5F5F5F5F5F5F5F5F5F5F5F5F5F5F5F5F5F5E2F5F5F5F5F5F5F5F5F5F5F5F5F5F5F5F5F5F5F5F5F5F5F5F5F5F5F5F5F5
310
F5F5F5F5F5F5F5F5F5F5F5F5F5F5F5F5F5F5F5F5F5F5F5F5F5F5F5F5F5F5F5F5F5F5F5F5F5F5F5F5F5F5F5F5F5F5F5F5F5F5F5F5F5F5F5F5F5F5F5F5F5F5F5F5F5F5F5F5F5F5F5F5F5F5F5F5F5F5F5F5F5F5F5F5F5F5F5F5F5F5F5F5F5F5F5F5F5F5F5F5F5F5F5F5F5F5E2F5F5F5F5F5F5F5F5F5F5F5F5F5F5F5F5F5F5F5F5
310
E2E2EFF5F5F5F5F5F5F5F5F5F5F5F5F5F5F5F5F5F5F5F5E2F5F5F5F5F5F5F5F5F5F5F5F5F5F5F5F5F5F5F5F5F5F5F5F5F5F5F5F5F5F5F5F5F5F5F5F5F5F5F5F5F5F5F5F5F5F5F5F5F5F5F5F5F5F5F5F5F5F5F5F5F5F5F5F5F5F5F5F5F5F5F5F5F5F5F5F5F5F5F5F5F5F5F5F5F5F5F5F5F5F5F5F5F5F5F5F5F5F5F5F5F5F5F5
310
F5F5F5F5F5F5F5F5F5F5F5F5F5F5F5F5F5F5F5F5F5F5F5F5F5F5F5F5F5F5F5F5E2F5F5F5F5F5F5F5F5F5F5F5F5F5F5F5F5F5F5F5F5E2E2EFF5F5F5F5F5F5F5F5F5F5F5F5F5F5F5F5F5F5F5F5E2F5F5F5F5F5F5F5F5F5F5F5F5F5F5F5F5F5F5F5F5F5F5F5F5F5F5F5F5F5F5F5F5F5F5F5F5F5F5F5F5F5F5F5F5F5F5F5F5F5F5
310
F5F5F5F5F5F5F5F5F5F5F5F5F5F5F5F5F5F5F5F5F5F5F5F5F5F5F5F5F5F5F5F5F5F5F5F5F5F5F5F5F5F5F5F5F5F5F5F5F5F5F5F5F5F5F5F5F5F5F5F5F5F5F5F5F5F5F5F5F5F5F5F5F5F5F5F5F5F5F5F5F5F5F5F5F5E2F5F5F5F5F5F5F5F5F5F5F5F5F5F5F5F5F5F5F5F5E2E2EFF5F5F5F5F5F5F5F5F5F5F5F5F5F5F5F5F5F5
310
F5F5E2F5F5F5F5F5F5F5F5F5F5F5F5F5F5F5F5F5F5F5F5F5F5F5F5F5F5F5F5F5F5F5F5F5F5F5F5F5F5F5F5F5F5F5F5F5F5F5F5F5F5F5F5F5F5F5F5F5F5F5F5F5F5F5F5F5F5F5F5F5F5F5F5F5F5F5F5F5F5F5F5F5F5F5F5F5F5F5F5F5F5F5F5F5F5F5F5F5F5F5F5F5F5F5F5F5F5F5F5F5F5F5F5F5F5F5F5F5F5F5F5F5F5F5F5
310
F5F5F5F5F5F5F5F5F5F5F5E2F5F5F5F5F5F5F5F5F5F5F5F5F5F5F5F5F5F5F5F5E2E2EFF5F5F5F5F5F5F5F5F5F5F5F5F5F5F5F5F5F5F5F5E2F5F5F5F5F5F5F5F5F5F5F5F5F5F5F5F5F5F5F5F5F5F5F5F5F5F5F5F5F5F5F5F5F5F5F5F5F5F5F5F5F5F5F5F5F5F5F5F5F5F5F5F5F5F5F5F5F5F5F5F5F5F5F5F5F5F5F5F5F5F5F5
310
F5F5F5F5F5F5F5F5F5F5F5F5F5F5F5F5F5F5F5F5F5F5F5F5F5F5F5F5F5F5F5F5F5F5F5F5F5F5F5F5F5F5F5F5F5F5F5F5F5F5F5F5F5F5F5F5F5F5F5F5F5F5F5F5E2F5F5F5F5F5F5F5F5F5F5F5F5F5F5F5F5F5F5F5F5E2E2EFF5F5F5F5F5F5F5F5F5F5F5F5F5F5F5F5F5F5F5F5E2F5F5F5F5F5F5F5F5F5F5F5F5F5F5F5F5F5F5
310
F5F5F5F5F5F5F5F5F5F5F5F5F5F5F5F5F5F5F5F5F5F5F5F5F5F5F5F5F5F5F5F5F5F5F5F5F5F5F5F5F5F5F5F5F5F5F5F5F5F5F5F5F5F5F5F5F5F5F5F5F5F5F5F5F5F5F5F5F5F5F5F5F5F5F5F5F5F5F5F5F5F5F5F5F5F5F5F5F5F5F5F5F5F5F5F5F5F5F5F5F5F5F5F5F5F5F5F5F5F5F5F5F5F5F5F5F5E2F5F5F5F5F5F5F5F5F5
310
F5F5F5F5F5F5F5F5F5F5F5E2E2EFF5F5F5E2F5F5F5F5F5F5F5F5F5F5F5F5F5F5F5F5E2F5F5F5F5F5F5F5F5F5F5F5F5F5F5F5F5F5F5F5F5F5F5F5F5F5F5F5F5F5F5F5F5F5F5F5F5F5F5F5F5F5F5F5F5F5F5F5F5F5F5F5F5F5F5F5F5F5F5F5F5F5F5F5F5F5F5F5F5F5F5F5F5F5F5F5F5F5F5F5F5F5F5F5F5F5F5F5F5F5F5F5F5
310
F5F5F5F5F5F5F5F5F5F5F5F5F5F5F5F5F5F5F5F5F5F5F5F5F5F5F5F5F5F5F5F5F5F5F5F5F5F5F5F5F5F5F5E2F5F5F5F5F5F5F5F5F5F5F5F5F5F5F5F5E2F5F5F5E2E2EFF5F5F5E2F5F5F5F5F5F5F5F5F5F5F5F5F5F5F5F5E2F5F5F5F5F5F5F5F5F5F5F5F5F5F5F5F5F5F5F5F5F5F5F5F5F5F5F5F5F5F5F5F5F5F5F5F5F5F5F5
310
F5F5F5F5F5F5F5F5F5F5F5F5F5F5F5F5F5F5F5F5F5F5F5F5F5F5F5F5F5F5F5F5F5F5F5F5F5F5F5F5F5F5F5F5F5F5F5F5F5F5F5F5F5F5F5F5F5F5F5F5F5F5F5F5F5F5F5F5F5F5F5F5F5F5F5F5F5F5F5F5F5F5F5F5F5F5F5F5F5F5F5F5F5F5F5F5E2F5F5F5F5F5F5F5F5F5F5F5F5F5F5F5F5E2F5F5F5E2E2EFF5F5F5E2F5F5F5
310
F5F5F5F5F5F5F5F5F5F5F5F5F5E2F5F5F5F5F5F5F5F5F5F5F5F5F5F5F5F5F5F5F5F5F5F5F5F5F5F5F5F5F5F5F5F5F5F5F5F5F5F5F5F5F5F5F5F5F5F5F5F5F5F5F5F5F5F5F5F5F5F5F5F5F5F5F5F5F5F5F5F5F5F5F5F5F5F5F5F5F5F5F5F5F5F5F5F5F5F5F5F5F5F5F5F5F5F5F5F5F5F5F5F5F5F5F5F5F5F5F5F5F5F5F5F5F5
310
F5F5F5F5F5F5F5F5F5F5F5F5F5F5F5F5F5F5F5F5F5F5E2F5F5F5F5F5F5F5F5F5F5F5F5F5F5F5F5E2F5F5F5E2E2EFF5F5F5E2F5F5F5F5F5F5F5F5F5F5F5F5F5F5F5F5E2F5F5F5F5F5F5F5F5F5F5F5F5F5F5F5F5F5F5F5F5F5F5F5F5F5F5F5F5F5F5F5F5F5F5F5F5F5F5F5F5F5F5F5F5F5F5F5F5F5F5F5F5F5F5F5F5F5F5F5F5
310
F5F5F5F5F5F5F5F5F5F5F5F5F5F5F5F5F5F5F5F5F5F5F5F5F5F5F5F5F5F5F5F5F5F5F5F5F5F5F5F5F5F5F5F5F5F5F5F5F5F5F5F5F5F5F5F5F5F5F5F5F5F5F5F5F5F5F5F5F5F5F5F5F5F5F5E2F5F5F5F5F5F5F5F5F5F5F5F5F5F5F5F5E2F5F5F5E2E2EFF5F5F5E2F5F5F5F5F5F5F5F5F5F5F5F5F5F5F5F5E2F5F5F5F5F5F5F5
310
F5F5F5F5F5F5F5F5F5F5F5F5F5F5F5F5F5F5F5F5F5F5F5F5F5F5F5F5F5F5F5F5F5F5F5F5F5F5F5F5F5F5F5F5F5F5F5F5F5F5F5F5F5F5F5F5F5F5F5F5F5F5F5F5F5F5F5F5F5F5F5F5F5F5F5F5F5F5F5F5F5F5F5F5F5F5F5F5F5F5F5F5F5F5F5F5F5F5F5F5F5F5F5F5F5F5F5F5F5F5F5F5F5F5F5F5F5F5F5F5F5F5F5F5F5F5F5
310
F5E2F5F5F5F5F5F5F5F5F5F5F5F5F5F5F5F5E2F5F5F5E2E2EFF5F5F5E2F5F5F5F5F5F5F5F5F5F5F5F5F5F5F5F5E2F5F5F5F5F5F5F5F5F5F5F5F5F5F5F5F5F5F5F5F5F5F5F5F5F5F5F5F5F5F5F5F5F5F5F5F5F5F5F5F5F5F5F5F5F5F5F5F5F5F5F5F5F5F5F5F5F5F5F5F5F5F5F5F5F5F5F5F5F5F5F5F5F5F5F5F5F5F5F5F5F5
310
F5F5F5F5F5F5F5F5F5F5F5F5F5F5F5F5F5F5F5F5F5F5F5F5F5F5F5F5F5F5F5F5F5F5F5F5F5F5F5F5F5F5F5F5F5F5F5F5F5F5F5F5F5F5E2F5F5F5F5F5F5F5F5F5F5F5F5F5F5F5F5E2F5F5F5E2E2EFF5F5F5E2F5F5F5F5F5F5F5F5F5F5F5F5F5F5F5F5E2F5F5F5F5F5F5F5F5F5F5F5F5F5F5F5F5F5F5F5F5F5F5F5F5F5F5F5F5
310
F5F5F5F5F5F5F5F5F5F5F5F5F5F5F5F5F5F5F5F5F5F5F5F5F5F5F5F5F5F5F5F5F5F5F5F5F5F5F5F5F5F5F5F5F5F5F5F5F5F5F5F5F5F5F5F5F5F5F5F5F5F5F5F5F5F5F5F5F5F5F5F5F5F5F5F5F5F5F5F5F5F5F5F5F5F5F5F5F5F5F5F5F5F5F5F5F5F5F5F5F5F5F5F5F5F5F5E2F5F5F5F5F5F5F5F5F5F5F5F5F5F5F5F5E2F5F5
310
F5E2E2EFF5F5F5E2F5F5F5F5F5F5F5F5F5F5F5F5F5F5F5F5E2F5F5F5F5F5F5F5F5F5F5F5F5F5F5F5F5F5F5F5F5F5F5F5F5F5F5F5F5F5F5F5F5F5F5F5F5F5F5F5F5F5F5F5F5F5F5F5F5F5F5F5F5F5F5F5F5F5F5F5F5F5F5F5F5F5F5F5F5F5F5F5F5F5F5F5F5F5F5F5F5F5F5F5F5F5F5F5F5F5F5F5F5F5F5F5F5F5F5F5F5F5F5
310
F5F5F5F5F5F5F5F5F5F5F5F5F5F5F5F5F5F5F5F5F5F5F5F5F5F5F5F5F5F5F5F5F5E2F5F5F5F5F5F5F5F5F5F5F5F5F5F5F5F5E2F5F5F5E2E2EFF5F5F5E2F5F5F5F5F5F5F5F5F5F5F5F5F5F5F5F5E2F5F5F5F5F5F5F5F5F5F5F5F5F5F5F5F5F5F5F5F5F5F5F5F5F5F5F5F5F5F5F5F5F5F5F5F5F5F5F5F5F5F5F5F5F5F5F5F5F5
310
F5F5F5F5F5F5F5F5F5F5F5F5F5F5F5F5F5F5F5F5F5F5F5F5F5F5F5F5F5F5F5F5F5F5F5F5F5F5F5F5F5F5F5F5F5F5F5F5F5F5F5F5F5F5F5F5F5F5F5F5F5F5F5F5F5F5F5F5F5F5F5F5F5F5F5F5F5F5F5F5F5F5F5F5F5F5E2F5F5F5F5F5F5F5F5F5F5F5F5F5F5F5F5E2F5F5F5E2E2EFF5F5F5E2F5F5F5F5F5F5F5F5F5F5F5F5F5
310
F5F5F5E2F5F5F5F5F5F5F5F5F5F5F5F5F5F5F5F5F5F5F5F5F5F5F5F5F5F5F5F5F5F5F5F5F5F5F5F5F5F5F5F5F5F5F5F5F5F5F5F5F5F5F5F5F5F5F5F5F5F5F5F5F5F5F5F5F5F5F5F5F5F5F5F5F5F5F5F5F5F5F5F5F5F5F5F5F5F5F5F5F5F5F5F5F5F5F5F5F5F5F5F5F5F5F5F5F5F5F5F5F5F5F5F5F5F5F5F5F5F5F5F5F5F5F5
310
F5F5F5F5F5F5F5F5F5F5F5F5E2F5F5F5F5F5F5F5F5F5F5F5F5F5F5F5F5E2F5F5F5E2E2EFF5F5F5E2F5F5F5F5F5F5F5F5F5F5F5F5F5F5F5F5E2F5F5F5F5F5F5F5F5F5F5F5F5F5F5F5F5F5F5F5F5F5F5F5F5F5F5F5F5F5F5F5F5F5F5F5F5F5F5F5F5F5F5F5F5F5F5F5F5F5F5F5F5F5F5F5F5F5F5F5F5F5F5F5F5F5F5F5F5F5F5
310
F5F5F5F5F5F5F5F5F5F5F5F5F5F5F5F5F5F5F5F5F5F5F5F5F5F5F5F5F5F5F5F5F5F5F5F5F5F5F5F5F5F5F5F5F5F5F5F5F5F5F5F5F5F5F5F5F5F5F5F5F5F5F5F5F5E2F5F5F5F5F5F5F5F5F5F5F5F5F5F5F5F5E2F5F5F5E2E2EFF5F5F5E2F5F5F5F5F5F5F5F5F5F5F5F5F5F5F5F5E2F5F5F5F5F5F5F5F5F5F5F5F5F5F5F5F5F5
310
F5F5F5F5F5F5F5F5F5F5F5F5F5F5F5F5F5F5F5F5F5F5F5F5F5F5F5F5F5F5F5F5F5F5F5F5F5F5F5F5F5F5F5F5F5F5F5F5F5F5F5F5F5F5F5F5F5F5F5F5F5F5F5F5F5F5F5F5F5F5F5F5F5F5F5F5F5F5F5F5F5F5F5F5F5F5F5F5F5F5F5F5F5F5F5F5F5F5F5F5F5F5F5F5F5F5F5F5F5F5F5F5F5F5F5F5F5F5E2F5F5F5F5F5F5F5F5
310
F5F5F5F5F5F5F5F5E2F5F5F5E2E2EFF5F5F5E2F5F5F5F5F5F5F5F5F5F5F5F5F5F5F5F5E2F5F5F5F5F5F5F5F5F5F5F5F5F5F5F5F5F5F5F5F5F5F5F5F5F5F5F5F5F5F5F5F5F5F5F5F5F5F5F5F5F5F5F5F5F5F5F5F5F5F5F5F5F5F5F5F5F5F5F5F5F5F5F5F5F5F5F5F5F5F5F5F5F5F5F5F5F5F5F5F5F5F5F5F5F5F5F5F5F5F5F5
310
F5F5F5F5F5F5F5F5F5F5F5F5F5F5F5F5F5F5F5F5F5F5F5F5F5F5F5F5F5F5F5F5F5F5F5F5F5F5F5F5F5F5F5F5E2F5F5F5F5F5F5F5F5F5F5F5F5F5F5F5F5E2F5F5F5E2E2EFF5F5F5E2F5F5F5F5F5F5F5F5F5F5F5F5F5F5F5F5E2F5F5F5F5F5F5F5F5F5F5F5F5F5F5F5F5F5F5F5F5F5F5F5F5F5F5F5F5F5F5F5F5F5F5F5F5F5F5
310
F5F5F5F5F5F5F5F5F5F5F5F5F5F5F5F5F5F5F5F5F5F5F5F5F5F5F5F5F5F5F5F5F5F5F5F5F5F5F5F5F5F5F5F5F5F5F5F5F5F5F5F5F5F5F5F5F5F5F5F5F5F5F5F5F5F5F5F5F5F5F5F5F5F5F5F5F5F5F5F5F5F5F5F5F5F5F5F5F5F5F5F5F5F5F5F5F5E2F5F5F5F5F5F5F5F5F5F5F5F5F5F5F5F5E2F5F5F5E2E2EFF5F5F5E2F5F5
310
F5F5F5F5F5F5F5F5F5F5F5F5F5F5E2F5F5F5F5F5F5F5F5F5F5F5F5F5F5F5F5F5F5F5F5F5F5F5F5F5F5F5F5F5F5F5F5F5F5F5F5F5F5F5F5F5F5F5F5F5F5F5F5F5F5F5F5F5F5F5F5F5F5F5F5F5F5F5F5F5F5F5F5F5F5F5F5F5F5F5F5F5F5F5F5F5F5F5F5F5F5F5F5F5F5F5F5F5F5F5F5F5F5F5F5F5F5F5F5F5F5F5F5F5F5F5F5
310
F5F5F5F5F5F5F5F5F5F5F5F5F5F5F5F5F5F5F5F5F5F5F5E2F5F5F5F5F5F5F5F5F5F5F5F5F5F5F5F5E2F5F5F5E2E2EFF5F5F5E2F5F5F5F5F5F5F5F5F5F5F5F5F5F5F5F5E2F5F5F5F5F5F5F5F5F5F5F5F5F5F5F5F5F5F5F5F5F5F5F5F5F5F5F5F5F5F5F5F5F5F5F5F5F5F5F5F5F5F5F5F5F5F5F5F5F5F5F5F5F5F5F5F5F5F5F5
310
F5F5F5F5F5F5F5F5F5F5F5F5F5F5F5F5F5F5F5F5F5F5F5F5F5F5F5F5F5F5F5F5F5F5F5F5F5F5F5F5F5F5F5F5F5F5F5F5F5F5F5F5F5F5F5F5F5F5F5F5F5F5F5F5F5F5F5F5F5F5F5F5F5F5F5F5E2F5F5F5F5F5F5F5F5F5F5F5F5F5F5F5F5E2F5F5F5E2E2EFF5F5F5E2F5F5F5F5F5F5F5F5F5F5F5F5F5F5F5F5E2F5F5F5F5F5F5
310
F5F5F5F5F5F5F5F5F5F5F5F5F5F5F5F5F5F5F5F5F5F5F5F5F5F5F5F5F5F5F5F5F5F5F5F5F5F5F5F5F5F5F5F5F5F5F5F5F5F5F5F5F5F5F5F5F5F5F5F5F5F5F5F5F5F5F5F5F5F5F5F5F5F5F5F5F5F5F5F5F5F5F5F5F5F5F5F5F5F5F5F5F5F5F5F5F5F5F5F5F5F5F5F5F5F5F5F5F5F5F5F5F5F5F5F5F5F5F5F5F5F5F5F5F5F5F5
310
F5F5E2F5F5F5F5F5F5F5F5F5F5F5F5F5F5F5F5E2F5F5F5E2E2EFF5F5F5F5F5F5F5F5F5F5F5F5F5F5F5F5F5F5F5F5E2F5F5F5F5F5F5F5F5F5F5F5F5F5F5F5F5F5F5F5F5F5F5F5F5F5F5F5F5F5F5F5F5F5F5F5F5F5F5F5F5F5F5F5F5F5F5F5F5F5F5F5F5F5F5F5F5F5F5F5F5F5F5F5F5F5F5F5F5F5F5F5F5F5F5F5F5F5F5F5F5
310
F5F5F5F5F5F5F5F5F5F5F5F5F5F5F5F5F5F5F5F5F5F5F5F5F5F5F5F5F5F5F5F5F5F5F5F5F5F5F5F5F5F5F5F5F5F5F5F5F5F5F5F5F5F5F5E2F5F5F5F5F5F5F5F5F5F5F5F5F5F5F5F5F5F5F5F5E2E2EFF5F5F5F5F5F5F5F5F5F5F5F5F5F5F5F5F5F5F5F5E2F5F5F5F5F5F5F5F5F5F5F5F5F5F5F5F5F5F5F5F5F5F5F5F5F5F5F5
310
F5F5F5F5F5F5F5F5F5F5F5F5F5F5F5F5F5F5F5F5F5F5F5F5F5F5F5F5F5F5F5F5F5F5F5F5F5F5F5F5F5F5F5F5F5F5F5F5F5F5F5F5F5F5F5F5F5F5F5F5F5F5F5F5F5F5F5F5F5F5F5F5F5F5F5F5F5F5F5F5F5F5F5F5F5F5F5F5F5F5F5F5F5F5F5F5F5F5F5F5F5F5F5F5F5F5F5F5E2F5F5F5F5F5F5F5F5F5F5F5F5F5F5F5F5F5F5
310
F5F5E2E2EFF5F5F5F5F5F5F5F5F5F5F5F5F5F5F5F5F5F5F5F5E2F5F5F5F5F5F5F5F5F5F5F5F5F5F5F5F5F5F5F5F5F5F5F5F5F5F5F5F5F5F5F5F5F5F5F5F5F5F5F5F5F5F5F5F5F5F5F5F5F5F5F5F5F5F5F5F5F5F5F5F5F5F5F5F5F5F5F5F5F5F5F5F5F5F5F5F5F5F5F5F5F5F5F5F5F5F5F5F5F5F5F5F5F5F5F5F5F5F5F5F5F5
310
F5F5F5F5F5F5F5F5F5F5F5F5F5F5F5F5F5F5F5F5F5F5F5F5F5F5F5F5F5F5F5F5F5F5E2F5F5F5F5F5F5F5F5F5F5F5F5F5F5F5F5F5F5F5F5E2E2EFF5F5F5F5F5F5F5F5F5F5F5F5F5F5F5F5F5F5F5F5E2F5F5F5F5F5F5F5F5F5F5F5F5F5F5F5F5F5F5F5F5F5F5F5F5F5F5F5F5F5F5F5F5F5F5F5F5F5F5F5F5F5F5F5F5F5F5F5F5
310
F5F5F5F5F5F5F5F5F5F5F5F5F5F5F5F5F5F5F5F5F5F5F5F5F5F5F5F5F5F5F5F5F5F5F5F5F5F5F5F5F5F5F5F5F5F5F5F5F5F5F5F5F5F5F5F5F5F5F5F5F5F5F5F5F5F5F5F5F5F5F5F5F5F5F5F5F5F5F5F5F5F5F5F5F5F5F5E2F5F5F5F5F5F5F5F5F5F5F5F5F5F5F5F5F5F5F5F5E2E2EFF5F5F5F5F5F5F5F5F5F5F5F5F5F5F5F5
310
F5F5F5F5E2E2E2E2E2E2E2E2E2E2E2E2E2E2E2E2E2E2E2E2E2E2E2E2E2E2E2E2E2E2E2E2E2E2E2E2E2E2E2E2E2E2E2E2E2E2E2E2E2E2E2E2E2E2E2E2E2E2E2E2E2E2E2E2E2E2E2E2E2E2E2E2E2E2E2E2E2E2E2E2E2E2E2E2E2E2E2E2E2E2E2E2E2E2E2E2E2E2E2E2E2E2E2E2E2E2E2E2E2E2E2E2E2E2E2E2E2E2E2E2E2E2E2
310
E2E2E2E2E2E2E2E2E2E2E2E2E2E2F5F5F5F5F5F5F5F5F5F5F5F5F5F5F5F5F5F5F5F5E2E2EFF5F5F5F5F5F5F5F5F5F5F5F5F5F5F5F5F5F5F5F5F5F5F5F5F5F5F5F5F5F5F5F5F5F5F5F5F5F5F5F5F5F5F5F5F5F5F5F5F5F5F5F5F5F5F5F5F5F5F5F5F5F5F5F5F5F5F5F5F5F5F5F5F5F5F5F5F5F5F5F5F5F5F5F5F5F5F5F5F5F5
310
F5F5F5F5F5F5F5F5F5F5F5F5F5F5F5F5F5F5F5F5F5F5F5F5F5F5F5F5F5F5F5F5F5F5F5F5F5F5F5F5F5F5F5F5F5F5F5F5F5F5F5F5F5F5F5F5F5F5F5F5F5F5F5F5F5F5F5F5F5F5F5F5F5F5F5F5F5F5F5F5F5F5F5F5F5F5F5E2E2EFF5F5F5F5F5F5F5F5F5F5F5F5F5F5F5F5F5F5F5F5F5F5F5F5F5F5F5F5F5F5F5F5F5F5F5F5F5
310
F5F5F5F5F5F5F5F5F5F5F5F5F5F5F5F5F5F5F5F5F5F5F5F5F5F5F5F5F5F5F5F5F5F5F5F5F5F5F5F5F5F5F5F5F5F5F5F5F5F5F5F5F5F5F5F5F5F5F5F5F5F5F5F5F5F5F5F5F5F5F5F5F5F5F5F5F5F5F5F5F5F5F5F5F5F5F5F5F5F5F5F5F5F5F5F5F5F5F5F5F5F5F5F5F5F5F5F5F5F5F5F5F5F5F5F5F5F5F5F5F5F5F5F5F5F5F5
310
F5F5F5F5F5F5F5F5F5F5F5F5F5E2E2EFF5F5F5F5F5F5F5F5F5F5F5F5F5F5F5F5F5F5F5F5F5F5F5F5F5F5F5F5F5F5F5F5F5F5F5F5F5F5F5F5F5F5F5F5F5F5F5F5F5F5F5F5F5F5F5F5F5F5F5F5F5F5F5F5F5F5F5F5F5F5F5F5F5F5F5F5F5F5F5F5F5F5F5F5F5F5F5F5F5F5F5F5F5F5F5F5F5F5F5F5F5F5F5F5F5F5F5F5F5F5F5
310
F5F5F5F5F5F5F5F5F5F5F5F5F5F5F5F5F5F5F5F5F5F5F5F5F5F5F5F5F5F5F5F5F5F5F5F5F5F5F5F5F5F5F5F5F5F5F5F5F5F5F5F5F5F5F5F5F5F5F5F5F5F5F5F5F5F5E2E2EFF5F5F5F5F5F5F5F5F5F5F5F5F5F5F5F5F5F5F5F5F5F5F5F5F5F5F5F5F5F5F5F5F5F5F5F5F5F5F5F5F5F5F5F5F5F5F5F5F5F5F5F5F5F5F5F5F5F5
310
F5F5F5F5F5F5F5F5F5F5F5F5F5F5F5F5F5F5F5F5F5F5F5F5F5F5F5F5F5F5F5F5F5F5F5F5F5F5F5F5F5F5F5F5F5F5F5F5F5F5F5F5F5F5F5F5F5F5F5F5F5F5F5F5F5F5F5F5F5F5F5F5F5F5F5F5F5F5F5F5F5F5F5F5F5F5F5F5F5F5F5F5F5F5F5F5F5F5F5F5F5F5F5F5F5F5F5F5F5F5F5F5F5F5F5F5F5F5F5E2E2EFF5F5F5E2F5
310
F5F5F5F5F5F5F5F5F5F5F5F5F5F5F5F5F5F5F5F5F5F5F5F5F5F5F5F5F5F5F5F5F5F5F5F5F5F5F5F5F5F5F5F5F5F5F5F5F5F5F5F5F5F5F5F5F5F5F5F5F5F5F5F5F5F5F5F5F5F5F5F5F5F5F5F5F5F5F5F5F5F5F5F5F5F5F5F5F5F5F5F5F5F5F5F5F5F5F5F5F5F5F5F5F5F5F5F5F5F5F5F5F5F5F5F5F5F5F5F5F5F5F5F5F5F5F5
310
F5F5F5F5F5F5F5F5F5F5F5F5F5F5F5F5F5F5F5F5F5F5F5F5F5F5F5F5F5F5F5F5F5F5F5F5F5F5F5F5F5E2F5F5F5E2E2EFF5F5F5E2F5F5F5F5F5F5F5F5F5F5F5F5F5F5F5F5F5F5F5F5F5F5F5F5F5F5F5F5F5F5F5F5F5F5F5F5F5F5F5F5F5F5F5F5F5F5F5F5F5F5F5F5F5F5F5F5F5F5F5F5F5F5F5F5F5F5F5F5F5F5F5F5F5F5F5
310
F5F5F5F5F5F5F5F5F5F5F5F5F5F5F5F5F5F5F5F5F5F5F5F5F5F5F5F5F5F5F5F5F5F5F5F5F5F5F5F5F5F5F5F5F5F5F5F5F5F5F5F5F5F5F5F5F5F5F5F5F5F5F5F5F5F5F5F5F5F5F5F5F5F5F5F5F5F5F5F5F5F5F5F5F5F5F5F5F5F5F5F5F5F5E2F5F5F5E2E2EFF5F5F5E2F5F5F5F5F5F5F5F5F5F5F5F5F5F5F5F5F5F5F5F5F5F5
310
F5F5F5F5F5F5F5F5F5F5F5F5F5F5F5F5F5F5F5F5F5F5F5F5F5F5F5F5F5F5F5F5F5F5F5F5F5F5F5F5F5F5F5F5F5F5F5F5F5F5F5F5F5F5F5F5F5F5F5F5F5F5F5F5F5F5F5F5F5F5F5F5F5F5F5F5F5F5F5F5F5F5F5F5F5F5F5F5F5F5F5F5F5F5F5F5F5F5F5F5F5F5F5F5F5F5F5F5F5F5F5F5F5F5F5F5F5F5F5F5F5F5F5F5F5F5F5
310
F5F5F5F5F5F5F5F5F5F5F5F5F5F5F5F5F5F5F5F5E2F5F5F5E2E2EFF5F5F5E2F5F5F5F5F5F5F5F5F5F5F5F5F5F5F5F5F5F5F5F5F5F5F5F5F5F5F5F5F5F5F5F5F5F5F5F5F5F5F5F5F5F5F5F5F5F5F5F5F5F5F5F5F5F5F5F5F5F5F5F5F5F5F5F5F5F5F5F5F5F5F5F5F5F5F5F5F5F5F5F5F5F5F5F5F5F5F5F5F5F5F5F5F5F5F5F5
310
F5F5F5F5F5F5F5F5F5F5F5F5F5F5F5F5F5F5F5F5F5F5F5F5F5F5F5F5F5F5F5F5F5F5F5F5F5F5F5F5F5F5F5F5F5F5F5F5F5F5F5F5F5F5F5F5F5F5F5F5F5F5F5F5F5F5F5F5F5F5F5F5F5E2F5F5F5E2E2EFF5F5F5E2F5F5F5F5F5F5F5F5F5F5F5F5F5F5F5F5F5F5F5F5F5F5F5F5F5F5F5F5F5F5F5F5F5F5F5F5F5F5F5F5F5F5F5
310
F5F5F5F5F5F5F5F5F5F5F5F5F5F5F5F5F5F5F5F5F5F5F5F5F5F5F5F5F5F5F5F5F5F5F5F5F5F5F5F5F5F5F5F5F5F5F5F5F5F5F5F5F5F5F5F5F5F5F5F5F5F5F5F5F5F5F5F5F5F5F5F5F5F5F5F5F5F5F5F5F5F5F5F5F5F5F5F5F5F5F5F5F5F5F5F5F5F5F5F5F5F5F5F5F5F5F5F5F5F5F5F5F5F5F5F5F5F5F5F5F5F5F5F5F5F5E2
310
F5F5F5E2E2EFF5F5F5E2F5F5F5F5F5F5F5F5F5F5F5F5F5F5F5F5F5F5F5F5F5F5F5F5F5F5F5F5F5F5F5F5F5F5F5F5F5F5F5F5F5F5F5F5F5F5F5F5F5F5F5F5F5F5F5F5F5F5F5F5F5F5F5F5F5F5F5F5F5F5F5F5F5F5F5F5F5F5F5F5F5F5F5F5F5F5F5F5F5F5F5F5F5F5F5F5F5F5F5F5F5F5F5F5F5F5F5F5F5F5F5F5F5F5F5F5F5
310
F5F5F5F5F5F5F5F5F5F5F5F5F5F5F5F5F5F5F5F5F5F5F5F5F5F5F5F5F5F5F5F5F5F5F5F5F5F5F5F5F5F5F5F5F5F5F5F5F5F5F5F5E2F5F5F5E2E2EFF5F5F5E2F5F5F5F5F5F5F5F5F5F5F5F5F5F5F5F5F5F5F5F5F5F5F5F5F5F5F5F5F5F5F5F5F5F5F5F5F5F5F5F5F5F5F5F5F5F5F5F5F5F5F5F5F5F5F5F5F5F5F5F5F5F5F5F5
310
F5F5F5F5F5F5F5F5F5F5F5F5F5F5F5F5F5F5F5F5F5F5F5F5F5F5F5F5F5F5F5F5F5F5F5F5F5F5F5F5F5F5F5F5F5F5F5F5F5F5F5F5F5F5F5F5F5F5F5F5F5F5F5F5F5F5F5F5F5F5F5F5F5F5F5F5F5F5F5F5F5F5F5F5F5F5F5F5F5F5F5F5F5F5F5F5F5F5F5F5F5F5F5F5F5E2F5F5F5E2E2EFF5F5F5E2F5F5F5F5F5F5F5F5F5F5F5
310
F5F5F5F5F5F5F5F5F5F5F5F5F5F5F5F5F5F5F5F5F5F5F5F5F5F5F5F5F5F5F5F5F5F5F5F5F5F5F5F5F5F5F5F5F5F5F5F5F5F5F5F5F5F5F5F5F5F5F5F5F5F5F5F5F5F5F5F5F5F5F5F5F5F5F5F5F5F5F5F5F5F5F5F5F5F5F5F5F5F5F5F5F5F5F5F5F5F5F5F5F5F5F5F5F5F5F5F5F5F5F5F5F5F5F5F5F5F5F5F5F5F5F5F5F5F5F5
310
F5F5F5F5F5F5F5F5F5F5F5F5F5F5F5F5F5F5F5F5F5F5F5F5F5F5F5F5F5F5F5E2F5F5F5E2E2EFF5F5F5E2E2E2E2E2E2E2E2F5F5F5F5F5F5F5F5F5E2E2E2E2E2E2E2E2E2E2E2E2E2E2E2E2F5F5F5F5F5F5F5F5E2E2E2E2E2E2E2E2E2E2E2E2E2E2E2E2F5F5F5F5F5F5F5F5F5E2E2E2E2E2E2E2E2E2E2E2E2E2E2E2F5F5F5F5F5
310
F5F5F5F5E2E2E2E2E2E2E2E2E2E2E2E2E2E2E2F5F5F5F5F5F5F5F5F5E2E2E2E2E2E2E2E2E2E2E2E2E2E2E2E2F5F5F5F5F5F5F5F5E2E2E2E2E2E2E2E2E2E2E2E2E2E2E2E2F5F5F5F5F5F5F5F5F5E2E2E2E2E2E2E2E2F5F5F5E2E2EFF5F5F5F5F5F5F5F5F5F5F5F5F5F5F5F5F5F5F5F5F5F5F5F5F5F5F5F5F5F5F5F5F5F5F5F5
310
F5F5F5F5F5F5F5F5F5F5F5F5F5F5F5F5F5F5F5F5F5F5F5F5F5F5F5F5F5F5F5F5F5F5F5F5F5F5F5F5F5F5F5F5F5F5F5F5F5F5F5F5F5F5F5F5F5F5F5F5F5F5F5F5F5F5F5F5F5F5F5F5F5F5F5F5F5F5F5F5F5F5F5F5F5F5F5F5F5F5F5F5F5F5F5F5F5F5F5F5F5F5F5F5F5F5F5F5F5F5F5F5F5F5F5F5F5F5F5F5F5F5F5F5F5F5F5
310
F5F5F5F5F5F5F5F5F5F5F5F5F5F5E2E2EFF5F5F5F5F5F5F5F5F5F5F5F5F5F5F5F5F5F5F5F5F5F5F5F5F5F5F5F5F5F5F5F5F5F5F5F5F5F5F5F5F5F5F5F5F5F5F5F5F5F5F5F5F5F5F5F5F5F5F5F5F5F5F5F5F5F5F5F5F5F5F5F5F5F5F5F5F5F5F5F5F5F5F5F5F5F5F5F5F5F5F5F5F5F5F5F5F5F5F5F5F5F5F5F5F5F5F5F5F5F5
310
F5F5F5F5F5F5F5F5F5F5F5F5F5F5F5F5F5F5F5F5F5F5F5F5F5F5F5F5F5F5F5F5F5F5F5F5F5F5F5F5F5F5F5F5F5F5F5F5F5F5F5F5F5F5F5F5F5F5F5F5F5F5F5F5F5F5F5E2EFEFF5F5F5F5F5F5F5F5F5F5F5F5F5F5F5F5F5F5F5F5F5F5F5F5F5F5F5F5F5F5F5F5F5F5F5F5F5F5F5F5F5F5F5F5F5F5F5F5F5F5F5F5F5F5F5F5F5
310
F5F5F5F5F5F5F5F5F5F5F5F5F5F5F5F5F5F5F5F5F5F5F5F5F5F5F5F5F5F5F5F5F5F5F5F5F5F5F5F5F5F5F5F5F5F5F5F5F5F5F5F5F5F5F5F5F5F5F5F5F5F5F5F5F5F5F5F5F5F5F5F5F5F5F5F5F5F5F5F5F5F5F5F5F5F5F5F5F5F5F5F5F5F5F5F5F5F5F5F5F5F5F5F5F5F5F5F5F5F5F5F5F5F5F5F5F5F5F5F5E2EFEFE2E2E2E2
310
E2E2E2E2E2E2E2E2E2E2E2E2E2E2E2E2E2E2E2E2E2E2E2E2E2E2E2E2E2E2E2E2E2E2E2E2E2E2E2E2E2E2E2E2E2E2E2E2E2E2E2E2E2E2E2E2E2E2E2E2E2E2E2E2E2E2E2E2E2E2E2E2E2E2E2E2E2E2E2E2E2E2E2E2E2E2E2E2E2E2E2E2E2E2E2E2E2E2E2E2E2E2E2E2E2E2E2E2E2E2E2E2E2E2E2E2E2E2E2E2E2E2E2E2E2E2E2
310
E2E2E2E2E2E2E2E2E2E2E2E2E2E2E2E2E2E2E2E2E2E2E2E2E2E2E2E2E2E2E2E2E2E2E2E2E2E2E2E2E2E2E2E2E2E2E2EFEF
  0
ENDSEC
  0
EOF
