  0
SECTION
  2
HEADER
  9
$ACADVER
  1
AC1018
  9
$ACADMAINTVER
 70
     0
  9
$DWGCODEPAGE
  3
ANSI_1252
  9
$AUTHOR
  1
g6edxjah
  9
$LASTSAVEDBY
  1
g6edxjah
  9
$INSBASE
 10
0.0
 20
0.0
 30
0.0
  9
$EXTMIN
 10
54.885771
 20
-56.32001
 30
0.0
  9
$EXTMAX
 10
65.886646
 20
-47.819333
 30
0.0
  9
$LIMMIN
 10
32.581118
 20
-79.874762
  9
$LIMMAX
 10
88.191299
 20
-24.264582
  9
$ORTHOMODE
 70
     0
  9
$REGENMODE
 70
     1
  9
$FILLMODE
 70
     1
  9
$QTEXTMODE
 70
     0
  9
$MIRRTEXT
 70
     0
  9
$LTSCALE
 40
1.0
  9
$ATTMODE
 70
     1
  9
$TEXTSIZE
 40
0.052739
  9
$TRACEWID
 40
0.05
  9
$TEXTSTYLE
  7
Standard
  9
$CLAYER
  8
Level 10
  9
$CELTYPE
  6
Continuous
  9
$CECOLOR
 62
     7
  9
$CELTSCALE
 40
1.0
  9
$DISPSILH
 70
     0
  9
$DIMSCALE
 40
1.0
  9
$DIMASZ
 40
0.052739
  9
$DIMEXO
 40
0.026369
  9
$DIMDLI
 40
0.0
  9
$DIMRND
 40
0.0
  9
$DIMDLE
 40
0.0
  9
$DIMEXE
 40
0.026369
  9
$DIMTP
 40
0.0
  9
$DIMTM
 40
0.0
  9
$DIMTXT
 40
0.052739
  9
$DIMCEN
 40
0.09
  9
$DIMTSZ
 40
0.0
  9
$DIMTOL
 70
     0
  9
$DIMLIM
 70
     0
  9
$DIMTIH
 70
     0
  9
$DIMTOH
 70
     0
  9
$DIMSE1
 70
     0
  9
$DIMSE2
 70
     0
  9
$DIMTAD
 70
     1
  9
$DIMZIN
 70
    11
  9
$DIMBLK
  1
TerminatorOpen_0.5
  9
$DIMASO
 70
     1
  9
$DIMSHO
 70
     1
  9
$DIMPOST
  1

  9
$DIMAPOST
  1

  9
$DIMALT
 70
     0
  9
$DIMALTD
 70
     4
  9
$DIMALTF
 40
25.4
  9
$DIMLFAC
 40
1.0
  9
$DIMTOFL
 70
     0
  9
$DIMTVP
 40
0.0
  9
$DIMTIX
 70
     0
  9
$DIMSOXD
 70
     0
  9
$DIMSAH
 70
     0
  9
$DIMBLK1
  1

  9
$DIMBLK2
  1

  9
$DIMSTYLE
  2
Standard
  9
$DIMCLRD
 70
     0
  9
$DIMCLRE
 70
     0
  9
$DIMCLRT
 70
     0
  9
$DIMTFAC
 40
1.0
  9
$DIMGAP
 40
0.026369
  9
$DIMJUST
 70
     0
  9
$DIMSD1
 70
     0
  9
$DIMSD2
 70
     0
  9
$DIMTOLJ
 70
     0
  9
$DIMTZIN
 70
    11
  9
$DIMALTZ
 70
    15
  9
$DIMALTTZ
 70
    15
  9
$DIMUPT
 70
     0
  9
$DIMDEC
 70
     4
  9
$DIMTDEC
 70
     4
  9
$DIMALTU
 70
     2
  9
$DIMALTTD
 70
     4
  9
$DIMTXSTY
  7
Style-Arial
  9
$DIMAUNIT
 70
     0
  9
$DIMADEC
 70
     4
  9
$DIMALTRND
 40
0.0
  9
$DIMAZIN
 70
     3
  9
$DIMDSEP
 70
    46
  9
$DIMATFIT
 70
     1
  9
$DIMFRAC
 70
     0
  9
$DIMLDRBLK
  1
TerminatorOpen_0.5
  9
$DIMLUNIT
 70
     2
  9
$DIMLWD
 70
    -2
  9
$DIMLWE
 70
    -2
  9
$DIMTMOVE
 70
     0
  9
$LUNITS
 70
     2
  9
$LUPREC
 70
     4
  9
$SKETCHINC
 40
0.1
  9
$FILLETRAD
 40
0.0
  9
$AUNITS
 70
     0
  9
$AUPREC
 70
     4
  9
$MENU
  1
.
  9
$ELEVATION
 40
0.0
  9
$PELEVATION
 40
0.0
  9
$THICKNESS
 40
0.0
  9
$LIMCHECK
 70
     0
  9
$CHAMFERA
 40
0.0
  9
$CHAMFERB
 40
0.0
  9
$CHAMFERC
 40
0.0
  9
$CHAMFERD
 40
0.0
  9
$SKPOLY
 70
     0
  9
$TDCREATE
 40
2455364.531751655
  9
$TDUCREATE
 40
2455364.740084989
  9
$TDUPDATE
 40
2455364.531751655
  9
$TDUUPDATE
 40
2455364.740084989
  9
$TDINDWG
 40
0.0
  9
$TDUSRTIMER
 40
0.0006630093
  9
$USRTIMER
 70
     1
  9
$ANGBASE
 50
0.0
  9
$ANGDIR
 70
     0
  9
$PDMODE
 70
     0
  9
$PDSIZE
 40
0.0
  9
$PLINEWID
 40
0.0
  9
$SPLFRAME
 70
     0
  9
$SPLINETYPE
 70
     6
  9
$SPLINESEGS
 70
     8
  9
$HANDSEED
  5
419
  9
$SURFTAB1
 70
     6
  9
$SURFTAB2
 70
     6
  9
$SURFTYPE
 70
     6
  9
$SURFU
 70
     6
  9
$SURFV
 70
     6
  9
$UCSBASE
  2

  9
$UCSNAME
  2

  9
$UCSORG
 10
0.0
 20
0.0
 30
0.0
  9
$UCSXDIR
 10
1.0
 20
0.0
 30
0.0
  9
$UCSYDIR
 10
0.0
 20
1.0
 30
0.0
  9
$UCSORTHOREF
  2

  9
$UCSORTHOVIEW
 70
     0
  9
$UCSORGTOP
 10
0.0
 20
0.0
 30
0.0
  9
$UCSORGBOTTOM
 10
0.0
 20
0.0
 30
0.0
  9
$UCSORGLEFT
 10
0.0
 20
0.0
 30
0.0
  9
$UCSORGRIGHT
 10
0.0
 20
0.0
 30
0.0
  9
$UCSORGFRONT
 10
0.0
 20
0.0
 30
0.0
  9
$UCSORGBACK
 10
0.0
 20
0.0
 30
0.0
  9
$PUCSBASE
  2

  9
$PUCSNAME
  2

  9
$PUCSORG
 10
0.0
 20
0.0
 30
0.0
  9
$PUCSXDIR
 10
1.0
 20
0.0
 30
0.0
  9
$PUCSYDIR
 10
0.0
 20
1.0
 30
0.0
  9
$PUCSORTHOREF
  2

  9
$PUCSORTHOVIEW
 70
     0
  9
$PUCSORGTOP
 10
0.0
 20
0.0
 30
0.0
  9
$PUCSORGBOTTOM
 10
0.0
 20
0.0
 30
0.0
  9
$PUCSORGLEFT
 10
0.0
 20
0.0
 30
0.0
  9
$PUCSORGRIGHT
 10
0.0
 20
0.0
 30
0.0
  9
$PUCSORGFRONT
 10
0.0
 20
0.0
 30
0.0
  9
$PUCSORGBACK
 10
0.0
 20
0.0
 30
0.0
  9
$USERI1
 70
     0
  9
$USERI2
 70
     0
  9
$USERI3
 70
     0
  9
$USERI4
 70
     0
  9
$USERI5
 70
     0
  9
$USERR1
 40
0.0
  9
$USERR2
 40
0.0
  9
$USERR3
 40
0.0
  9
$USERR4
 40
0.0
  9
$USERR5
 40
0.0
  9
$WORLDVIEW
 70
     1
  9
$SHADEDGE
 70
     3
  9
$SHADEDIF
 70
    70
  9
$TILEMODE
 70
     1
  9
$MAXACTVP
 70
    64
  9
$PINSBASE
 10
0.0
 20
0.0
 30
0.0
  9
$PLIMCHECK
 70
     0
  9
$PEXTMIN
 10
1.049744
 20
0.799667
 30
-0.001526
  9
$PEXTMAX
 10
9.450623
 20
7.200577
 30
0.0
  9
$PLIMMIN
 10
-0.25
 20
-0.25
  9
$PLIMMAX
 10
10.75
 20
8.25
  9
$UNITMODE
 70
     0
  9
$VISRETAIN
 70
     1
  9
$PLINEGEN
 70
     0
  9
$PSLTSCALE
 70
     0
  9
$TREEDEPTH
 70
  3020
  9
$CMLSTYLE
  2
Standard
  9
$CMLJUST
 70
     0
  9
$CMLSCALE
 40
1.0
  9
$PROXYGRAPHICS
 70
     1
  9
$MEASUREMENT
 70
     0
  9
$CELWEIGHT
370
    13
  9
$ENDCAPS
280
     0
  9
$JOINSTYLE
280
     0
  9
$LWDISPLAY
290
     1
  9
$INSUNITS
 70
     2
  9
$HYPERLINKBASE
  1

  9
$STYLESHEET
  1

  9
$XEDIT
290
     1
  9
$CEPSNTYPE
380
     0
  9
$PSTYLEMODE
290
     1
  9
$FINGERPRINTGUID
  2
{02C0BBB5-38A7-4FBF-829E-00875EC88963}
  9
$VERSIONGUID
  2
{82C521FC-BF81-46B3-825E-420B6BD93A99}
  9
$EXTNAMES
290
     1
  9
$PSVPSCALE
 40
0.0
  9
$OLESTARTUP
290
     0
  9
$SORTENTS
280
   127
  9
$INDEXCTL
280
     0
  9
$HIDETEXT
280
     1
  9
$XCLIPFRAME
290
     0
  9
$HALOGAP
280
     0
  9
$OBSCOLOR
 70
   257
  9
$OBSLTYPE
280
     0
  9
$INTERSECTIONDISPLAY
280
     0
  9
$INTERSECTIONCOLOR
 70
   257
  9
$DIMASSOC
280
     1
  9
$PROJECTNAME
  1

  0
ENDSEC
  0
SECTION
  2
CLASSES
  0
CLASS
  1
ACDBDICTIONARYWDFLT
  2
AcDbDictionaryWithDefault
  3
ObjectDBX Classes
 90
        0
 91
        3
280
     0
281
     0
  0
CLASS
  1
SORTENTSTABLE
  2
AcDbSortentsTable
  3
ObjectDBX Classes
 90
        0
 91
        3
280
     0
281
     0
  0
ENDSEC
  0
SECTION
  2
TABLES
  0
TABLE
  2
VPORT
  5
400
330
0
100
AcDbSymbolTable
 70
     4
  0
VPORT
  5
49
330
400
100
AcDbSymbolTableRecord
100
AcDbViewportTableRecord
  2
*ACTIVE
 70
     0
 10
0.0
 20
0.0
 11
1.0
 21
1.0
 12
60.386208
 22
-52.069672
 13
0.0
 23
0.0
 14
0.083333
 24
0.083333
 15
0.083333
 25
0.083333
 16
0.0
 26
0.0
 36
1.0
 17
0.0
 27
0.0
 37
0.0
 40
8.840704
 41
1.884937
 42
50.0
 43
0.0
 44
0.0
 50
0.0
 51
0.0
 71
     0
 72
   100
 73
     1
 74
     2
 75
     0
 76
     0
 77
     0
 78
     1
281
     0
 65
     1
110
0.0
120
0.0
130
0.0
111
1.0
121
0.0
131
0.0
112
0.0
122
1.0
132
0.0
 79
     0
146
0.0
  0
ENDTAB
  0
TABLE
  2
LTYPE
  5
3E7
330
0
100
AcDbSymbolTable
 70
     1
  0
LTYPE
  5
3E8
330
3E7
100
AcDbSymbolTableRecord
100
AcDbLinetypeTableRecord
  2
ByBlock
 70
     0
  3

 72
    65
 73
     0
 40
0.0
  0
LTYPE
  5
3E9
330
3E7
100
AcDbSymbolTableRecord
100
AcDbLinetypeTableRecord
  2
ByLayer
 70
     0
  3

 72
    65
 73
     0
 40
0.0
  0
LTYPE
  5
3E6
330
3E7
100
AcDbSymbolTableRecord
100
AcDbLinetypeTableRecord
  2
Continuous
 70
     0
  3
Solid line
 72
    65
 73
     0
 40
0.0
  0
ENDTAB
  0
TABLE
  2
LAYER
  5
3E0
102
{ACAD_XDICTIONARY
360
3E1
102
}
330
0
100
AcDbSymbolTable
 70
    64
  0
LAYER
  5
3DF
330
3E0
100
AcDbSymbolTableRecord
100
AcDbLayerTableRecord
  2
0
 70
     0
 62
     7
  6
Continuous
370
    -3
390
3E3
  0
LAYER
  5
7
330
3E0
100
AcDbSymbolTableRecord
100
AcDbLayerTableRecord
  2
Level 1
 70
     0
 62
     7
  6
Continuous
370
     0
390
3E3
  0
LAYER
  5
8
330
3E0
100
AcDbSymbolTableRecord
100
AcDbLayerTableRecord
  2
2-30K
 70
     0
 62
     7
  6
Continuous
370
     0
390
3E3
1001
AcAecLayerStandard
1000

1000
2-30K
  0
LAYER
  5
9
330
3E0
100
AcDbSymbolTableRecord
100
AcDbLayerTableRecord
  2
DIM
 70
     0
 62
     7
  6
Continuous
370
     0
390
3E3
1001
AcAecLayerStandard
1000

1000
DIM
  0
LAYER
  5
A
330
3E0
100
AcDbSymbolTableRecord
100
AcDbLayerTableRecord
  2
LEGEND
 70
     0
 62
     7
  6
Continuous
370
     0
390
3E3
1001
AcAecLayerStandard
1000

1000
LEGEND
  0
LAYER
  5
B
330
3E0
100
AcDbSymbolTableRecord
100
AcDbLayerTableRecord
  2
HATCH
 70
     0
 62
     7
  6
Continuous
370
     0
390
3E3
1001
AcAecLayerStandard
1000

1000
HATCH
  0
LAYER
  5
C
330
3E0
100
AcDbSymbolTableRecord
100
AcDbLayerTableRecord
  2
TEXT
 70
     0
 62
     7
  6
Continuous
370
     0
390
3E3
1001
AcAecLayerStandard
1000

1000
TEXT
  0
LAYER
  5
D
330
3E0
100
AcDbSymbolTableRecord
100
AcDbLayerTableRecord
  2
TITLE
 70
     0
 62
     7
  6
Continuous
370
     0
390
3E3
1001
AcAecLayerStandard
1000

1000
TITLE
  0
LAYER
  5
E
330
3E0
100
AcDbSymbolTableRecord
100
AcDbLayerTableRecord
  2
Level 8
 70
     0
 62
     7
  6
Continuous
370
     0
390
3E3
  0
LAYER
  5
F
330
3E0
100
AcDbSymbolTableRecord
100
AcDbLayerTableRecord
  2
Level 9
 70
     0
 62
     7
  6
Continuous
370
     0
390
3E3
  0
LAYER
  5
10
330
3E0
100
AcDbSymbolTableRecord
100
AcDbLayerTableRecord
  2
Level 10
 70
     0
 62
     7
  6
Continuous
370
     0
390
3E3
  0
LAYER
  5
11
330
3E0
100
AcDbSymbolTableRecord
100
AcDbLayerTableRecord
  2
Level 11
 70
     0
 62
     7
  6
Continuous
370
     0
390
3E3
  0
LAYER
  5
12
330
3E0
100
AcDbSymbolTableRecord
100
AcDbLayerTableRecord
  2
Level 12
 70
     0
 62
     7
  6
Continuous
370
     0
390
3E3
  0
LAYER
  5
13
330
3E0
100
AcDbSymbolTableRecord
100
AcDbLayerTableRecord
  2
Level 13
 70
     0
 62
     7
  6
Continuous
370
     0
390
3E3
  0
LAYER
  5
14
330
3E0
100
AcDbSymbolTableRecord
100
AcDbLayerTableRecord
  2
Level 14
 70
     0
 62
     7
  6
Continuous
370
     0
390
3E3
  0
LAYER
  5
15
330
3E0
100
AcDbSymbolTableRecord
100
AcDbLayerTableRecord
  2
Level 15
 70
     0
 62
     7
  6
Continuous
370
     0
390
3E3
  0
LAYER
  5
16
330
3E0
100
AcDbSymbolTableRecord
100
AcDbLayerTableRecord
  2
Level 16
 70
     0
 62
     7
  6
Continuous
370
     0
390
3E3
  0
LAYER
  5
17
330
3E0
100
AcDbSymbolTableRecord
100
AcDbLayerTableRecord
  2
Level 17
 70
     0
 62
     7
  6
Continuous
370
     0
390
3E3
  0
LAYER
  5
18
330
3E0
100
AcDbSymbolTableRecord
100
AcDbLayerTableRecord
  2
Level 18
 70
     0
 62
     7
  6
Continuous
370
     0
390
3E3
  0
LAYER
  5
19
330
3E0
100
AcDbSymbolTableRecord
100
AcDbLayerTableRecord
  2
Level 19
 70
     0
 62
     7
  6
Continuous
370
     0
390
3E3
  0
LAYER
  5
1A
330
3E0
100
AcDbSymbolTableRecord
100
AcDbLayerTableRecord
  2
Level 20
 70
     0
 62
     7
  6
Continuous
370
     0
390
3E3
  0
LAYER
  5
1B
330
3E0
100
AcDbSymbolTableRecord
100
AcDbLayerTableRecord
  2
Level 21
 70
     0
 62
     7
  6
Continuous
370
     0
390
3E3
  0
LAYER
  5
1C
330
3E0
100
AcDbSymbolTableRecord
100
AcDbLayerTableRecord
  2
Level 22
 70
     0
 62
     7
  6
Continuous
370
     0
390
3E3
  0
LAYER
  5
1D
330
3E0
100
AcDbSymbolTableRecord
100
AcDbLayerTableRecord
  2
Level 23
 70
     0
 62
     7
  6
Continuous
370
     0
390
3E3
  0
LAYER
  5
1E
330
3E0
100
AcDbSymbolTableRecord
100
AcDbLayerTableRecord
  2
Level 24
 70
     0
 62
     7
  6
Continuous
370
     0
390
3E3
  0
LAYER
  5
1F
330
3E0
100
AcDbSymbolTableRecord
100
AcDbLayerTableRecord
  2
Level 25
 70
     0
 62
     7
  6
Continuous
370
     0
390
3E3
  0
LAYER
  5
20
330
3E0
100
AcDbSymbolTableRecord
100
AcDbLayerTableRecord
  2
Level 26
 70
     0
 62
     7
  6
Continuous
370
     0
390
3E3
  0
LAYER
  5
21
330
3E0
100
AcDbSymbolTableRecord
100
AcDbLayerTableRecord
  2
Level 27
 70
     0
 62
     7
  6
Continuous
370
     0
390
3E3
  0
LAYER
  5
22
330
3E0
100
AcDbSymbolTableRecord
100
AcDbLayerTableRecord
  2
Level 28
 70
     0
 62
     7
  6
Continuous
370
     0
390
3E3
  0
LAYER
  5
23
330
3E0
100
AcDbSymbolTableRecord
100
AcDbLayerTableRecord
  2
Level 29
 70
     0
 62
     7
  6
Continuous
370
     0
390
3E3
  0
LAYER
  5
24
330
3E0
100
AcDbSymbolTableRecord
100
AcDbLayerTableRecord
  2
Level 30
 70
     0
 62
     7
  6
Continuous
370
     0
390
3E3
  0
LAYER
  5
25
330
3E0
100
AcDbSymbolTableRecord
100
AcDbLayerTableRecord
  2
Level 31
 70
     0
 62
     7
  6
Continuous
370
     0
390
3E3
  0
LAYER
  5
26
330
3E0
100
AcDbSymbolTableRecord
100
AcDbLayerTableRecord
  2
Level 32
 70
     0
 62
     7
  6
Continuous
370
     0
390
3E3
  0
LAYER
  5
27
330
3E0
100
AcDbSymbolTableRecord
100
AcDbLayerTableRecord
  2
Level 33
 70
     0
 62
     7
  6
Continuous
370
     0
390
3E3
  0
LAYER
  5
28
330
3E0
100
AcDbSymbolTableRecord
100
AcDbLayerTableRecord
  2
Level 34
 70
     0
 62
     7
  6
Continuous
370
     0
390
3E3
  0
LAYER
  5
29
330
3E0
100
AcDbSymbolTableRecord
100
AcDbLayerTableRecord
  2
Level 35
 70
     0
 62
     7
  6
Continuous
370
     0
390
3E3
  0
LAYER
  5
2A
330
3E0
100
AcDbSymbolTableRecord
100
AcDbLayerTableRecord
  2
Level 36
 70
     0
 62
     7
  6
Continuous
370
     0
390
3E3
  0
LAYER
  5
2B
330
3E0
100
AcDbSymbolTableRecord
100
AcDbLayerTableRecord
  2
Level 37
 70
     0
 62
     7
  6
Continuous
370
     0
390
3E3
  0
LAYER
  5
2C
330
3E0
100
AcDbSymbolTableRecord
100
AcDbLayerTableRecord
  2
Level 38
 70
     0
 62
     7
  6
Continuous
370
     0
390
3E3
  0
LAYER
  5
2D
330
3E0
100
AcDbSymbolTableRecord
100
AcDbLayerTableRecord
  2
Level 39
 70
     0
 62
     7
  6
Continuous
370
     0
390
3E3
  0
LAYER
  5
2E
330
3E0
100
AcDbSymbolTableRecord
100
AcDbLayerTableRecord
  2
Level 40
 70
     0
 62
     7
  6
Continuous
370
     0
390
3E3
  0
LAYER
  5
2F
330
3E0
100
AcDbSymbolTableRecord
100
AcDbLayerTableRecord
  2
Level 41
 70
     0
 62
     7
  6
Continuous
370
     0
390
3E3
  0
LAYER
  5
30
330
3E0
100
AcDbSymbolTableRecord
100
AcDbLayerTableRecord
  2
Level 42
 70
     0
 62
     7
  6
Continuous
370
     0
390
3E3
  0
LAYER
  5
31
330
3E0
100
AcDbSymbolTableRecord
100
AcDbLayerTableRecord
  2
Level 43
 70
     0
 62
     7
  6
Continuous
370
     0
390
3E3
  0
LAYER
  5
32
330
3E0
100
AcDbSymbolTableRecord
100
AcDbLayerTableRecord
  2
Level 44
 70
     0
 62
     7
  6
Continuous
370
     0
390
3E3
  0
LAYER
  5
33
330
3E0
100
AcDbSymbolTableRecord
100
AcDbLayerTableRecord
  2
Level 45
 70
     0
 62
     7
  6
Continuous
370
     0
390
3E3
  0
LAYER
  5
34
330
3E0
100
AcDbSymbolTableRecord
100
AcDbLayerTableRecord
  2
Level 46
 70
     0
 62
     7
  6
Continuous
370
     0
390
3E3
  0
LAYER
  5
35
330
3E0
100
AcDbSymbolTableRecord
100
AcDbLayerTableRecord
  2
Level 47
 70
     0
 62
     7
  6
Continuous
370
     0
390
3E3
  0
LAYER
  5
36
330
3E0
100
AcDbSymbolTableRecord
100
AcDbLayerTableRecord
  2
Level 48
 70
     0
 62
     7
  6
Continuous
370
     0
390
3E3
  0
LAYER
  5
37
330
3E0
100
AcDbSymbolTableRecord
100
AcDbLayerTableRecord
  2
Level 49
 70
     0
 62
     7
  6
Continuous
370
     0
390
3E3
  0
LAYER
  5
38
330
3E0
100
AcDbSymbolTableRecord
100
AcDbLayerTableRecord
  2
Level 50
 70
     0
 62
     7
  6
Continuous
370
     0
390
3E3
  0
LAYER
  5
39
330
3E0
100
AcDbSymbolTableRecord
100
AcDbLayerTableRecord
  2
Level 51
 70
     0
 62
     7
  6
Continuous
370
     0
390
3E3
  0
LAYER
  5
3A
330
3E0
100
AcDbSymbolTableRecord
100
AcDbLayerTableRecord
  2
Level 52
 70
     0
 62
     7
  6
Continuous
370
     0
390
3E3
  0
LAYER
  5
3B
330
3E0
100
AcDbSymbolTableRecord
100
AcDbLayerTableRecord
  2
Level 53
 70
     0
 62
     7
  6
Continuous
370
     0
390
3E3
  0
LAYER
  5
3C
330
3E0
100
AcDbSymbolTableRecord
100
AcDbLayerTableRecord
  2
Level 54
 70
     0
 62
     7
  6
Continuous
370
     0
390
3E3
  0
LAYER
  5
3D
330
3E0
100
AcDbSymbolTableRecord
100
AcDbLayerTableRecord
  2
Level 55
 70
     0
 62
     7
  6
Continuous
370
     0
390
3E3
  0
LAYER
  5
3E
330
3E0
100
AcDbSymbolTableRecord
100
AcDbLayerTableRecord
  2
Level 56
 70
     0
 62
     7
  6
Continuous
370
     0
390
3E3
  0
LAYER
  5
3F
330
3E0
100
AcDbSymbolTableRecord
100
AcDbLayerTableRecord
  2
Level 57
 70
     0
 62
     7
  6
Continuous
370
     0
390
3E3
  0
LAYER
  5
40
330
3E0
100
AcDbSymbolTableRecord
100
AcDbLayerTableRecord
  2
Level 58
 70
     0
 62
     7
  6
Continuous
370
     0
390
3E3
  0
LAYER
  5
41
330
3E0
100
AcDbSymbolTableRecord
100
AcDbLayerTableRecord
  2
Level 59
 70
     0
 62
     7
  6
Continuous
370
     0
390
3E3
  0
LAYER
  5
42
330
3E0
100
AcDbSymbolTableRecord
100
AcDbLayerTableRecord
  2
Level 60
 70
     0
 62
     7
  6
Continuous
370
     0
390
3E3
  0
LAYER
  5
43
330
3E0
100
AcDbSymbolTableRecord
100
AcDbLayerTableRecord
  2
Level 61
 70
     0
 62
     7
  6
Continuous
370
     0
390
3E3
  0
LAYER
  5
44
330
3E0
100
AcDbSymbolTableRecord
100
AcDbLayerTableRecord
  2
Level 62
 70
     0
 62
     7
  6
Continuous
370
     0
390
3E3
  0
LAYER
  5
45
330
3E0
100
AcDbSymbolTableRecord
100
AcDbLayerTableRecord
  2
_0
 70
     0
 62
     7
  6
Continuous
370
     0
390
3E3
1001
AcAecLayerStandard
1000

1000
0
  0
ENDTAB
  0
TABLE
  2
STYLE
  5
3EB
330
0
100
AcDbSymbolTable
 70
     2
  0
STYLE
  5
3EA
330
3EB
100
AcDbSymbolTableRecord
100
AcDbTextStyleTableRecord
  2
Standard
 70
     0
 40
0.0
 41
1.0
 50
0.0
 71
     0
 42
0.052739
  3
txt
  4

  0
STYLE
  5
40A
330
3EB
100
AcDbSymbolTableRecord
100
AcDbTextStyleTableRecord
  2
Style-Arial
 70
     0
 40
0.0
 41
1.0
 50
0.0
 71
     0
 42
0.2
  3

  4

1001
ACAD
1000
Arial
1071
       39
  0
ENDTAB
  0
TABLE
  2
VIEW
  5
3FE
330
0
100
AcDbSymbolTable
 70
     0
  0
ENDTAB
  0
TABLE
  2
UCS
  5
3FF
330
0
100
AcDbSymbolTable
 70
     0
  0
ENDTAB
  0
TABLE
  2
APPID
  5
3FD
330
0
100
AcDbSymbolTable
 70
     3
  0
APPID
  5
405
330
3FD
100
AcDbSymbolTableRecord
100
AcDbRegAppTableRecord
  2
ACAD
 70
     0
  0
APPID
  5
3FC
330
3FD
100
AcDbSymbolTableRecord
100
AcDbRegAppTableRecord
  2
ACAD_PSEXT
 70
     0
  0
APPID
  5
407
330
3FD
100
AcDbSymbolTableRecord
100
AcDbRegAppTableRecord
  2
AcAecLayerStandard
 70
     0
  0
ENDTAB
  0
TABLE
  2
DIMSTYLE
  5
3ED
330
0
100
AcDbSymbolTable
 70
     1
100
AcDbDimStyleTable
  0
DIMSTYLE
105
3EC
330
3ED
100
AcDbSymbolTableRecord
100
AcDbDimStyleTableRecord
  2
Standard
 70
     0
340
3EA
  0
ENDTAB
  0
TABLE
  2
BLOCK_RECORD
  5
3F0
330
0
100
AcDbSymbolTable
 70
     1
  0
BLOCK_RECORD
  5
3F1
102
{ACAD_XDICTIONARY
360
414
102
}
330
3F0
100
AcDbSymbolTableRecord
100
AcDbBlockTableRecord
  2
*Model_Space
340
3F4
  0
BLOCK_RECORD
  5
3F6
330
3F0
100
AcDbSymbolTableRecord
100
AcDbBlockTableRecord
  2
*Paper_Space
340
3F9
  0
BLOCK_RECORD
  5
40B
330
3F0
100
AcDbSymbolTableRecord
100
AcDbBlockTableRecord
  2
TerminatorOpen_0.5
340
0
  0
ENDTAB
  0
ENDSEC
  0
SECTION
  2
BLOCKS
  0
BLOCK
  5
3F2
330
3F1
100
AcDbEntity
  8
0
100
AcDbBlockBegin
  2
*Model_Space
 70
     0
 71
     0
 10
0.0
 20
0.0
 30
0.0
  3
*Model_Space
  1

  0
ENDBLK
  5
3F3
330
3F1
100
AcDbEntity
  8
0
100
AcDbBlockEnd
  0
BLOCK
  5
3F7
330
3F6
100
AcDbEntity
 67
     1
  8
0
100
AcDbBlockBegin
  2
*Paper_Space
 70
     0
 71
     0
 10
0.0
 20
0.0
 30
0.0
  3
*Paper_Space
  1

  0
ENDBLK
  5
3F8
330
3F6
100
AcDbEntity
 67
     1
  8
0
100
AcDbBlockEnd
  0
BLOCK
  5
40F
330
40B
100
AcDbEntity
  8
0
100
AcDbBlockBegin
  2
TerminatorOpen_0.5
 70
     0
 71
     0
 10
0.0
 20
0.0
 30
0.0
  3
TerminatorOpen_0.5
  1

  0
LINE
  5
40C
330
40B
100
AcDbEntity
  8
0
  6
ByBlock
 62
     0
370
    -2
100
AcDbLine
 10
0.0
 20
0.0
 30
0.0
 11
-1.0
 21
0.0
 31
0.0
  0
LINE
  5
40D
330
40B
100
AcDbEntity
  8
0
  6
ByBlock
 62
     0
370
    -2
100
AcDbLine
 10
0.0
 20
0.0
 30
0.0
 11
-1.0
 21
0.25
 31
0.0
  0
LINE
  5
40E
330
40B
100
AcDbEntity
  8
0
  6
ByBlock
 62
     0
370
    -2
100
AcDbLine
 10
0.0
 20
0.0
 30
0.0
 11
-1.0
 21
-0.25
 31
0.0
  0
ENDBLK
  5
410
330
40B
100
AcDbEntity
  8
0
100
AcDbBlockEnd
  0
ENDSEC
  0
SECTION
  2
ENTITIES
  0
LINE
  5
5B
330
3F1
100
AcDbEntity
  8
_0
  6
Continuous
 62
     7
370
    13
100
AcDbLine
 10
65.886646
 20
-56.32001
 30
0.0
 11
65.680094
 21
-56.32001
 31
0.0
  0
POINT
  5
5C
330
3F1
100
AcDbEntity
  8
_0
  6
Continuous
 62
     7
370
    13
100
AcDbPoint
 10
55.87275
 20
-48.444385
 30
0.0
  0
LINE
  5
5D
330
3F1
100
AcDbEntity
  8
_0
  6
Continuous
 62
     7
370
    13
100
AcDbLine
 10
65.886646
 20
-47.819333
 30
0.0
 11
65.680094
 21
-47.819333
 31
0.0
  0
LINE
  5
5E
330
3F1
100
AcDbEntity
  8
_0
  6
Continuous
 62
     7
370
    13
100
AcDbLine
 10
65.886646
 20
-56.32001
 30
0.0
 11
65.886646
 21
-56.113458
 31
0.0
  0
LINE
  5
5F
330
3F1
100
AcDbEntity
  8
_0
  6
Continuous
 62
     7
370
    13
100
AcDbLine
 10
54.885771
 20
-56.32001
 30
0.0
 11
54.885771
 21
-56.113458
 31
0.0
  0
LINE
  5
60
330
3F1
100
AcDbEntity
  8
_0
  6
Continuous
 62
     7
370
    13
100
AcDbLine
 10
65.886646
 20
-48.025896
 30
0.0
 11
65.886646
 21
-47.819333
 31
0.0
  0
LINE
  5
61
330
3F1
100
AcDbEntity
  8
_0
  6
Continuous
 62
     7
370
    13
100
AcDbLine
 10
55.092323
 20
-56.32001
 30
0.0
 11
54.885771
 21
-56.32001
 31
0.0
  0
LINE
  5
62
330
3F1
100
AcDbEntity
  8
_0
  6
Continuous
 62
     7
370
    13
100
AcDbLine
 10
55.092323
 20
-47.819333
 30
0.0
 11
54.885771
 21
-47.819333
 31
0.0
  0
LINE
  5
63
330
3F1
100
AcDbEntity
  8
_0
  6
Continuous
 62
     7
370
    13
100
AcDbLine
 10
54.885771
 20
-48.025896
 30
0.0
 11
54.885771
 21
-47.819333
 31
0.0
  0
LINE
  5
68
330
3F1
100
AcDbEntity
  8
2-30K
  6
Continuous
 62
     7
370
    13
100
AcDbLine
 10
63.873396
 20
-55.694958
 30
0.0
 11
63.873396
 21
-55.194927
 31
0.0
  0
LINE
  5
69
330
3F1
100
AcDbEntity
  8
2-30K
  6
Continuous
 62
     7
370
    13
100
AcDbLine
 10
62.773302
 20
-55.694958
 30
0.0
 11
62.773302
 21
-55.194927
 31
0.0
  0
LINE
  5
6A
330
3F1
100
AcDbEntity
  8
2-30K
  6
Continuous
 62
     7
370
    13
100
AcDbLine
 10
55.87275
 20
-55.194927
 30
0.0
 11
64.973479
 21
-55.194927
 31
0.0
  0
LINE
  5
6B
330
3F1
100
AcDbEntity
  8
2-30K
  6
Continuous
 62
     7
370
    13
100
AcDbLine
 10
55.87275
 20
-55.694958
 30
0.0
 11
64.973479
 21
-55.694958
 31
0.0
  0
LINE
  5
6C
330
3F1
100
AcDbEntity
  8
2-30K
  6
Continuous
 62
     7
370
    13
100
AcDbLine
 10
55.87275
 20
-55.694958
 30
0.0
 11
55.87275
 21
-48.444385
 31
0.0
  0
LINE
  5
6D
330
3F1
100
AcDbEntity
  8
2-30K
  6
Continuous
 62
     7
370
    13
100
AcDbLine
 10
55.87275
 20
-48.444385
 30
0.0
 11
64.973479
 21
-48.444385
 31
0.0
  0
LINE
  5
6E
330
3F1
100
AcDbEntity
  8
2-30K
  6
Continuous
 62
     7
370
    13
100
AcDbLine
 10
64.973479
 20
-55.694958
 30
0.0
 11
64.973479
 21
-48.444385
 31
0.0
  0
LINE
  5
6F
330
3F1
100
AcDbEntity
  8
_0
  6
Continuous
 62
     7
370
    13
100
AcDbLine
 10
56.222781
 20
-52.344698
 30
0.0
 11
63.023323
 21
-52.344698
 31
0.0
  0
LINE
  5
70
330
3F1
100
AcDbEntity
  8
_0
  6
Continuous
 62
     7
370
    13
100
AcDbLine
 10
56.222781
 20
-52.344698
 30
0.0
 11
56.222781
 21
-49.094437
 31
0.0
  0
LINE
  5
71
330
3F1
100
AcDbEntity
  8
_0
  6
Continuous
 62
     7
370
    13
100
AcDbLine
 10
56.647813
 20
-52.344698
 30
0.0
 11
56.647813
 21
-49.394458
 31
0.0
  0
LINE
  5
72
330
3F1
100
AcDbEntity
  8
_0
  6
Continuous
 62
     7
370
    13
100
AcDbLine
 10
57.147854
 20
-52.344698
 30
0.0
 11
57.147854
 21
-49.394458
 31
0.0
  0
LINE
  5
73
330
3F1
100
AcDbEntity
  8
_0
  6
Continuous
 62
     7
370
    13
100
AcDbLine
 10
56.222781
 20
-49.394458
 30
0.0
 11
63.023323
 21
-49.394458
 31
0.0
  0
LINE
  5
74
330
3F1
100
AcDbEntity
  8
_0
  6
Continuous
 62
     7
370
    13
100
AcDbLine
 10
63.023323
 20
-52.344698
 30
0.0
 11
63.023323
 21
-49.094437
 31
0.0
  0
LINE
  5
75
330
3F1
100
AcDbEntity
  8
_0
  6
Continuous
 62
     7
370
    13
100
AcDbLine
 10
57.147854
 20
-49.519469
 30
0.0
 11
63.023323
 21
-49.519469
 31
0.0
  0
LINE
  5
76
330
3F1
100
AcDbEntity
  8
_0
  6
Continuous
 62
     7
370
    13
100
AcDbLine
 10
56.647813
 20
-52.231687
 30
0.0
 11
63.023323
 21
-52.231687
 31
0.0
  0
LINE
  5
77
330
3F1
100
AcDbEntity
  8
_0
  6
Continuous
 62
     7
370
    13
100
AcDbLine
 10
56.647813
 20
-52.118677
 30
0.0
 11
63.023323
 21
-52.118677
 31
0.0
  0
LINE
  5
78
330
3F1
100
AcDbEntity
  8
_0
  6
Continuous
 62
     7
370
    13
100
AcDbLine
 10
56.647813
 20
-52.005667
 30
0.0
 11
63.023323
 21
-52.005667
 31
0.0
  0
LINE
  5
79
330
3F1
100
AcDbEntity
  8
_0
  6
Continuous
 62
     7
370
    13
100
AcDbLine
 10
56.222781
 20
-51.892656
 30
0.0
 11
63.023323
 21
-51.892656
 31
0.0
  0
LINE
  5
7A
330
3F1
100
AcDbEntity
  8
_0
  6
Continuous
 62
     7
370
    13
100
AcDbLine
 10
56.647813
 20
-51.779646
 30
0.0
 11
63.023323
 21
-51.779646
 31
0.0
  0
LINE
  5
7B
330
3F1
100
AcDbEntity
  8
_0
  6
Continuous
 62
     7
370
    13
100
AcDbLine
 10
56.647813
 20
-51.666646
 30
0.0
 11
63.023323
 21
-51.666646
 31
0.0
  0
LINE
  5
7C
330
3F1
100
AcDbEntity
  8
_0
  6
Continuous
 62
     7
370
    13
100
AcDbLine
 10
56.647813
 20
-51.553635
 30
0.0
 11
63.023323
 21
-51.553635
 31
0.0
  0
LINE
  5
7D
330
3F1
100
AcDbEntity
  8
_0
  6
Continuous
 62
     7
370
    13
100
AcDbLine
 10
56.222781
 20
-51.440625
 30
0.0
 11
63.023323
 21
-51.440625
 31
0.0
  0
LINE
  5
7E
330
3F1
100
AcDbEntity
  8
_0
  6
Continuous
 62
     7
370
    13
100
AcDbLine
 10
56.647813
 20
-51.327615
 30
0.0
 11
63.023323
 21
-51.327615
 31
0.0
  0
LINE
  5
7F
330
3F1
100
AcDbEntity
  8
_0
  6
Continuous
 62
     7
370
    13
100
AcDbLine
 10
56.222781
 20
-51.214604
 30
0.0
 11
63.023323
 21
-51.214604
 31
0.0
  0
LINE
  5
80
330
3F1
100
AcDbEntity
  8
_0
  6
Continuous
 62
     7
370
    13
100
AcDbLine
 10
56.647813
 20
-51.101594
 30
0.0
 11
63.023323
 21
-51.101594
 31
0.0
  0
LINE
  5
81
330
3F1
100
AcDbEntity
  8
_0
  6
Continuous
 62
     7
370
    13
100
AcDbLine
 10
56.222781
 20
-50.988594
 30
0.0
 11
63.023323
 21
-50.988594
 31
0.0
  0
LINE
  5
82
330
3F1
100
AcDbEntity
  8
_0
  6
Continuous
 62
     7
370
    13
100
AcDbLine
 10
56.647813
 20
-50.875573
 30
0.0
 11
63.023323
 21
-50.875573
 31
0.0
  0
LINE
  5
83
330
3F1
100
AcDbEntity
  8
_0
  6
Continuous
 62
     7
370
    13
100
AcDbLine
 10
56.647813
 20
-50.762573
 30
0.0
 11
63.023323
 21
-50.762573
 31
0.0
  0
LINE
  5
84
330
3F1
100
AcDbEntity
  8
_0
  6
Continuous
 62
     7
370
    13
100
AcDbLine
 10
56.647813
 20
-50.649563
 30
0.0
 11
63.023323
 21
-50.649563
 31
0.0
  0
LINE
  5
85
330
3F1
100
AcDbEntity
  8
_0
  6
Continuous
 62
     7
370
    13
100
AcDbLine
 10
56.222781
 20
-50.536552
 30
0.0
 11
63.023323
 21
-50.536552
 31
0.0
  0
LINE
  5
86
330
3F1
100
AcDbEntity
  8
_0
  6
Continuous
 62
     7
370
    13
100
AcDbLine
 10
56.647813
 20
-50.423542
 30
0.0
 11
63.023323
 21
-50.423542
 31
0.0
  0
LINE
  5
87
330
3F1
100
AcDbEntity
  8
_0
  6
Continuous
 62
     7
370
    13
100
AcDbLine
 10
56.222781
 20
-50.310531
 30
0.0
 11
63.023323
 21
-50.310531
 31
0.0
  0
LINE
  5
88
330
3F1
100
AcDbEntity
  8
_0
  6
Continuous
 62
     7
370
    13
100
AcDbLine
 10
56.647813
 20
-50.197521
 30
0.0
 11
63.023323
 21
-50.197521
 31
0.0
  0
LINE
  5
89
330
3F1
100
AcDbEntity
  8
_0
  6
Continuous
 62
     7
370
    13
100
AcDbLine
 10
56.647813
 20
-50.08451
 30
0.0
 11
63.023323
 21
-50.08451
 31
0.0
  0
LINE
  5
8A
330
3F1
100
AcDbEntity
  8
_0
  6
Continuous
 62
     7
370
    13
100
AcDbLine
 10
56.647813
 20
-49.97151
 30
0.0
 11
63.023323
 21
-49.97151
 31
0.0
  0
LINE
  5
8B
330
3F1
100
AcDbEntity
  8
_0
  6
Continuous
 62
     7
370
    13
100
AcDbLine
 10
56.647813
 20
-49.8585
 30
0.0
 11
63.023323
 21
-49.8585
 31
0.0
  0
LINE
  5
8C
330
3F1
100
AcDbEntity
  8
_0
  6
Continuous
 62
     7
370
    13
100
AcDbLine
 10
56.647813
 20
-49.74549
 30
0.0
 11
63.023323
 21
-49.74549
 31
0.0
  0
LINE
  5
8D
330
3F1
100
AcDbEntity
  8
_0
  6
Continuous
 62
     7
370
    13
100
AcDbLine
 10
56.222781
 20
-49.632479
 30
0.0
 11
63.023323
 21
-49.632479
 31
0.0
  0
LINE
  5
8E
330
3F1
100
AcDbEntity
  8
_0
  6
Continuous
 62
     7
370
    13
100
AcDbLine
 10
57.441625
 20
-52.344698
 30
0.0
 11
57.441625
 21
-49.519469
 31
0.0
  0
LINE
  5
8F
330
3F1
100
AcDbEntity
  8
_0
  6
Continuous
 62
     7
370
    13
100
AcDbLine
 10
57.735406
 20
-52.344698
 30
0.0
 11
57.735406
 21
-49.519469
 31
0.0
  0
LINE
  5
90
330
3F1
100
AcDbEntity
  8
_0
  6
Continuous
 62
     7
370
    13
100
AcDbLine
 10
58.029177
 20
-52.344698
 30
0.0
 11
58.029177
 21
-49.519469
 31
0.0
  0
LINE
  5
91
330
3F1
100
AcDbEntity
  8
_0
  6
Continuous
 62
     7
370
    13
100
AcDbLine
 10
58.322948
 20
-52.344698
 30
0.0
 11
58.322948
 21
-49.519469
 31
0.0
  0
LINE
  5
92
330
3F1
100
AcDbEntity
  8
_0
  6
Continuous
 62
     7
370
    13
100
AcDbLine
 10
58.616719
 20
-52.344698
 30
0.0
 11
58.616719
 21
-49.519469
 31
0.0
  0
LINE
  5
93
330
3F1
100
AcDbEntity
  8
_0
  6
Continuous
 62
     7
370
    13
100
AcDbLine
 10
58.9105
 20
-52.344698
 30
0.0
 11
58.9105
 21
-49.519469
 31
0.0
  0
LINE
  5
94
330
3F1
100
AcDbEntity
  8
_0
  6
Continuous
 62
     7
370
    13
100
AcDbLine
 10
59.204271
 20
-52.344698
 30
0.0
 11
59.204271
 21
-49.519469
 31
0.0
  0
LINE
  5
95
330
3F1
100
AcDbEntity
  8
_0
  6
Continuous
 62
     7
370
    13
100
AcDbLine
 10
59.498042
 20
-52.344698
 30
0.0
 11
59.498042
 21
-49.519469
 31
0.0
  0
LINE
  5
96
330
3F1
100
AcDbEntity
  8
_0
  6
Continuous
 62
     7
370
    13
100
AcDbLine
 10
59.791812
 20
-52.344698
 30
0.0
 11
59.791812
 21
-49.519469
 31
0.0
  0
LINE
  5
97
330
3F1
100
AcDbEntity
  8
_0
  6
Continuous
 62
     7
370
    13
100
AcDbLine
 10
60.085594
 20
-52.344698
 30
0.0
 11
60.085594
 21
-49.519469
 31
0.0
  0
LINE
  5
98
330
3F1
100
AcDbEntity
  8
_0
  6
Continuous
 62
     7
370
    13
100
AcDbLine
 10
60.379365
 20
-52.344698
 30
0.0
 11
60.379365
 21
-49.519469
 31
0.0
  0
LINE
  5
99
330
3F1
100
AcDbEntity
  8
_0
  6
Continuous
 62
     7
370
    13
100
AcDbLine
 10
60.673135
 20
-52.344698
 30
0.0
 11
60.673135
 21
-49.519469
 31
0.0
  0
LINE
  5
9A
330
3F1
100
AcDbEntity
  8
_0
  6
Continuous
 62
     7
370
    13
100
AcDbLine
 10
60.966906
 20
-52.344698
 30
0.0
 11
60.966906
 21
-49.519469
 31
0.0
  0
LINE
  5
9B
330
3F1
100
AcDbEntity
  8
_0
  6
Continuous
 62
     7
370
    13
100
AcDbLine
 10
61.260687
 20
-52.344698
 30
0.0
 11
61.260687
 21
-49.519469
 31
0.0
  0
LINE
  5
9C
330
3F1
100
AcDbEntity
  8
_0
  6
Continuous
 62
     7
370
    13
100
AcDbLine
 10
61.554458
 20
-52.344698
 30
0.0
 11
61.554458
 21
-49.519469
 31
0.0
  0
LINE
  5
9D
330
3F1
100
AcDbEntity
  8
_0
  6
Continuous
 62
     7
370
    13
100
AcDbLine
 10
61.848229
 20
-52.344698
 30
0.0
 11
61.848229
 21
-49.519469
 31
0.0
  0
LINE
  5
9E
330
3F1
100
AcDbEntity
  8
_0
  6
Continuous
 62
     7
370
    13
100
AcDbLine
 10
62.14201
 20
-52.344698
 30
0.0
 11
62.14201
 21
-49.519469
 31
0.0
  0
LINE
  5
9F
330
3F1
100
AcDbEntity
  8
_0
  6
Continuous
 62
     7
370
    13
100
AcDbLine
 10
62.435781
 20
-52.344698
 30
0.0
 11
62.435781
 21
-49.519469
 31
0.0
  0
LINE
  5
A0
330
3F1
100
AcDbEntity
  8
_0
  6
Continuous
 62
     7
370
    13
100
AcDbLine
 10
62.729552
 20
-52.344698
 30
0.0
 11
62.729552
 21
-49.519469
 31
0.0
  0
LINE
  5
A1
330
3F1
100
AcDbEntity
  8
_0
  6
Continuous
 62
     7
370
    13
100
AcDbLine
 10
63.023323
 20
-52.344698
 30
0.0
 11
63.023323
 21
-49.519469
 31
0.0
  0
LINE
  5
28E
330
3F1
100
AcDbEntity
  8
_0
  6
Continuous
 62
     7
370
    13
100
AcDbLine
 10
56.222781
 20
-49.094437
 30
0.0
 11
63.023323
 21
-49.094437
 31
0.0
  0
LINE
  5
28F
330
3F1
100
AcDbEntity
  8
_0
  6
Continuous
 62
     7
370
    13
100
AcDbLine
 10
63.506302
 20
-52.320771
 30
0.0
 11
63.506302
 21
-49.394458
 31
0.0
  0
LINE
  5
290
330
3F1
100
AcDbEntity
  8
_0
  6
Continuous
 62
     7
370
    13
100
AcDbLine
 10
63.506302
 20
-49.394458
 30
0.0
 11
64.743177
 21
-49.41876
 31
0.0
  0
LINE
  5
291
330
3F1
100
AcDbEntity
  8
DIM
  6
Continuous
 62
     7
370
    13
100
AcDbLine
 10
63.506302
 20
-51.344615
 30
0.0
 11
63.606302
 21
-51.344615
 31
0.0
  0
LINE
  5
292
330
3F1
100
AcDbEntity
  8
DIM
  6
Continuous
 62
     7
370
    13
100
AcDbLine
 10
63.506302
 20
-51.694646
 30
0.0
 11
63.639312
 21
-51.694646
 31
0.0
  0
LINE
  5
293
330
3F1
100
AcDbEntity
  8
DIM
  6
Continuous
 62
     7
370
    13
100
AcDbLine
 10
63.506302
 20
-52.019667
 30
0.0
 11
63.681312
 21
-52.019667
 31
0.0
  0
LWPOLYLINE
  5
294
330
3F1
100
AcDbEntity
  8
_0
  6
Continuous
 62
     7
370
     0
100
AcDbPolyline
 90
       17
 70
   128
 43
0.0
 10
63.506297
 20
-49.39446
 42
0.009992
 10
63.511609
 20
-50.106401
 42
0.012616
 10
63.5413
 20
-50.669561
 10
63.5413
 20
-50.669562
 42
0.000127
 10
63.568197
 20
-51.012999
 10
63.568198
 20
-51.01301
 42
0.006598
 10
63.568802
 20
-51.01959
 42
0.005037
 10
63.587554
 20
-51.182102
 10
63.587554
 20
-51.182103
 42
-0.005173
 10
63.606305
 20
-51.344616
 10
63.606305
 20
-51.344615
 42
-0.003335
 10
63.613564
 20
-51.41856
 10
63.613565
 20
-51.418561
 42
0.000894
 10
63.639308
 20
-51.694646
 10
63.639308
 20
-51.694643
 42
0.008439
 10
63.651369
 20
-51.802234
 42
0.004162
 10
63.681311
 20
-52.01967
  0
LINE
  5
29F
330
3F1
100
AcDbEntity
  8
DIM
  6
Continuous
 62
     7
370
    13
100
AcDbLine
 10
63.666302
 20
-49.394458
 30
0.0
 11
63.665083
 21
-49.692333
 31
0.0
  0
SOLID
  5
2A0
330
3F1
100
AcDbEntity
  8
DIM
  6
Continuous
 62
     7
370
    13
100
AcDbTrace
 10
63.674437
 20
-49.445156
 30
0.0
 11
63.65776
 21
-49.445083
 31
0.0
 12
63.666302
 22
-49.395115
 32
0.0
 13
63.666302
 23
-49.395115
 33
0.0
  0
SOLID
  5
2A1
330
3F1
100
AcDbEntity
  8
DIM
  6
Continuous
 62
     7
370
    13
100
AcDbTrace
 10
-63.673615
 20
-49.645167
 30
0.0
 11
-63.656948
 21
-49.645104
 31
0.0
 12
-63.665073
 22
-49.695135
 32
0.0
 13
-63.665073
 23
-49.695135
 33
0.0
210
0.0
220
0.0
230
-1.0
  0
LINE
  5
2A3
330
3F1
100
AcDbEntity
  8
DIM
  6
Continuous
 62
     7
370
    13
100
AcDbLine
 10
63.555062
 20
-49.693812
 30
0.0
 11
63.836573
 21
-49.712854
 31
0.0
  0
LINE
  5
2A4
330
3F1
100
AcDbEntity
  8
DIM
  6
Continuous
 62
     7
370
    13
100
AcDbLine
 10
63.666729
 20
-49.742312
 30
0.0
 11
63.670375
 21
-50.013937
 31
0.0
  0
SOLID
  5
2A5
330
3F1
100
AcDbEntity
  8
DIM
  6
Continuous
 62
     7
370
    13
100
AcDbTrace
 10
-63.658396
 20
-49.742427
 30
0.0
 11
-63.675062
 21
-49.742208
 31
0.0
 12
-63.666052
 22
-49.692312
 32
0.0
 13
-63.666052
 23
-49.692312
 33
0.0
210
0.0
220
0.0
230
-1.0
  0
SOLID
  5
2A6
330
3F1
100
AcDbEntity
  8
DIM
  6
Continuous
 62
     7
370
    13
100
AcDbTrace
 10
63.661417
 20
-49.967458
 30
0.0
 11
63.678083
 21
-49.96724
 31
0.0
 12
63.670417
 22
-50.017344
 32
0.0
 13
63.670417
 23
-50.017344
 33
0.0
  0
LINE
  5
2A8
330
3F1
100
AcDbEntity
  8
DIM
  6
Continuous
 62
     7
370
    13
100
AcDbLine
 10
63.559406
 20
-50.017781
 30
0.0
 11
63.958937
 21
-50.024469
 31
0.0
  0
LINE
  5
2A9
330
3F1
100
AcDbEntity
  8
DIM
  6
Continuous
 62
     7
370
    13
100
AcDbLine
 10
63.671177
 20
-50.063948
 30
0.0
 11
63.680542
 21
-50.334396
 31
0.0
  0
SOLID
  5
2AA
330
3F1
100
AcDbEntity
  8
DIM
  6
Continuous
 62
     7
370
    13
100
AcDbTrace
 10
-63.662854
 20
-50.064229
 30
0.0
 11
-63.67951
 21
-50.063656
 31
0.0
 12
-63.669448
 22
-50.013969
 32
0.0
 13
-63.669448
 23
-50.013969
 33
0.0
210
0.0
220
0.0
230
-1.0
  0
SOLID
  5
2AB
330
3F1
100
AcDbEntity
  8
DIM
  6
Continuous
 62
     7
370
    13
100
AcDbTrace
 10
63.670646
 20
-50.289313
 30
0.0
 11
63.687302
 21
-50.288729
 31
0.0
 12
63.680698
 22
-50.339
 32
0.0
 13
63.680698
 23
-50.339
 33
0.0
  0
LINE
  5
2AD
330
3F1
100
AcDbEntity
  8
DIM
  6
Continuous
 62
     7
370
    13
100
AcDbLine
 10
63.570594
 20
-50.341375
 30
0.0
 11
64.104969
 21
-50.324844
 31
0.0
  0
LINE
  5
2AE
330
3F1
100
AcDbEntity
  8
DIM
  6
Continuous
 62
     7
370
    13
100
AcDbLine
 10
63.683573
 20
-50.384313
 30
0.0
 11
63.700875
 21
-50.657062
 31
0.0
  0
SOLID
  5
2AF
330
3F1
100
AcDbEntity
  8
DIM
  6
Continuous
 62
     7
370
    13
100
AcDbTrace
 10
-63.67526
 20
-50.384833
 30
0.0
 11
-63.691885
 21
-50.383781
 31
0.0
 12
-63.680406
 22
-50.334406
 32
0.0
 13
-63.680406
 23
-50.334406
 33
0.0
210
0.0
220
0.0
230
-1.0
  0
SOLID
  5
2B0
330
3F1
100
AcDbEntity
  8
DIM
  6
Continuous
 62
     7
370
    13
100
AcDbTrace
 10
63.689542
 20
-50.610052
 30
0.0
 11
63.706177
 21
-50.609
 31
0.0
 12
63.701021
 22
-50.659427
 32
0.0
 13
63.701021
 23
-50.659427
 33
0.0
  0
LINE
  5
2B2
330
3F1
100
AcDbEntity
  8
DIM
  6
Continuous
 62
     7
370
    13
100
AcDbLine
 10
63.591156
 20
-50.665656
 30
0.0
 11
64.254958
 21
-50.629406
 31
0.0
  0
LINE
  5
2B3
330
3F1
100
AcDbEntity
  8
DIM
  6
Continuous
 62
     7
370
    13
100
AcDbLine
 10
63.618052
 20
-51.009104
 30
0.0
 11
64.397042
 21
-50.963833
 31
0.0
  0
LINE
  5
2B4
330
3F1
100
AcDbEntity
  8
DIM
  6
Continuous
 62
     7
370
    13
100
AcDbLine
 10
63.70474
 20
-50.706917
 30
0.0
 11
63.72774
 21
-51.000521
 31
0.0
  0
SOLID
  5
2B5
330
3F1
100
AcDbEntity
  8
DIM
  6
Continuous
 62
     7
370
    13
100
AcDbTrace
 10
-63.696437
 20
-50.707573
 30
0.0
 11
-63.713052
 21
-50.706271
 31
0.0
 12
-63.700833
 22
-50.657062
 32
0.0
 13
-63.700833
 23
-50.657062
 33
0.0
210
0.0
220
0.0
230
-1.0
  0
SOLID
  5
2B6
330
3F1
100
AcDbEntity
  8
DIM
  6
Continuous
 62
     7
370
    13
100
AcDbTrace
 10
63.715521
 20
-50.951313
 30
0.0
 11
63.732146
 21
-50.95001
 31
0.0
 12
63.72774
 22
-51.000521
 32
0.0
 13
63.72774
 23
-51.000521
 33
0.0
  0
LINE
  5
2B8
330
3F1
100
AcDbEntity
  8
DIM
  6
Continuous
 62
     7
370
    13
100
AcDbLine
 10
63.655979
 20
-51.338885
 30
0.0
 11
64.519396
 21
-51.250948
 31
0.0
  0
LINE
  5
2B9
330
3F1
100
AcDbEntity
  8
DIM
  6
Continuous
 62
     7
370
    13
100
AcDbLine
 10
63.733542
 20
-51.050917
 30
0.0
 11
63.765313
 21
-51.326271
 31
0.0
  0
SOLID
  5
2BA
330
3F1
100
AcDbEntity
  8
DIM
  6
Continuous
 62
     7
370
    13
100
AcDbTrace
 10
-63.72526
 20
-51.051875
 30
0.0
 11
-63.741812
 21
-51.049958
 31
0.0
 12
-63.727812
 22
-51.00124
 32
0.0
 13
-63.727812
 23
-51.00124
 33
0.0
210
0.0
220
0.0
230
-1.0
  0
SOLID
  5
2BB
330
3F1
100
AcDbEntity
  8
DIM
  6
Continuous
 62
     7
370
    13
100
AcDbTrace
 10
63.751302
 20
-51.277552
 30
0.0
 11
63.767854
 21
-51.275635
 31
0.0
 12
63.765313
 22
-51.326271
 32
0.0
 13
63.765313
 23
-51.326271
 33
0.0
  0
LINE
  5
2BD
330
3F1
100
AcDbEntity
  8
DIM
  6
Continuous
 62
     7
370
    13
100
AcDbLine
 10
63.770292
 20
-51.379375
 30
0.0
 11
63.798083
 21
-51.674125
 31
0.0
  0
SOLID
  5
2BE
330
3F1
100
AcDbEntity
  8
DIM
  6
Continuous
 62
     7
370
    13
100
AcDbTrace
 10
-63.762
 20
-51.380156
 30
0.0
 11
-63.778594
 21
-51.378594
 31
0.0
 12
-63.765604
 22
-51.329594
 32
0.0
 13
-63.765604
 23
-51.329594
 33
0.0
210
0.0
220
0.0
230
-1.0
  0
SOLID
  5
2BF
330
3F1
100
AcDbEntity
  8
DIM
  6
Continuous
 62
     7
370
    13
100
AcDbTrace
 10
63.785615
 20
-51.630625
 30
0.0
 11
63.802208
 21
-51.629052
 31
0.0
 12
63.798604
 22
-51.679625
 32
0.0
 13
63.798604
 23
-51.679625
 33
0.0
  0
LINE
  5
2C1
330
3F1
100
AcDbEntity
  8
DIM
  6
Continuous
 62
     7
370
    13
100
AcDbLine
 10
63.688896
 20
-51.68824
 30
0.0
 11
64.66149
 21
-51.572719
 31
0.0
  0
LINE
  5
2C2
330
3F1
100
AcDbEntity
  8
DIM
  6
Continuous
 62
     7
370
    13
100
AcDbLine
 10
63.730906
 20
-52.01326
 30
0.0
 11
64.803583
 21
-51.884812
 31
0.0
  0
LINE
  5
2C3
330
3F1
100
AcDbEntity
  8
DIM
  6
Continuous
 62
     7
370
    13
100
AcDbLine
 10
63.804323
 20
-51.72374
 30
0.0
 11
63.839917
 21
-51.999177
 31
0.0
  0
SOLID
  5
2C4
330
3F1
100
AcDbEntity
  8
DIM
  6
Continuous
 62
     7
370
    13
100
AcDbTrace
 10
-63.796052
 20
-51.724802
 30
0.0
 11
-63.812583
 21
-51.722667
 31
0.0
 12
-63.797906
 22
-51.674146
 32
0.0
 13
-63.797906
 23
-51.674146
 33
0.0
210
0.0
220
0.0
230
-1.0
  0
SOLID
  5
2C5
330
3F1
100
AcDbEntity
  8
DIM
  6
Continuous
 62
     7
370
    13
100
AcDbTrace
 10
63.82524
 20
-51.950646
 30
0.0
 11
63.841771
 21
-51.94851
 31
0.0
 12
63.839917
 22
-51.999177
 32
0.0
 13
63.839917
 23
-51.999177
 33
0.0
  0
ARC
  5
2D7
330
3F1
100
AcDbEntity
  8
DIM
  6
Continuous
 62
     7
370
     0
100
AcDbCircle
 10
80.939952
 20
-49.732206
 30
0.0
 40
17.0207780896277
100
AcDbArc
 50
178.944817
 51
179.777525
  0
LWPOLYLINE
  5
2D8
330
3F1
100
AcDbEntity
  8
DIM
  6
Continuous
 62
     7
370
     0
100
AcDbPolyline
 90
        3
 70
   128
 43
0.0
 10
63.919298
 20
-49.797342
 42
0.000908
 10
63.919647
 20
-49.859183
 42
0.006749
 10
63.923138
 20
-50.025705
  0
ARC
  5
2DB
330
3F1
100
AcDbEntity
  8
DIM
  6
Continuous
 62
     7
370
     0
100
AcDbCircle
 10
80.939952
 20
-49.732206
 30
0.0
 40
17.14578808962644
100
AcDbArc
 50
178.953925
 51
179.270231
  0
ARC
  5
2DC
330
3F1
100
AcDbEntity
  8
DIM
  6
Continuous
 62
     7
370
     0
100
AcDbCircle
 10
80.939952
 20
-49.732206
 30
0.0
 40
17.14578808962585
100
AcDbArc
 50
179.670869
 51
179.937256
  0
LWPOLYLINE
  5
2DD
330
3F1
100
AcDbEntity
  8
DIM
  6
Continuous
 62
     7
370
     0
100
AcDbPolyline
 90
        8
 70
   128
 43
0.0
 10
64.597233
 20
-49.418762
 42
0.006659
 10
64.594683
 20
-49.854147
 42
0.01109
 10
64.601905
 20
-50.097771
 10
64.601905
 20
-50.097766
 42
0.000214
 10
64.626895
 20
-50.575634
 10
64.626895
 20
-50.575633
 42
0.004117
 10
64.628409
 20
-50.600466
 42
0.000588
 10
64.632749
 20
-50.662077
  0
LWPOLYLINE
  5
2E3
330
3F1
100
AcDbEntity
  8
DIM
  6
Continuous
 62
     7
370
     0
100
AcDbPolyline
 90
       19
 70
   128
 43
0.0
 10
64.641604
 20
-50.781883
 42
0.00052
 10
64.645814
 20
-50.836376
 10
64.645814
 20
-50.836376
 42
0.00564
 10
64.654246
 20
-50.930416
 42
0.007518
 10
64.661587
 20
-50.993554
 42
-0.010759
 10
64.668928
 20
-51.056692
 42
-0.011349
 10
64.675769
 20
-51.152169
 42
0.010341
 10
64.68261
 20
-51.247647
 42
0.001412
 10
64.68826
 20
-51.306922
 42
0.002733
 10
64.691433
 20
-51.337526
 10
64.691433
 20
-51.337526
 42
0.007333
 10
64.708053
 20
-51.471458
 42
-0.004669
 10
64.724672
 20
-51.605391
 42
-0.000743
 10
64.725937
 20
-51.616575
 10
64.725937
 20
-51.616573
 42
0.000148
 10
64.732221
 20
-51.672724
 10
64.732221
 20
-51.672725
 42
0.006742
 10
64.74412
 20
-51.767255
 42
0.00517
 10
64.762568
 20
-51.890109
  0
LWPOLYLINE
  5
2F2
330
3F1
100
AcDbEntity
  8
DIM
  6
Continuous
 62
     7
370
     0
100
AcDbPolyline
 90
       10
 70
   128
 43
0.0
 10
64.497331
 20
-49.418762
 42
0.005803
 10
64.492717
 20
-49.690062
 42
0.008645
 10
64.494677
 20
-49.854893
 10
64.494677
 20
-49.854882
 42
0.000115
 10
64.501762
 20
-50.095736
 10
64.501763
 20
-50.095738
 42
0.003827
 10
64.502032
 20
-50.102951
 10
64.502032
 20
-50.102951
 42
0.001825
 10
64.514471
 20
-50.358727
 42
0.001031
 10
64.5204
 20
-50.467797
  0
LWPOLYLINE
  5
2F9
330
3F1
100
AcDbEntity
  8
DIM
  6
Continuous
 62
     7
370
     0
100
AcDbPolyline
 90
       38
 70
   128
 43
0.0
 10
64.526941
 20
-50.579508
 42
0.000013
 10
64.527025
 20
-50.580899
 10
64.527025
 20
-50.5809
 42
0.000066
 10
64.528213
 20
-50.600419
 10
64.528213
 20
-50.600417
 42
0.000184
 10
64.52864
 20
-50.607375
 10
64.52864
 20
-50.607375
 42
0.003
 10
64.535322
 20
-50.706012
 42
0.00214
 10
64.546111
 20
-50.844183
 42
0.001805
 10
64.552615
 20
-50.919782
 10
64.552615
 20
-50.919782
 42
0.006587
 10
64.554745
 20
-50.94047
 10
64.554746
 20
-50.940479
 42
0.000011
 10
64.556758
 20
-50.957776
 10
64.55676
 20
-50.957796
 42
0.000004
 10
64.562471
 20
-51.006882
 10
64.562475
 20
-51.006917
 42
0.000012
 10
64.56592
 20
-51.036519
 10
64.56592
 20
-51.036514
 42
-0.000282
 10
64.569363
 20
-51.066101
 10
64.569363
 20
-51.066101
 42
-0.010671
 10
64.569586
 20
-51.06847
 10
64.569586
 20
-51.06847
 42
-0.0003
 10
64.575663
 20
-51.152719
 10
64.575664
 20
-51.15272
 42
-0.000408
 10
64.579345
 20
-51.204788
 10
64.579345
 20
-51.204788
 42
0.003633
 10
64.583027
 20
-51.256856
 42
0.004295
 10
64.584332
 20
-51.27192
 10
64.584332
 20
-51.271919
 42
0.001443
 10
64.588731
 20
-51.316693
 42
0.000629
 10
64.591614
 20
-51.344847
 10
64.591614
 20
-51.344846
 42
0.005001
 10
64.592017
 20
-51.348384
 10
64.592017
 20
-51.348386
 42
0.000025
 10
64.593021
 20
-51.356486
 10
64.617137
 20
-51.550867
 42
-0.000203
 10
64.620521
 20
-51.578011
  0
LWPOLYLINE
  5
30F
330
3F1
100
AcDbEntity
  8
DIM
  6
Continuous
 62
     7
370
     0
100
AcDbPolyline
 90
        5
 70
   128
 43
0.0
 10
64.397181
 20
-49.418761
 42
0.006601
 10
64.394672
 20
-49.855639
 42
0.01109
 10
64.402158
 20
-50.108131
 10
64.402158
 20
-50.108125
 42
0.000052
 10
64.408229
 20
-50.224944
  0
LWPOLYLINE
  5
313
330
3F1
100
AcDbEntity
  8
DIM
  6
Continuous
 62
     7
370
     0
100
AcDbPolyline
 90
       11
 70
   128
 43
0.0
 10
64.414819
 20
-50.351235
 42
0.000105
 10
64.427156
 20
-50.586165
 10
64.427156
 20
-50.586164
 42
0.004117
 10
64.428871
 20
-50.614284
 42
0.002251
 10
64.446409
 20
-50.851991
 10
64.446409
 20
-50.85199
 42
0.00564
 10
64.455244
 20
-50.950525
 42
0.007592
 10
64.463369
 20
-51.020318
 42
-0.010878
 10
64.469799
 20
-51.075511
 42
-0.010796
 10
64.475781
 20
-51.157719
 42
0.009716
 10
64.482463
 20
-51.255205
  0
LWPOLYLINE
  5
31C
330
3F1
100
AcDbEntity
  8
DIM
  6
Continuous
 62
     7
370
     0
100
AcDbPolyline
 90
        3
 70
   128
 43
0.0
 10
64.297155
 20
-49.418761
 42
0.006573
 10
64.294667
 20
-49.856386
 42
0.009548
 10
64.300543
 20
-50.077617
  0
LWPOLYLINE
  5
31F
330
3F1
100
AcDbEntity
  8
DIM
  6
Continuous
 62
     7
370
     0
100
AcDbPolyline
 90
        8
 70
   128
 43
0.0
 10
64.306485
 20
-50.194194
 42
0.000178
 10
64.327287
 20
-50.59143
 10
64.327287
 20
-50.591429
 42
0.004117
 10
64.329102
 20
-50.621194
 42
0.002251
 10
64.346706
 20
-50.859798
 10
64.346706
 20
-50.859798
 42
0.00564
 10
64.355743
 20
-50.960579
 42
0.00067
 10
64.356402
 20
-50.967019
  0
LWPOLYLINE
  5
325
330
3F1
100
AcDbEntity
  8
DIM
  6
Continuous
 62
     7
370
     0
100
AcDbPolyline
 90
        3
 70
   128
 43
0.0
 10
64.172123
 20
-49.418761
 42
0.006538
 10
64.16966
 20
-49.857318
 42
0.004655
 10
64.171509
 20
-49.967525
  0
LWPOLYLINE
  5
328
330
3F1
100
AcDbEntity
  8
DIM
  6
Continuous
 62
     7
370
     0
100
AcDbPolyline
 90
        7
 70
   128
 43
0.0
 10
64.174841
 20
-50.064665
 42
0.00233
 10
64.177442
 20
-50.119786
 10
64.177442
 20
-50.11978
 42
0.000214
 10
64.20245
 20
-50.598012
 10
64.20245
 20
-50.598011
 42
0.004117
 10
64.204391
 20
-50.629831
 42
0.000033
 10
64.204634
 20
-50.633349
  0
ARC
  5
32D
330
3F1
100
AcDbEntity
  8
DIM
  6
Continuous
 62
     7
370
     0
100
AcDbCircle
 10
80.939952
 20
-49.732206
 30
0.0
 40
16.89576808962799
100
AcDbArc
 50
178.937008
 51
180.303878
  0
LWPOLYLINE
  5
32E
330
3F1
100
AcDbEntity
  8
DIM
  6
Continuous
 62
     7
370
     0
100
AcDbPolyline
 90
        4
 70
   128
 43
0.0
 10
64.045559
 20
-49.92705
 42
0.008244
 10
64.0526
 20
-50.126261
 10
64.052599
 20
-50.126255
 42
0.00009
 10
64.063074
 20
-50.327511
  0
SOLID
  5
331
330
3F1
100
AcDbEntity
  8
DIM
  6
Continuous
 62
     7
370
    13
100
AcDbTrace
 10
64.505458
 20
-49.468802
 30
0.0
 11
64.488792
 21
-49.468729
 31
0.0
 12
64.497333
 22
-49.41876
 32
0.0
 13
64.497333
 23
-49.41876
 33
0.0
  0
SOLID
  5
332
330
3F1
100
AcDbEntity
  8
DIM
  6
Continuous
 62
     7
370
    13
100
AcDbTrace
 10
64.405312
 20
-49.468802
 30
0.0
 11
64.388646
 21
-49.468729
 31
0.0
 12
64.397177
 22
-49.41876
 32
0.0
 13
64.397177
 23
-49.41876
 33
0.0
  0
SOLID
  5
333
330
3F1
100
AcDbEntity
  8
DIM
  6
Continuous
 62
     7
370
    13
100
AcDbTrace
 10
64.305281
 20
-49.468802
 30
0.0
 11
64.288615
 21
-49.468729
 31
0.0
 12
64.297156
 22
-49.41876
 32
0.0
 13
64.297156
 23
-49.41876
 33
0.0
  0
SOLID
  5
334
330
3F1
100
AcDbEntity
  8
DIM
  6
Continuous
 62
     7
370
    13
100
AcDbTrace
 10
64.18025
 20
-49.468802
 30
0.0
 11
64.163583
 21
-49.468729
 31
0.0
 12
64.172125
 22
-49.41876
 32
0.0
 13
64.172125
 23
-49.41876
 33
0.0
  0
SOLID
  5
335
330
3F1
100
AcDbEntity
  8
DIM
  6
Continuous
 62
     7
370
    13
100
AcDbTrace
 10
64.055219
 20
-49.468802
 30
0.0
 11
64.038552
 21
-49.468729
 31
0.0
 12
64.047094
 22
-49.41876
 32
0.0
 13
64.047094
 23
-49.41876
 33
0.0
  0
SOLID
  5
336
330
3F1
100
AcDbEntity
  8
DIM
  6
Continuous
 62
     7
370
    13
100
AcDbTrace
 10
63.930187
 20
-49.468802
 30
0.0
 11
63.913521
 21
-49.468729
 31
0.0
 12
63.922062
 22
-49.41876
 32
0.0
 13
63.922062
 23
-49.41876
 33
0.0
  0
SOLID
  5
337
330
3F1
100
AcDbEntity
  8
DIM
  6
Continuous
 62
     7
370
    13
100
AcDbTrace
 10
63.805437
 20
-49.468865
 30
0.0
 11
63.788781
 21
-49.468656
 31
0.0
 12
63.797729
 22
-49.41876
 32
0.0
 13
63.797729
 23
-49.41876
 33
0.0
  0
SOLID
  5
338
330
3F1
100
AcDbEntity
  8
DIM
  6
Continuous
 62
     7
370
    13
100
AcDbTrace
 10
64.747896
 20
-51.841583
 30
0.0
 11
64.764427
 21
-51.839448
 31
0.0
 12
64.762563
 22
-51.890115
 32
0.0
 13
64.762563
 23
-51.890115
 33
0.0
  0
SOLID
  5
339
330
3F1
100
AcDbEntity
  8
DIM
  6
Continuous
 62
     7
370
    13
100
AcDbTrace
 10
64.608052
 20
-51.53451
 30
0.0
 11
64.624646
 21
-51.532948
 31
0.0
 12
64.621042
 22
-51.58351
 32
0.0
 13
64.621042
 23
-51.58351
 33
0.0
  0
SOLID
  5
33A
330
3F1
100
AcDbEntity
  8
DIM
  6
Continuous
 62
     7
370
    13
100
AcDbTrace
 10
64.468458
 20
-51.20649
 30
0.0
 11
64.48501
 21
-51.204573
 31
0.0
 12
64.482458
 22
-51.255208
 32
0.0
 13
64.482458
 23
-51.255208
 33
0.0
  0
SOLID
  5
33B
330
3F1
100
AcDbEntity
  8
DIM
  6
Continuous
 62
     7
370
    13
100
AcDbTrace
 10
-63.803167
 20
-49.66626
 30
0.0
 11
-63.7865
 21
-49.666187
 31
0.0
 12
-63.794625
 22
-49.716229
 32
0.0
 13
-63.794625
 23
-49.716229
 33
0.0
210
0.0
220
0.0
230
-1.0
  0
SOLID
  5
33C
330
3F1
100
AcDbEntity
  8
DIM
  6
Continuous
 62
     7
370
    13
100
AcDbTrace
 10
63.914177
 20
-49.979229
 30
0.0
 11
63.930844
 21
-49.979
 31
0.0
 12
63.923187
 22
-50.029115
 32
0.0
 13
63.923187
 23
-50.029115
 33
0.0
  0
SOLID
  5
33D
330
3F1
100
AcDbEntity
  8
DIM
  6
Continuous
 62
     7
370
    13
100
AcDbTrace
 10
64.053521
 20
-50.280313
 30
0.0
 11
64.070177
 21
-50.27974
 31
0.0
 12
64.063583
 22
-50.33
 32
0.0
 13
64.063583
 23
-50.33
 33
0.0
  0
SOLID
  5
33E
330
3F1
100
AcDbEntity
  8
DIM
  6
Continuous
 62
     7
370
    13
100
AcDbTrace
 10
64.193698
 20
-50.586312
 30
0.0
 11
64.210333
 21
-50.58525
 31
0.0
 12
64.205177
 22
-50.635687
 32
0.0
 13
64.205177
 23
-50.635687
 33
0.0
  0
SOLID
  5
33F
330
3F1
100
AcDbEntity
  8
DIM
  6
Continuous
 62
     7
370
    13
100
AcDbTrace
 10
64.344188
 20
-50.917823
 30
0.0
 11
64.360802
 21
-50.916521
 31
0.0
 12
64.356406
 22
-50.967021
 32
0.0
 13
64.356406
 23
-50.967021
 33
0.0
  0
SOLID
  5
340
330
3F1
100
AcDbEntity
  8
DIM
  6
Continuous
 62
     7
370
    13
100
AcDbTrace
 10
64.605365
 20
-49.468802
 30
0.0
 11
64.588698
 21
-49.468729
 31
0.0
 12
64.597229
 22
-49.41876
 32
0.0
 13
64.597229
 23
-49.41876
 33
0.0
  0
SOLID
  5
341
330
3F1
100
AcDbEntity
  8
DIM
  6
Continuous
 62
     7
370
    13
100
AcDbTrace
 10
-63.635271
 20
-52.011333
 30
0.0
 11
-63.635271
 21
-52.028
 31
0.0
 12
-63.685271
 22
-52.019667
 32
0.0
 13
-63.685271
 23
-52.019667
 33
0.0
210
0.0
220
0.0
230
-1.0
  0
SOLID
  5
342
330
3F1
100
AcDbEntity
  8
DIM
  6
Continuous
 62
     7
370
    13
100
AcDbTrace
 10
-63.590042
 20
-51.685406
 30
0.0
 11
-63.590042
 21
-51.702083
 31
0.0
 12
-63.640042
 22
-51.69375
 32
0.0
 13
-63.640042
 23
-51.69375
 33
0.0
210
0.0
220
0.0
230
-1.0
  0
SOLID
  5
343
330
3F1
100
AcDbEntity
  8
DIM
  6
Continuous
 62
     7
370
    13
100
AcDbTrace
 10
-63.554969
 20
-51.338854
 30
0.0
 11
-63.554969
 21
-51.355521
 31
0.0
 12
-63.604969
 22
-51.347187
 32
0.0
 13
-63.604969
 23
-51.347187
 33
0.0
210
0.0
220
0.0
230
-1.0
  0
SOLID
  5
344
330
3F1
100
AcDbEntity
  8
DIM
  6
Continuous
 62
     7
370
    13
100
AcDbTrace
 10
-63.556302
 20
-52.011333
 30
0.0
 11
-63.556302
 21
-52.028
 31
0.0
 12
-63.506302
 22
-52.019667
 32
0.0
 13
-63.506302
 23
-52.019667
 33
0.0
210
0.0
220
0.0
230
-1.0
  0
SOLID
  5
345
330
3F1
100
AcDbEntity
  8
DIM
  6
Continuous
 62
     7
370
    13
100
AcDbTrace
 10
-63.56175
 20
-51.685406
 30
0.0
 11
-63.56175
 21
-51.702083
 31
0.0
 12
-63.51175
 22
-51.69375
 32
0.0
 13
-63.51175
 23
-51.69375
 33
0.0
210
0.0
220
0.0
230
-1.0
  0
SOLID
  5
346
330
3F1
100
AcDbEntity
  8
DIM
  6
Continuous
 62
     7
370
    13
100
AcDbTrace
 10
-63.559698
 20
-51.338854
 30
0.0
 11
-63.559698
 21
-51.355521
 31
0.0
 12
-63.509698
 22
-51.347187
 32
0.0
 13
-63.509698
 23
-51.347187
 33
0.0
210
0.0
220
0.0
230
-1.0
  0
LINE
  5
352
330
3F1
100
AcDbEntity
  8
LEGEND
  6
Continuous
 62
     7
370
    13
100
AcDbLine
 10
64.215749
 20
-52.271348
 30
0.0
 11
64.324738
 21
-52.271348
 31
0.0
  0
LINE
  5
355
330
3F1
100
AcDbEntity
  8
_0
  6
Continuous
 62
     7
370
    13
100
AcDbLine
 10
63.406292
 20
-52.568698
 30
0.0
 11
63.406292
 21
-49.230115
 31
0.0
  0
LINE
  5
356
330
3F1
100
AcDbEntity
  8
_0
  6
Continuous
 62
     7
370
    13
100
AcDbLine
 10
63.685479
 20
-52.061344
 30
0.0
 11
63.685479
 21
-52.567677
 31
0.0
  0
LINE
  5
357
330
3F1
100
AcDbEntity
  8
DIM
  6
Continuous
 62
     7
370
    13
100
AcDbLine
 10
63.456292
 20
-52.517677
 30
0.0
 11
63.635479
 21
-52.517677
 31
0.0
  0
SOLID
  5
358
330
3F1
100
AcDbEntity
  8
DIM
  6
Continuous
 62
     7
370
    13
100
AcDbTrace
 10
63.456292
 20
-52.52601
 30
0.0
 11
63.456292
 21
-52.509344
 31
0.0
 12
63.406292
 22
-52.517677
 32
0.0
 13
63.406292
 23
-52.517677
 33
0.0
  0
SOLID
  5
359
330
3F1
100
AcDbEntity
  8
DIM
  6
Continuous
 62
     7
370
    13
100
AcDbTrace
 10
63.635479
 20
-52.52601
 30
0.0
 11
63.635479
 21
-52.509344
 31
0.0
 12
63.685479
 22
-52.517677
 32
0.0
 13
63.685479
 23
-52.517677
 33
0.0
  0
SOLID
  5
35A
330
3F1
100
AcDbEntity
  8
DIM
  6
Continuous
 62
     7
370
    13
100
AcDbTrace
 10
-63.636792
 20
-52.269031
 30
0.0
 11
-63.636792
 21
-52.285698
 31
0.0
 12
-63.686802
 22
-52.277365
 32
0.0
 13
-63.686802
 23
-52.277365
 33
0.0
210
0.0
220
0.0
230
-1.0
  0
LINE
  5
35B
330
3F1
100
AcDbEntity
  8
DIM
  6
Continuous
 62
     7
370
    13
100
AcDbLine
 10
63.506302
 20
-52.277365
 30
0.0
 11
63.681312
 21
-52.277365
 31
0.0
  0
SOLID
  5
35C
330
3F1
100
AcDbEntity
  8
DIM
  6
Continuous
 62
     7
370
    13
100
AcDbTrace
 10
-63.556302
 20
-52.269031
 30
0.0
 11
-63.556302
 21
-52.285698
 31
0.0
 12
-63.506302
 22
-52.277365
 32
0.0
 13
-63.506302
 23
-52.277365
 33
0.0
210
0.0
220
0.0
230
-1.0
  0
LINE
  5
35D
330
3F1
100
AcDbEntity
  8
DIM
  6
Continuous
 62
     7
370
    13
100
AcDbLine
 10
63.506302
 20
-49.344458
 30
0.0
 11
63.506302
 21
-49.230844
 31
0.0
  0
LINE
  5
35E
330
3F1
100
AcDbEntity
  8
DIM
  6
Continuous
 62
     7
370
    13
100
AcDbLine
 10
63.356281
 20
-49.280854
 30
0.0
 11
63.306281
 21
-49.280854
 31
0.0
  0
LINE
  5
35F
330
3F1
100
AcDbEntity
  8
DIM
  6
Continuous
 62
     7
370
    13
100
AcDbLine
 10
63.556302
 20
-49.280854
 30
0.0
 11
63.606302
 21
-49.280854
 31
0.0
  0
SOLID
  5
360
330
3F1
100
AcDbEntity
  8
DIM
  6
Continuous
 62
     7
370
    13
100
AcDbTrace
 10
63.356281
 20
-49.289187
 30
0.0
 11
63.356281
 21
-49.272521
 31
0.0
 12
63.406292
 22
-49.280854
 32
0.0
 13
63.406292
 23
-49.280854
 33
0.0
  0
SOLID
  5
361
330
3F1
100
AcDbEntity
  8
DIM
  6
Continuous
 62
     7
370
    13
100
AcDbTrace
 10
63.556302
 20
-49.289187
 30
0.0
 11
63.556302
 21
-49.272521
 31
0.0
 12
63.506302
 22
-49.280854
 32
0.0
 13
63.506302
 23
-49.280854
 33
0.0
  0
SOLID
  5
37B
330
3F1
100
AcDbEntity
  8
TEXT
  6
Continuous
 62
     7
370
    13
100
AcDbTrace
 10
-63.335885
 20
-49.763594
 30
0.0
 11
-63.352552
 21
-49.763594
 31
0.0
 12
-63.344219
 22
-49.713583
 32
0.0
 13
-63.344219
 23
-49.713583
 33
0.0
210
0.0
220
0.0
230
-1.0
  0
LINE
  5
37C
330
3F1
100
AcDbEntity
  8
TEXT
  6
Continuous
 62
     7
370
    13
100
AcDbLine
 10
63.344219
 20
-49.763594
 30
0.0
 11
63.344219
 21
-49.98699
 31
0.0
  0
SOLID
  5
37D
330
3F1
100
AcDbEntity
  8
TEXT
  6
Continuous
 62
     7
370
    13
100
AcDbTrace
 10
63.369323
 20
-51.195604
 30
0.0
 11
63.382937
 21
-51.205219
 31
0.0
 12
63.404969
 22
-51.159552
 32
0.0
 13
63.404969
 23
-51.159552
 33
0.0
  0
LINE
  5
37E
330
3F1
100
AcDbEntity
  8
TEXT
  6
Continuous
 62
     7
370
    13
100
AcDbLine
 10
63.376135
 20
-51.200406
 30
0.0
 11
63.332073
 21
-51.262844
 31
0.0
  0
LINE
  5
37F
330
3F1
100
AcDbEntity
  8
TEXT
  6
Continuous
 62
     7
370
    13
100
AcDbLine
 10
63.332073
 20
-51.262844
 30
0.0
 11
63.332073
 21
-51.378281
 31
0.0
  0
TEXT
  5
A2
330
3F1
100
AcDbEntity
  8
_0
  6
Continuous
 62
     7
370
    13
100
AcDbText
 10
56.767868
 20
-52.314555
 30
0.0
 40
0.052739
  1
X   150 00'
  7
Style-Arial
 72
     1
 11
56.941077
 21
-52.288185
 31
0.0
100
AcDbText
 73
     2
  0
TEXT
  5
A3
330
3F1
100
AcDbEntity
  8
_0
  6
Continuous
 62
     7
370
    13
100
AcDbText
 10
56.65884
 20
-52.314383
 30
0.0
 40
0.052739
  1
24
  7
Style-Arial
 72
     1
 11
56.698012
 21
-52.288014
 31
0.0
100
AcDbText
 73
     2
  0
TEXT
  5
A4
330
3F1
100
AcDbEntity
  8
_0
  6
Continuous
 62
     7
370
    13
100
AcDbText
 10
56.765647
 20
-52.201555
 30
0.0
 40
0.052739
  1
X   143 75'
  7
Style-Arial
 72
     1
 11
56.938857
 21
-52.175185
 31
0.0
100
AcDbText
 73
     2
  0
TEXT
  5
A5
330
3F1
100
AcDbEntity
  8
_0
  6
Continuous
 62
     7
370
    13
100
AcDbText
 10
56.658719
 20
-52.201373
 30
0.0
 40
0.052739
  1
23
  7
Style-Arial
 72
     1
 11
56.698012
 21
-52.175004
 31
0.0
100
AcDbText
 73
     2
  0
TEXT
  5
A6
330
3F1
100
AcDbEntity
  8
_0
  6
Continuous
 62
     7
370
    13
100
AcDbText
 10
56.765648
 20
-52.088544
 30
0.0
 40
0.052739
  1
X   137 50'
  7
Style-Arial
 72
     1
 11
56.938857
 21
-52.062175
 31
0.0
100
AcDbText
 73
     2
  0
TEXT
  5
A7
330
3F1
100
AcDbEntity
  8
_0
  6
Continuous
 62
     7
370
    13
100
AcDbText
 10
56.659001
 20
-52.088373
 30
0.0
 40
0.052739
  1
22
  7
Style-Arial
 72
     1
 11
56.698012
 21
-52.062004
 31
0.0
100
AcDbText
 73
     2
  0
TEXT
  5
A8
330
3F1
100
AcDbEntity
  8
_0
  6
Continuous
 62
     7
370
    13
100
AcDbText
 10
56.765299
 20
-51.975534
 30
0.0
 40
0.052739
  1
X   131 25'
  7
Style-Arial
 72
     1
 11
56.938509
 21
-51.949165
 31
0.0
100
AcDbText
 73
     2
  0
TEXT
  5
A9
330
3F1
100
AcDbEntity
  8
_0
  6
Continuous
 62
     7
370
    13
100
AcDbText
 10
56.663824
 20
-51.975362
 30
0.0
 40
0.052739
  1
21
  7
Style-Arial
 72
     1
 11
56.698012
 21
-51.948993
 31
0.0
100
AcDbText
 73
     2
  0
TEXT
  5
AA
330
3F1
100
AcDbEntity
  8
_0
  6
Continuous
 62
     7
370
    13
100
AcDbText
 10
56.765648
 20
-51.862524
 30
0.0
 40
0.052739
  1
X   125 00'
  7
Style-Arial
 72
     1
 11
56.938857
 21
-51.836154
 31
0.0
100
AcDbText
 73
     2
  0
TEXT
  5
AB
330
3F1
100
AcDbEntity
  8
_0
  6
Continuous
 62
     7
370
    13
100
AcDbText
 10
56.65882
 20
-51.862352
 30
0.0
 40
0.052739
  1
20
  7
Style-Arial
 72
     1
 11
56.698012
 21
-51.835983
 31
0.0
100
AcDbText
 73
     2
  0
TEXT
  5
AC
330
3F1
100
AcDbEntity
  8
_0
  6
Continuous
 62
     7
370
    13
100
AcDbText
 10
56.765469
 20
-51.749513
 30
0.0
 40
0.052739
  1
X   118 75'
  7
Style-Arial
 72
     1
 11
56.938678
 21
-51.723144
 31
0.0
100
AcDbText
 73
     2
  0
TEXT
  5
AD
330
3F1
100
AcDbEntity
  8
_0
  6
Continuous
 62
     7
370
    13
100
AcDbText
 10
56.658679
 20
-51.749342
 30
0.0
 40
0.052739
  1
19
  7
Style-Arial
 72
     1
 11
56.698012
 21
-51.722972
 31
0.0
100
AcDbText
 73
     2
  0
TEXT
  5
AE
330
3F1
100
AcDbEntity
  8
_0
  6
Continuous
 62
     7
370
    13
100
AcDbText
 10
56.765469
 20
-51.636503
 30
0.0
 40
0.052739
  1
X   112 50'
  7
Style-Arial
 72
     1
 11
56.938678
 21
-51.610133
 31
0.0
100
AcDbText
 73
     2
  0
TEXT
  5
AF
330
3F1
100
AcDbEntity
  8
_0
  6
Continuous
 62
     7
370
    13
100
AcDbText
 10
56.658679
 20
-51.636331
 30
0.0
 40
0.052739
  1
18
  7
Style-Arial
 72
     1
 11
56.698012
 21
-51.609962
 31
0.0
100
AcDbText
 73
     2
  0
TEXT
  5
B0
330
3F1
100
AcDbEntity
  8
_0
  6
Continuous
 62
     7
370
    13
100
AcDbText
 10
56.765296
 20
-51.523492
 30
0.0
 40
0.052739
  1
X   106 25'
  7
Style-Arial
 72
     1
 11
56.938505
 21
-51.497123
 31
0.0
100
AcDbText
 73
     2
  0
TEXT
  5
B1
330
3F1
100
AcDbEntity
  8
_0
  6
Continuous
 62
     7
370
    13
100
AcDbText
 10
56.658719
 20
-51.523321
 30
0.0
 40
0.052739
  1
17
  7
Style-Arial
 72
     1
 11
56.698012
 21
-51.496952
 31
0.0
100
AcDbText
 73
     2
  0
TEXT
  5
B2
330
3F1
100
AcDbEntity
  8
_0
  6
Continuous
 62
     7
370
    13
100
AcDbText
 10
56.765648
 20
-51.410492
 30
0.0
 40
0.052739
  1
X   100 00'
  7
Style-Arial
 72
     1
 11
56.938857
 21
-51.384123
 31
0.0
100
AcDbText
 73
     2
  0
TEXT
  5
B3
330
3F1
100
AcDbEntity
  8
_0
  6
Continuous
 62
     7
370
    13
100
AcDbText
 10
56.658719
 20
-51.410321
 30
0.0
 40
0.052739
  1
16
  7
Style-Arial
 72
     1
 11
56.698012
 21
-51.383952
 31
0.0
100
AcDbText
 73
     2
  0
TEXT
  5
B4
330
3F1
100
AcDbEntity
  8
_0
  6
Continuous
 62
     7
370
    13
100
AcDbText
 10
56.776077
 20
-51.297482
 30
0.0
 40
0.052739
  1
X    93 75'
  7
Style-Arial
 72
     1
 11
56.939036
 21
-51.271113
 31
0.0
100
AcDbText
 73
     2
  0
TEXT
  5
B5
330
3F1
100
AcDbEntity
  8
_0
  6
Continuous
 62
     7
370
    13
100
AcDbText
 10
56.658518
 20
-51.29731
 30
0.0
 40
0.052739
  1
15
  7
Style-Arial
 72
     1
 11
56.698012
 21
-51.270941
 31
0.0
100
AcDbText
 73
     2
  0
TEXT
  5
B6
330
3F1
100
AcDbEntity
  8
_0
  6
Continuous
 62
     7
370
    13
100
AcDbText
 10
56.776078
 20
-51.184471
 30
0.0
 40
0.052739
  1
X    87 50'
  7
Style-Arial
 72
     1
 11
56.939037
 21
-51.158102
 31
0.0
100
AcDbText
 73
     2
  0
TEXT
  5
B7
330
3F1
100
AcDbEntity
  8
_0
  6
Continuous
 62
     7
370
    13
100
AcDbText
 10
56.65884
 20
-51.1843
 30
0.0
 40
0.052739
  1
14
  7
Style-Arial
 72
     1
 11
56.698012
 21
-51.157931
 31
0.0
100
AcDbText
 73
     2
  0
TEXT
  5
B8
330
3F1
100
AcDbEntity
  8
_0
  6
Continuous
 62
     7
370
    13
100
AcDbText
 10
56.775719
 20
-51.071461
 30
0.0
 40
0.052739
  1
X    81 25'
  7
Style-Arial
 72
     1
 11
56.938678
 21
-51.045092
 31
0.0
100
AcDbText
 73
     2
  0
TEXT
  5
B9
330
3F1
100
AcDbEntity
  8
_0
  6
Continuous
 62
     7
370
    13
100
AcDbText
 10
56.658719
 20
-51.07129
 30
0.0
 40
0.052739
  1
13
  7
Style-Arial
 72
     1
 11
56.698012
 21
-51.04492
 31
0.0
100
AcDbText
 73
     2
  0
TEXT
  5
BA
330
3F1
100
AcDbEntity
  8
_0
  6
Continuous
 62
     7
370
    13
100
AcDbText
 10
56.776078
 20
-50.958451
 30
0.0
 40
0.052739
  1
X    75 00'
  7
Style-Arial
 72
     1
 11
56.939037
 21
-50.932081
 31
0.0
100
AcDbText
 73
     2
  0
TEXT
  5
BB
330
3F1
100
AcDbEntity
  8
_0
  6
Continuous
 62
     7
370
    13
100
AcDbText
 10
56.659001
 20
-50.958279
 30
0.0
 40
0.052739
  1
12
  7
Style-Arial
 72
     1
 11
56.698012
 21
-50.93191
 31
0.0
100
AcDbText
 73
     2
  0
TEXT
  5
BC
330
3F1
100
AcDbEntity
  8
_0
  6
Continuous
 62
     7
370
    13
100
AcDbText
 10
56.775902
 20
-50.84544
 30
0.0
 40
0.052739
  1
X    68 75'
  7
Style-Arial
 72
     1
 11
56.938861
 21
-50.819071
 31
0.0
100
AcDbText
 73
     2
  0
TEXT
  5
BD
330
3F1
100
AcDbEntity
  8
_0
  6
Continuous
 62
     7
370
    13
100
AcDbText
 10
56.663824
 20
-50.845269
 30
0.0
 40
0.052739
  1
11
  7
Style-Arial
 72
     1
 11
56.698012
 21
-50.818899
 31
0.0
100
AcDbText
 73
     2
  0
TEXT
  5
BE
330
3F1
100
AcDbEntity
  8
_0
  6
Continuous
 62
     7
370
    13
100
AcDbText
 10
56.775902
 20
-50.73244
 30
0.0
 40
0.052739
  1
X    62 50'
  7
Style-Arial
 72
     1
 11
56.938861
 21
-50.706071
 31
0.0
100
AcDbText
 73
     2
  0
TEXT
  5
BF
330
3F1
100
AcDbEntity
  8
_0
  6
Continuous
 62
     7
370
    13
100
AcDbText
 10
56.65882
 20
-50.732258
 30
0.0
 40
0.052739
  1
10
  7
Style-Arial
 72
     1
 11
56.698012
 21
-50.705889
 31
0.0
100
AcDbText
 73
     2
  0
TEXT
  5
C0
330
3F1
100
AcDbEntity
  8
_0
  6
Continuous
 62
     7
370
    13
100
AcDbText
 10
56.736263
 20
-50.619419
 30
0.0
 40
0.052739
  1
X    56 25'
  7
Style-Arial
 72
     1
 11
56.899222
 21
-50.59305
 31
0.0
100
AcDbText
 73
     2
  0
TEXT
  5
C1
330
3F1
100
AcDbEntity
  8
_0
  6
Continuous
 62
     7
370
    13
100
AcDbText
 10
56.67916
 20
-50.619248
 30
0.0
 40
0.052739
  1
9
  7
Style-Arial
 72
     1
 11
56.698012
 21
-50.592879
 31
0.0
100
AcDbText
 73
     2
  0
TEXT
  5
C2
330
3F1
100
AcDbEntity
  8
_0
  6
Continuous
 62
     7
370
    13
100
AcDbText
 10
56.736625
 20
-50.506419
 30
0.0
 40
0.052739
  1
X    50 00'
  7
Style-Arial
 72
     1
 11
56.899584
 21
-50.48005
 31
0.0
100
AcDbText
 73
     2
  0
TEXT
  5
C3
330
3F1
100
AcDbEntity
  8
_0
  6
Continuous
 62
     7
370
    13
100
AcDbText
 10
56.67916
 20
-50.506237
 30
0.0
 40
0.052739
  1
8
  7
Style-Arial
 72
     1
 11
56.698012
 21
-50.479868
 31
0.0
100
AcDbText
 73
     2
  0
TEXT
  5
C4
330
3F1
100
AcDbEntity
  8
_0
  6
Continuous
 62
     7
370
    13
100
AcDbText
 10
56.736624
 20
-50.393409
 30
0.0
 40
0.052739
  1
X    43 75'
  7
Style-Arial
 72
     1
 11
56.899583
 21
-50.36704
 31
0.0
100
AcDbText
 73
     2
  0
TEXT
  5
C5
330
3F1
100
AcDbEntity
  8
_0
  6
Continuous
 62
     7
370
    13
100
AcDbText
 10
56.6792
 20
-50.393237
 30
0.0
 40
0.052739
  1
7
  7
Style-Arial
 72
     1
 11
56.698012
 21
-50.366868
 31
0.0
100
AcDbText
 73
     2
  0
TEXT
  5
C6
330
3F1
100
AcDbEntity
  8
_0
  6
Continuous
 62
     7
370
    13
100
AcDbText
 10
56.736614
 20
-50.280399
 30
0.0
 40
0.052739
  1
X    37 50'
  7
Style-Arial
 72
     1
 11
56.899573
 21
-50.254029
 31
0.0
100
AcDbText
 73
     2
  0
TEXT
  5
C7
330
3F1
100
AcDbEntity
  8
_0
  6
Continuous
 62
     7
370
    13
100
AcDbText
 10
56.6792
 20
-50.280227
 30
0.0
 40
0.052739
  1
6
  7
Style-Arial
 72
     1
 11
56.698012
 21
-50.253858
 31
0.0
100
AcDbText
 73
     2
  0
TEXT
  5
C8
330
3F1
100
AcDbEntity
  8
_0
  6
Continuous
 62
     7
370
    13
100
AcDbText
 10
56.736266
 20
-50.167388
 30
0.0
 40
0.052739
  1
X    31 25'
  7
Style-Arial
 72
     1
 11
56.899225
 21
-50.141019
 31
0.0
100
AcDbText
 73
     2
  0
TEXT
  5
C9
330
3F1
100
AcDbEntity
  8
_0
  6
Continuous
 62
     7
370
    13
100
AcDbText
 10
56.678999
 20
-50.167217
 30
0.0
 40
0.052739
  1
5
  7
Style-Arial
 72
     1
 11
56.698012
 21
-50.140847
 31
0.0
100
AcDbText
 73
     2
  0
TEXT
  5
CA
330
3F1
100
AcDbEntity
  8
_0
  6
Continuous
 62
     7
370
    13
100
AcDbText
 10
56.736625
 20
-50.054378
 30
0.0
 40
0.052739
  1
X    25 00'
  7
Style-Arial
 72
     1
 11
56.899584
 21
-50.028008
 31
0.0
100
AcDbText
 73
     2
  0
TEXT
  5
CB
330
3F1
100
AcDbEntity
  8
_0
  6
Continuous
 62
     7
370
    13
100
AcDbText
 10
56.67932
 20
-50.054206
 30
0.0
 40
0.052739
  1
4
  7
Style-Arial
 72
     1
 11
56.698012
 21
-50.027837
 31
0.0
100
AcDbText
 73
     2
  0
TEXT
  5
CC
330
3F1
100
AcDbEntity
  8
_0
  6
Continuous
 62
     7
370
    13
100
AcDbText
 10
56.736446
 20
-49.941367
 30
0.0
 40
0.052739
  1
X    18 75'
  7
Style-Arial
 72
     1
 11
56.899405
 21
-49.914998
 31
0.0
100
AcDbText
 73
     2
  0
TEXT
  5
CD
330
3F1
100
AcDbEntity
  8
_0
  6
Continuous
 62
     7
370
    13
100
AcDbText
 10
56.6792
 20
-49.941196
 30
0.0
 40
0.052739
  1
3
  7
Style-Arial
 72
     1
 11
56.698012
 21
-49.914827
 31
0.0
100
AcDbText
 73
     2
  0
TEXT
  5
CE
330
3F1
100
AcDbEntity
  8
_0
  6
Continuous
 62
     7
370
    13
100
AcDbText
 10
56.736446
 20
-49.828357
 30
0.0
 40
0.052739
  1
X    12 50'
  7
Style-Arial
 72
     1
 11
56.899405
 21
-49.801988
 31
0.0
100
AcDbText
 73
     2
  0
TEXT
  5
CF
330
3F1
100
AcDbEntity
  8
_0
  6
Continuous
 62
     7
370
    13
100
AcDbText
 10
56.679481
 20
-49.828185
 30
0.0
 40
0.052739
  1
2
  7
Style-Arial
 72
     1
 11
56.698012
 21
-49.801816
 31
0.0
100
AcDbText
 73
     2
  0
TEXT
  5
D0
330
3F1
100
AcDbEntity
  8
_0
  6
Continuous
 62
     7
370
    13
100
AcDbText
 10
56.746513
 20
-49.715357
 30
0.0
 40
0.052739
  1
X     6 25'
  7
Style-Arial
 72
     1
 11
56.899222
 21
-49.688988
 31
0.0
100
AcDbText
 73
     2
  0
TEXT
  5
D1
330
3F1
100
AcDbEntity
  8
_0
  6
Continuous
 62
     7
370
    13
100
AcDbText
 10
56.684305
 20
-49.715185
 30
0.0
 40
0.052739
  1
1
  7
Style-Arial
 72
     1
 11
56.698012
 21
-49.688816
 31
0.0
100
AcDbText
 73
     2
  0
TEXT
  5
D2
330
3F1
100
AcDbEntity
  8
_0
  6
Continuous
 62
     7
370
    13
100
AcDbText
 10
57.22554
 20
-50.280399
 30
0.0
 40
0.052739
  1
2 00
  7
Style-Arial
 72
     1
 11
57.295443
 21
-50.254029
 31
0.0
100
AcDbText
 73
     2
  0
TEXT
  5
D3
330
3F1
100
AcDbEntity
  8
_0
  6
Continuous
 62
     7
370
    13
100
AcDbText
 10
57.22505
 20
-50.167388
 30
0.0
 40
0.052739
  1
1 39
  7
Style-Arial
 72
     1
 11
57.295094
 21
-50.141019
 31
0.0
100
AcDbText
 73
     2
  0
TEXT
  5
D4
330
3F1
100
AcDbEntity
  8
_0
  6
Continuous
 62
     7
370
    13
100
AcDbText
 10
57.225399
 20
-50.054378
 30
0.0
 40
0.052739
  1
0 89
  7
Style-Arial
 72
     1
 11
57.295443
 21
-50.028008
 31
0.0
100
AcDbText
 73
     2
  0
TEXT
  5
D5
330
3F1
100
AcDbEntity
  8
_0
  6
Continuous
 62
     7
370
    13
100
AcDbText
 10
57.22554
 20
-49.941367
 30
0.0
 40
0.052739
  1
0 50
  7
Style-Arial
 72
     1
 11
57.295443
 21
-49.914998
 31
0.0
100
AcDbText
 73
     2
  0
TEXT
  5
D6
330
3F1
100
AcDbEntity
  8
_0
  6
Continuous
 62
     7
370
    13
100
AcDbText
 10
57.225721
 20
-49.828357
 30
0.0
 40
0.052739
  1
0 22
  7
Style-Arial
 72
     1
 11
57.295443
 21
-49.801988
 31
0.0
100
AcDbText
 73
     2
  0
TEXT
  5
D7
330
3F1
100
AcDbEntity
  8
_0
  6
Continuous
 62
     7
370
    13
100
AcDbText
 10
57.225262
 20
-49.715357
 30
0.0
 40
0.052739
  1
0 06
  7
Style-Arial
 72
     1
 11
57.295265
 21
-49.688988
 31
0.0
100
AcDbText
 73
     2
  0
TEXT
  5
D8
330
3F1
100
AcDbEntity
  8
_0
  6
Continuous
 62
     7
370
    13
100
AcDbText
 10
57.51931
 20
-50.393409
 30
0.0
 40
0.052739
  1
2 30
  7
Style-Arial
 72
     1
 11
57.589213
 21
-50.36704
 31
0.0
100
AcDbText
 73
     2
  0
TEXT
  5
D9
330
3F1
100
AcDbEntity
  8
_0
  6
Continuous
 62
     7
370
    13
100
AcDbText
 10
57.518646
 20
-50.280399
 30
0.0
 40
0.052739
  1
1 69
  7
Style-Arial
 72
     1
 11
57.588689
 21
-50.254029
 31
0.0
100
AcDbText
 73
     2
  0
TEXT
  5
DA
330
3F1
100
AcDbEntity
  8
_0
  6
Continuous
 62
     7
370
    13
100
AcDbText
 10
57.518682
 20
-50.167388
 30
0.0
 40
0.052739
  1
1 17
  7
Style-Arial
 72
     1
 11
57.588686
 21
-50.141019
 31
0.0
100
AcDbText
 73
     2
  0
TEXT
  5
DB
330
3F1
100
AcDbEntity
  8
_0
  6
Continuous
 62
     7
370
    13
100
AcDbText
 10
57.519009
 20
-50.054378
 30
0.0
 40
0.052739
  1
0 75
  7
Style-Arial
 72
     1
 11
57.589213
 21
-50.028008
 31
0.0
100
AcDbText
 73
     2
  0
TEXT
  5
DC
330
3F1
100
AcDbEntity
  8
_0
  6
Continuous
 62
     7
370
    13
100
AcDbText
 10
57.519492
 20
-49.941367
 30
0.0
 40
0.052739
  1
0 42
  7
Style-Arial
 72
     1
 11
57.589213
 21
-49.914998
 31
0.0
100
AcDbText
 73
     2
  0
TEXT
  5
DD
330
3F1
100
AcDbEntity
  8
_0
  6
Continuous
 62
     7
370
    13
100
AcDbText
 10
57.519001
 20
-49.828357
 30
0.0
 40
0.052739
  1
0 19
  7
Style-Arial
 72
     1
 11
57.589044
 21
-49.801988
 31
0.0
100
AcDbText
 73
     2
  0
TEXT
  5
DE
330
3F1
100
AcDbEntity
  8
_0
  6
Continuous
 62
     7
370
    13
100
AcDbText
 10
57.519009
 20
-49.715357
 30
0.0
 40
0.052739
  1
0 05
  7
Style-Arial
 72
     1
 11
57.589213
 21
-49.688988
 31
0.0
100
AcDbText
 73
     2
  0
TEXT
  5
DF
330
3F1
100
AcDbEntity
  8
_0
  6
Continuous
 62
     7
370
    13
100
AcDbText
 10
57.812455
 20
-50.393409
 30
0.0
 40
0.052739
  1
1 36
  7
Style-Arial
 72
     1
 11
57.882458
 21
-50.36704
 31
0.0
100
AcDbText
 73
     2
  0
TEXT
  5
E0
330
3F1
100
AcDbEntity
  8
_0
  6
Continuous
 62
     7
370
    13
100
AcDbText
 10
57.812733
 20
-50.280399
 30
0.0
 40
0.052739
  1
1 00
  7
Style-Arial
 72
     1
 11
57.882636
 21
-50.254029
 31
0.0
100
AcDbText
 73
     2
  0
TEXT
  5
E1
330
3F1
100
AcDbEntity
  8
_0
  6
Continuous
 62
     7
370
    13
100
AcDbText
 10
57.812775
 20
-50.167388
 30
0.0
 40
0.052739
  1
0 69
  7
Style-Arial
 72
     1
 11
57.882819
 21
-50.141019
 31
0.0
100
AcDbText
 73
     2
  0
TEXT
  5
E2
330
3F1
100
AcDbEntity
  8
_0
  6
Continuous
 62
     7
370
    13
100
AcDbText
 10
57.813112
 20
-50.054378
 30
0.0
 40
0.052739
  1
0 44
  7
Style-Arial
 72
     1
 11
57.882995
 21
-50.028008
 31
0.0
100
AcDbText
 73
     2
  0
TEXT
  5
E3
330
3F1
100
AcDbEntity
  8
_0
  6
Continuous
 62
     7
370
    13
100
AcDbText
 10
57.81279
 20
-49.941367
 30
0.0
 40
0.052739
  1
0 25
  7
Style-Arial
 72
     1
 11
57.882995
 21
-49.914998
 31
0.0
100
AcDbText
 73
     2
  0
TEXT
  5
E4
330
3F1
100
AcDbEntity
  8
_0
  6
Continuous
 62
     7
370
    13
100
AcDbText
 10
57.817735
 20
-49.828357
 30
0.0
 40
0.052739
  1
0 11
  7
Style-Arial
 72
     1
 11
57.882633
 21
-49.801988
 31
0.0
100
AcDbText
 73
     2
  0
TEXT
  5
E5
330
3F1
100
AcDbEntity
  8
_0
  6
Continuous
 62
     7
370
    13
100
AcDbText
 10
57.812991
 20
-49.715357
 30
0.0
 40
0.052739
  1
0 03
  7
Style-Arial
 72
     1
 11
57.882995
 21
-49.688988
 31
0.0
100
AcDbText
 73
     2
  0
TEXT
  5
E6
330
3F1
100
AcDbEntity
  8
_0
  6
Continuous
 62
     7
370
    13
100
AcDbText
 10
58.106213
 20
-50.393409
 30
0.0
 40
0.052739
  1
1 25
  7
Style-Arial
 72
     1
 11
58.176417
 21
-50.36704
 31
0.0
100
AcDbText
 73
     2
  0
TEXT
  5
E7
330
3F1
100
AcDbEntity
  8
_0
  6
Continuous
 62
     7
370
    13
100
AcDbText
 10
58.107044
 20
-50.280399
 30
0.0
 40
0.052739
  1
0 92
  7
Style-Arial
 72
     1
 11
58.176765
 21
-50.254029
 31
0.0
100
AcDbText
 73
     2
  0
TEXT
  5
E8
330
3F1
100
AcDbEntity
  8
_0
  6
Continuous
 62
     7
370
    13
100
AcDbText
 10
58.106707
 20
-50.167388
 30
0.0
 40
0.052739
  1
0 64
  7
Style-Arial
 72
     1
 11
58.176589
 21
-50.141019
 31
0.0
100
AcDbText
 73
     2
  0
TEXT
  5
E9
330
3F1
100
AcDbEntity
  8
_0
  6
Continuous
 62
     7
370
    13
100
AcDbText
 10
58.111685
 20
-50.054378
 30
0.0
 40
0.052739
  1
0 41
  7
Style-Arial
 72
     1
 11
58.176583
 21
-50.028008
 31
0.0
100
AcDbText
 73
     2
  0
TEXT
  5
EA
330
3F1
100
AcDbEntity
  8
_0
  6
Continuous
 62
     7
370
    13
100
AcDbText
 10
58.106762
 20
-49.941367
 30
0.0
 40
0.052739
  1
0 23
  7
Style-Arial
 72
     1
 11
58.176765
 21
-49.914998
 31
0.0
100
AcDbText
 73
     2
  0
TEXT
  5
EB
330
3F1
100
AcDbEntity
  8
_0
  6
Continuous
 62
     7
370
    13
100
AcDbText
 10
58.106683
 20
-49.828357
 30
0.0
 40
0.052739
  1
0 10
  7
Style-Arial
 72
     1
 11
58.176586
 21
-49.801988
 31
0.0
100
AcDbText
 73
     2
  0
TEXT
  5
EC
330
3F1
100
AcDbEntity
  8
_0
  6
Continuous
 62
     7
370
    13
100
AcDbText
 10
58.106762
 20
-49.715357
 30
0.0
 40
0.052739
  1
0 03
  7
Style-Arial
 72
     1
 11
58.176765
 21
-49.688988
 31
0.0
100
AcDbText
 73
     2
  0
TEXT
  5
ED
330
3F1
100
AcDbEntity
  8
_0
  6
Continuous
 62
     7
370
    13
100
AcDbText
 10
58.399984
 20
-50.506419
 30
0.0
 40
0.052739
  1
1 25
  7
Style-Arial
 72
     1
 11
58.470188
 21
-50.48005
 31
0.0
100
AcDbText
 73
     2
  0
TEXT
  5
EE
330
3F1
100
AcDbEntity
  8
_0
  6
Continuous
 62
     7
370
    13
100
AcDbText
 10
58.400356
 20
-50.393409
 30
0.0
 40
0.052739
  1
0 96
  7
Style-Arial
 72
     1
 11
58.470359
 21
-50.36704
 31
0.0
100
AcDbText
 73
     2
  0
TEXT
  5
EF
330
3F1
100
AcDbEntity
  8
_0
  6
Continuous
 62
     7
370
    13
100
AcDbText
 10
58.400634
 20
-50.280399
 30
0.0
 40
0.052739
  1
0 70
  7
Style-Arial
 72
     1
 11
58.470536
 21
-50.254029
 31
0.0
100
AcDbText
 73
     2
  0
TEXT
  5
F0
330
3F1
100
AcDbEntity
  8
_0
  6
Continuous
 62
     7
370
    13
100
AcDbText
 10
58.400493
 20
-50.167388
 30
0.0
 40
0.052739
  1
0 49
  7
Style-Arial
 72
     1
 11
58.470536
 21
-50.141019
 31
0.0
100
AcDbText
 73
     2
  0
TEXT
  5
F1
330
3F1
100
AcDbEntity
  8
_0
  6
Continuous
 62
     7
370
    13
100
AcDbText
 10
58.400324
 20
-49.941367
 30
0.0
 40
0.052739
  1
0 18
  7
Style-Arial
 72
     1
 11
58.470367
 21
-49.914998
 31
0.0
100
AcDbText
 73
     2
  0
TEXT
  5
F2
330
3F1
100
AcDbEntity
  8
_0
  6
Continuous
 62
     7
370
    13
100
AcDbText
 10
58.400493
 20
-49.828357
 30
0.0
 40
0.052739
  1
0 08
  7
Style-Arial
 72
     1
 11
58.470536
 21
-49.801988
 31
0.0
100
AcDbText
 73
     2
  0
TEXT
  5
F3
330
3F1
100
AcDbEntity
  8
_0
  6
Continuous
 62
     7
370
    13
100
AcDbText
 10
58.400814
 20
-49.715357
 30
0.0
 40
0.052739
  1
0 02
  7
Style-Arial
 72
     1
 11
58.470536
 21
-49.688988
 31
0.0
100
AcDbText
 73
     2
  0
TEXT
  5
F4
330
3F1
100
AcDbEntity
  8
_0
  6
Continuous
 62
     7
370
    13
100
AcDbText
 10
58.694424
 20
-50.393409
 30
0.0
 40
0.052739
  1
0 74
  7
Style-Arial
 72
     1
 11
58.764307
 21
-50.36704
 31
0.0
100
AcDbText
 73
     2
  0
TEXT
  5
F5
330
3F1
100
AcDbEntity
  8
_0
  6
Continuous
 62
     7
370
    13
100
AcDbText
 10
58.694424
 20
-50.280399
 30
0.0
 40
0.052739
  1
0 54
  7
Style-Arial
 72
     1
 11
58.764307
 21
-50.254029
 31
0.0
100
AcDbText
 73
     2
  0
TEXT
  5
F6
330
3F1
100
AcDbEntity
  8
_0
  6
Continuous
 62
     7
370
    13
100
AcDbText
 10
58.694263
 20
-50.167388
 30
0.0
 40
0.052739
  1
0 38
  7
Style-Arial
 72
     1
 11
58.764307
 21
-50.141019
 31
0.0
100
AcDbText
 73
     2
  0
TEXT
  5
F7
330
3F1
100
AcDbEntity
  8
_0
  6
Continuous
 62
     7
370
    13
100
AcDbText
 10
58.694424
 20
-50.054378
 30
0.0
 40
0.052739
  1
0 24
  7
Style-Arial
 72
     1
 11
58.764307
 21
-50.028008
 31
0.0
100
AcDbText
 73
     2
  0
TEXT
  5
F8
330
3F1
100
AcDbEntity
  8
_0
  6
Continuous
 62
     7
370
    13
100
AcDbText
 10
58.694256
 20
-49.941367
 30
0.0
 40
0.052739
  1
0 14
  7
Style-Arial
 72
     1
 11
58.764138
 21
-49.914998
 31
0.0
100
AcDbText
 73
     2
  0
TEXT
  5
F9
330
3F1
100
AcDbEntity
  8
_0
  6
Continuous
 62
     7
370
    13
100
AcDbText
 10
58.694127
 20
-49.828357
 30
0.0
 40
0.052739
  1
0 06
  7
Style-Arial
 72
     1
 11
58.76413
 21
-49.801988
 31
0.0
100
AcDbText
 73
     2
  0
TEXT
  5
FA
330
3F1
100
AcDbEntity
  8
_0
  6
Continuous
 62
     7
370
    13
100
AcDbText
 10
58.694585
 20
-49.715357
 30
0.0
 40
0.052739
  1
0 02
  7
Style-Arial
 72
     1
 11
58.764307
 21
-49.688988
 31
0.0
100
AcDbText
 73
     2
  0
TEXT
  5
FB
330
3F1
100
AcDbEntity
  8
_0
  6
Continuous
 62
     7
370
    13
100
AcDbText
 10
58.98801
 20
-50.393409
 30
0.0
 40
0.052739
  1
0 60
  7
Style-Arial
 72
     1
 11
59.057912
 21
-50.36704
 31
0.0
100
AcDbText
 73
     2
  0
TEXT
  5
FC
330
3F1
100
AcDbEntity
  8
_0
  6
Continuous
 62
     7
370
    13
100
AcDbText
 10
58.988206
 20
-50.280399
 30
0.0
 40
0.052739
  1
0 44
  7
Style-Arial
 72
     1
 11
59.058088
 21
-50.254029
 31
0.0
100
AcDbText
 73
     2
  0
TEXT
  5
FD
330
3F1
100
AcDbEntity
  8
_0
  6
Continuous
 62
     7
370
    13
100
AcDbText
 10
58.988175
 20
-50.167388
 30
0.0
 40
0.052739
  1
0 30
  7
Style-Arial
 72
     1
 11
59.058078
 21
-50.141019
 31
0.0
100
AcDbText
 73
     2
  0
TEXT
  5
FE
330
3F1
100
AcDbEntity
  8
_0
  6
Continuous
 62
     7
370
    13
100
AcDbText
 10
58.987866
 20
-50.054378
 30
0.0
 40
0.052739
  1
0 19
  7
Style-Arial
 72
     1
 11
59.057909
 21
-50.028008
 31
0.0
100
AcDbText
 73
     2
  0
TEXT
  5
FF
330
3F1
100
AcDbEntity
  8
_0
  6
Continuous
 62
     7
370
    13
100
AcDbText
 10
58.992829
 20
-49.941367
 30
0.0
 40
0.052739
  1
0 11
  7
Style-Arial
 72
     1
 11
59.057727
 21
-49.914998
 31
0.0
100
AcDbText
 73
     2
  0
TEXT
  5
100
330
3F1
100
AcDbEntity
  8
_0
  6
Continuous
 62
     7
370
    13
100
AcDbText
 10
58.987884
 20
-49.828357
 30
0.0
 40
0.052739
  1
0 05
  7
Style-Arial
 72
     1
 11
59.058088
 21
-49.801988
 31
0.0
100
AcDbText
 73
     2
  0
TEXT
  5
101
330
3F1
100
AcDbEntity
  8
_0
  6
Continuous
 62
     7
370
    13
100
AcDbText
 10
58.993008
 20
-49.715357
 30
0.0
 40
0.052739
  1
0 01
  7
Style-Arial
 72
     1
 11
59.057906
 21
-49.688988
 31
0.0
100
AcDbText
 73
     2
  0
TEXT
  5
102
330
3F1
100
AcDbEntity
  8
_0
  6
Continuous
 62
     7
370
    13
100
AcDbText
 10
59.28164
 20
-50.393409
 30
0.0
 40
0.052739
  1
0 68
  7
Style-Arial
 72
     1
 11
59.351683
 21
-50.36704
 31
0.0
100
AcDbText
 73
     2
  0
TEXT
  5
103
330
3F1
100
AcDbEntity
  8
_0
  6
Continuous
 62
     7
370
    13
100
AcDbText
 10
59.281956
 20
-50.280399
 30
0.0
 40
0.052739
  1
0 50
  7
Style-Arial
 72
     1
 11
59.351859
 21
-50.254029
 31
0.0
100
AcDbText
 73
     2
  0
TEXT
  5
104
330
3F1
100
AcDbEntity
  8
_0
  6
Continuous
 62
     7
370
    13
100
AcDbText
 10
59.281655
 20
-50.167388
 30
0.0
 40
0.052739
  1
0 35
  7
Style-Arial
 72
     1
 11
59.351859
 21
-50.141019
 31
0.0
100
AcDbText
 73
     2
  0
TEXT
  5
105
330
3F1
100
AcDbEntity
  8
_0
  6
Continuous
 62
     7
370
    13
100
AcDbText
 10
59.282137
 20
-50.054378
 30
0.0
 40
0.052739
  1
0 22
  7
Style-Arial
 72
     1
 11
59.351859
 21
-50.028008
 31
0.0
100
AcDbText
 73
     2
  0
TEXT
  5
106
330
3F1
100
AcDbEntity
  8
_0
  6
Continuous
 62
     7
370
    13
100
AcDbText
 10
59.281958
 20
-49.941367
 30
0.0
 40
0.052739
  1
0 12
  7
Style-Arial
 72
     1
 11
59.35168
 21
-49.914998
 31
0.0
100
AcDbText
 73
     2
  0
TEXT
  5
107
330
3F1
100
AcDbEntity
  8
_0
  6
Continuous
 62
     7
370
    13
100
AcDbText
 10
59.281679
 20
-49.828357
 30
0.0
 40
0.052739
  1
0 06
  7
Style-Arial
 72
     1
 11
59.351682
 21
-49.801988
 31
0.0
100
AcDbText
 73
     2
  0
TEXT
  5
108
330
3F1
100
AcDbEntity
  8
_0
  6
Continuous
 62
     7
370
    13
100
AcDbText
 10
59.286779
 20
-49.715357
 30
0.0
 40
0.052739
  1
0 01
  7
Style-Arial
 72
     1
 11
59.351677
 21
-49.688988
 31
0.0
100
AcDbText
 73
     2
  0
TEXT
  5
109
330
3F1
100
AcDbEntity
  8
_0
  6
Continuous
 62
     7
370
    13
100
AcDbText
 10
59.575627
 20
-50.393409
 30
0.0
 40
0.052739
  1
0 77
  7
Style-Arial
 72
     1
 11
59.64563
 21
-50.36704
 31
0.0
100
AcDbText
 73
     2
  0
TEXT
  5
10A
330
3F1
100
AcDbEntity
  8
_0
  6
Continuous
 62
     7
370
    13
100
AcDbText
 10
59.57545
 20
-50.280399
 30
0.0
 40
0.052739
  1
0 56
  7
Style-Arial
 72
     1
 11
59.645453
 21
-50.254029
 31
0.0
100
AcDbText
 73
     2
  0
TEXT
  5
10B
330
3F1
100
AcDbEntity
  8
_0
  6
Continuous
 62
     7
370
    13
100
AcDbText
 10
59.575586
 20
-50.167388
 30
0.0
 40
0.052739
  1
0 39
  7
Style-Arial
 72
     1
 11
59.64563
 21
-50.141019
 31
0.0
100
AcDbText
 73
     2
  0
TEXT
  5
10C
330
3F1
100
AcDbEntity
  8
_0
  6
Continuous
 62
     7
370
    13
100
AcDbText
 10
59.575426
 20
-50.054378
 30
0.0
 40
0.052739
  1
0 25
  7
Style-Arial
 72
     1
 11
59.64563
 21
-50.028008
 31
0.0
100
AcDbText
 73
     2
  0
TEXT
  5
10D
330
3F1
100
AcDbEntity
  8
_0
  6
Continuous
 62
     7
370
    13
100
AcDbText
 10
59.575578
 20
-49.941367
 30
0.0
 40
0.052739
  1
0 14
  7
Style-Arial
 72
     1
 11
59.645461
 21
-49.914998
 31
0.0
100
AcDbText
 73
     2
  0
TEXT
  5
10E
330
3F1
100
AcDbEntity
  8
_0
  6
Continuous
 62
     7
370
    13
100
AcDbText
 10
59.57545
 20
-49.828357
 30
0.0
 40
0.052739
  1
0 06
  7
Style-Arial
 72
     1
 11
59.645453
 21
-49.801988
 31
0.0
100
AcDbText
 73
     2
  0
TEXT
  5
10F
330
3F1
100
AcDbEntity
  8
_0
  6
Continuous
 62
     7
370
    13
100
AcDbText
 10
59.575908
 20
-49.715357
 30
0.0
 40
0.052739
  1
0 02
  7
Style-Arial
 72
     1
 11
59.64563
 21
-49.688988
 31
0.0
100
AcDbText
 73
     2
  0
TEXT
  5
110
330
3F1
100
AcDbEntity
  8
_0
  6
Continuous
 62
     7
370
    13
100
AcDbText
 10
59.869197
 20
-50.393409
 30
0.0
 40
0.052739
  1
0 85
  7
Style-Arial
 72
     1
 11
59.939401
 21
-50.36704
 31
0.0
100
AcDbText
 73
     2
  0
TEXT
  5
111
330
3F1
100
AcDbEntity
  8
_0
  6
Continuous
 62
     7
370
    13
100
AcDbText
 10
59.869503
 20
-50.280399
 30
0.0
 40
0.052739
  1
0 62
  7
Style-Arial
 72
     1
 11
59.939225
 21
-50.254029
 31
0.0
100
AcDbText
 73
     2
  0
TEXT
  5
112
330
3F1
100
AcDbEntity
  8
_0
  6
Continuous
 62
     7
370
    13
100
AcDbText
 10
59.869398
 20
-50.167388
 30
0.0
 40
0.052739
  1
0 43
  7
Style-Arial
 72
     1
 11
59.939401
 21
-50.141019
 31
0.0
100
AcDbText
 73
     2
  0
TEXT
  5
113
330
3F1
100
AcDbEntity
  8
_0
  6
Continuous
 62
     7
370
    13
100
AcDbText
 10
59.869357
 20
-50.054378
 30
0.0
 40
0.052739
  1
0 28
  7
Style-Arial
 72
     1
 11
59.939401
 21
-50.028008
 31
0.0
100
AcDbText
 73
     2
  0
TEXT
  5
114
330
3F1
100
AcDbEntity
  8
_0
  6
Continuous
 62
     7
370
    13
100
AcDbText
 10
59.869052
 20
-49.941367
 30
0.0
 40
0.052739
  1
0 16
  7
Style-Arial
 72
     1
 11
59.939055
 21
-49.914998
 31
0.0
100
AcDbText
 73
     2
  0
TEXT
  5
115
330
3F1
100
AcDbEntity
  8
_0
  6
Continuous
 62
     7
370
    13
100
AcDbText
 10
59.869398
 20
-49.828357
 30
0.0
 40
0.052739
  1
0 07
  7
Style-Arial
 72
     1
 11
59.939401
 21
-49.801988
 31
0.0
100
AcDbText
 73
     2
  0
TEXT
  5
116
330
3F1
100
AcDbEntity
  8
_0
  6
Continuous
 62
     7
370
    13
100
AcDbText
 10
59.869679
 20
-49.715357
 30
0.0
 40
0.052739
  1
0 02
  7
Style-Arial
 72
     1
 11
59.939401
 21
-49.688988
 31
0.0
100
AcDbText
 73
     2
  0
TEXT
  5
117
330
3F1
100
AcDbEntity
  8
_0
  6
Continuous
 62
     7
370
    13
100
AcDbText
 10
60.163299
 20
-50.393409
 30
0.0
 40
0.052739
  1
0 94
  7
Style-Arial
 72
     1
 11
60.233182
 21
-50.36704
 31
0.0
100
AcDbText
 73
     2
  0
TEXT
  5
118
330
3F1
100
AcDbEntity
  8
_0
  6
Continuous
 62
     7
370
    13
100
AcDbText
 10
60.162963
 20
-50.280399
 30
0.0
 40
0.052739
  1
0 69
  7
Style-Arial
 72
     1
 11
60.233006
 21
-50.254029
 31
0.0
100
AcDbText
 73
     2
  0
TEXT
  5
119
330
3F1
100
AcDbEntity
  8
_0
  6
Continuous
 62
     7
370
    13
100
AcDbText
 10
60.163139
 20
-50.167388
 30
0.0
 40
0.052739
  1
0 48
  7
Style-Arial
 72
     1
 11
60.233182
 21
-50.141019
 31
0.0
100
AcDbText
 73
     2
  0
TEXT
  5
11A
330
3F1
100
AcDbEntity
  8
_0
  6
Continuous
 62
     7
370
    13
100
AcDbText
 10
60.168101
 20
-50.054378
 30
0.0
 40
0.052739
  1
0 31
  7
Style-Arial
 72
     1
 11
60.233
 21
-50.028008
 31
0.0
100
AcDbText
 73
     2
  0
TEXT
  5
11B
330
3F1
100
AcDbEntity
  8
_0
  6
Continuous
 62
     7
370
    13
100
AcDbText
 10
60.163
 20
-49.941367
 30
0.0
 40
0.052739
  1
0 17
  7
Style-Arial
 72
     1
 11
60.233003
 21
-49.914998
 31
0.0
100
AcDbText
 73
     2
  0
TEXT
  5
11C
330
3F1
100
AcDbEntity
  8
_0
  6
Continuous
 62
     7
370
    13
100
AcDbText
 10
60.163139
 20
-49.828357
 30
0.0
 40
0.052739
  1
0 08
  7
Style-Arial
 72
     1
 11
60.233182
 21
-49.801988
 31
0.0
100
AcDbText
 73
     2
  0
TEXT
  5
11D
330
3F1
100
AcDbEntity
  8
_0
  6
Continuous
 62
     7
370
    13
100
AcDbText
 10
60.16346
 20
-49.715357
 30
0.0
 40
0.052739
  1
0 02
  7
Style-Arial
 72
     1
 11
60.233182
 21
-49.688988
 31
0.0
100
AcDbText
 73
     2
  0
TEXT
  5
11E
330
3F1
100
AcDbEntity
  8
_0
  6
Continuous
 62
     7
370
    13
100
AcDbText
 10
60.456883
 20
-50.393409
 30
0.0
 40
0.052739
  1
1 02
  7
Style-Arial
 72
     1
 11
60.526605
 21
-50.36704
 31
0.0
100
AcDbText
 73
     2
  0
TEXT
  5
11F
330
3F1
100
AcDbEntity
  8
_0
  6
Continuous
 62
     7
370
    13
100
AcDbText
 10
60.456749
 20
-50.280399
 30
0.0
 40
0.052739
  1
0 75
  7
Style-Arial
 72
     1
 11
60.526953
 21
-50.254029
 31
0.0
100
AcDbText
 73
     2
  0
TEXT
  5
120
330
3F1
100
AcDbEntity
  8
_0
  6
Continuous
 62
     7
370
    13
100
AcDbText
 10
60.457231
 20
-50.167388
 30
0.0
 40
0.052739
  1
0 52
  7
Style-Arial
 72
     1
 11
60.526953
 21
-50.141019
 31
0.0
100
AcDbText
 73
     2
  0
TEXT
  5
121
330
3F1
100
AcDbEntity
  8
_0
  6
Continuous
 62
     7
370
    13
100
AcDbText
 10
60.456949
 20
-50.054378
 30
0.0
 40
0.052739
  1
0 33
  7
Style-Arial
 72
     1
 11
60.526953
 21
-50.028008
 31
0.0
100
AcDbText
 73
     2
  0
TEXT
  5
122
330
3F1
100
AcDbEntity
  8
_0
  6
Continuous
 62
     7
370
    13
100
AcDbText
 10
60.45673
 20
-49.941367
 30
0.0
 40
0.052739
  1
0 19
  7
Style-Arial
 72
     1
 11
60.526774
 21
-49.914998
 31
0.0
100
AcDbText
 73
     2
  0
TEXT
  5
123
330
3F1
100
AcDbEntity
  8
_0
  6
Continuous
 62
     7
370
    13
100
AcDbText
 10
60.45691
 20
-49.828357
 30
0.0
 40
0.052739
  1
0 08
  7
Style-Arial
 72
     1
 11
60.526953
 21
-49.801988
 31
0.0
100
AcDbText
 73
     2
  0
TEXT
  5
124
330
3F1
100
AcDbEntity
  8
_0
  6
Continuous
 62
     7
370
    13
100
AcDbText
 10
60.457231
 20
-49.715357
 30
0.0
 40
0.052739
  1
0 02
  7
Style-Arial
 72
     1
 11
60.526953
 21
-49.688988
 31
0.0
100
AcDbText
 73
     2
  0
TEXT
  5
125
330
3F1
100
AcDbEntity
  8
_0
  6
Continuous
 62
     7
370
    13
100
AcDbText
 10
60.755126
 20
-50.393409
 30
0.0
 40
0.052739
  1
1 11
  7
Style-Arial
 72
     1
 11
60.820024
 21
-50.36704
 31
0.0
100
AcDbText
 73
     2
  0
TEXT
  5
126
330
3F1
100
AcDbEntity
  8
_0
  6
Continuous
 62
     7
370
    13
100
AcDbText
 10
60.755654
 20
-50.280399
 30
0.0
 40
0.052739
  1
0 81
  7
Style-Arial
 72
     1
 11
60.820552
 21
-50.254029
 31
0.0
100
AcDbText
 73
     2
  0
TEXT
  5
127
330
3F1
100
AcDbEntity
  8
_0
  6
Continuous
 62
     7
370
    13
100
AcDbText
 10
60.750543
 20
-50.167388
 30
0.0
 40
0.052739
  1
0 56
  7
Style-Arial
 72
     1
 11
60.820547
 21
-50.141019
 31
0.0
100
AcDbText
 73
     2
  0
TEXT
  5
128
330
3F1
100
AcDbEntity
  8
_0
  6
Continuous
 62
     7
370
    13
100
AcDbText
 10
60.750543
 20
-50.054378
 30
0.0
 40
0.052739
  1
0 36
  7
Style-Arial
 72
     1
 11
60.820546
 21
-50.028008
 31
0.0
100
AcDbText
 73
     2
  0
TEXT
  5
129
330
3F1
100
AcDbEntity
  8
_0
  6
Continuous
 62
     7
370
    13
100
AcDbText
 10
60.750821
 20
-49.941367
 30
0.0
 40
0.052739
  1
0 20
  7
Style-Arial
 72
     1
 11
60.820724
 21
-49.914998
 31
0.0
100
AcDbText
 73
     2
  0
TEXT
  5
12A
330
3F1
100
AcDbEntity
  8
_0
  6
Continuous
 62
     7
370
    13
100
AcDbText
 10
60.75068
 20
-49.828357
 30
0.0
 40
0.052739
  1
0 09
  7
Style-Arial
 72
     1
 11
60.820724
 21
-49.801988
 31
0.0
100
AcDbText
 73
     2
  0
TEXT
  5
12B
330
3F1
100
AcDbEntity
  8
_0
  6
Continuous
 62
     7
370
    13
100
AcDbText
 10
60.751002
 20
-49.715357
 30
0.0
 40
0.052739
  1
0 02
  7
Style-Arial
 72
     1
 11
60.820724
 21
-49.688988
 31
0.0
100
AcDbText
 73
     2
  0
TEXT
  5
12C
330
3F1
100
AcDbEntity
  8
_0
  6
Continuous
 62
     7
370
    13
100
AcDbText
 10
61.043923
 20
-50.393409
 30
0.0
 40
0.052739
  1
1 19
  7
Style-Arial
 72
     1
 11
61.113967
 21
-50.36704
 31
0.0
100
AcDbText
 73
     2
  0
TEXT
  5
12D
330
3F1
100
AcDbEntity
  8
_0
  6
Continuous
 62
     7
370
    13
100
AcDbText
 10
61.044491
 20
-50.280399
 30
0.0
 40
0.052739
  1
0 87
  7
Style-Arial
 72
     1
 11
61.114495
 21
-50.254029
 31
0.0
100
AcDbText
 73
     2
  0
TEXT
  5
12E
330
3F1
100
AcDbEntity
  8
_0
  6
Continuous
 62
     7
370
    13
100
AcDbText
 10
61.049249
 20
-50.167388
 30
0.0
 40
0.052739
  1
0 61
  7
Style-Arial
 72
     1
 11
61.114147
 21
-50.141019
 31
0.0
100
AcDbText
 73
     2
  0
TEXT
  5
12F
330
3F1
100
AcDbEntity
  8
_0
  6
Continuous
 62
     7
370
    13
100
AcDbText
 10
61.044451
 20
-50.054378
 30
0.0
 40
0.052739
  1
0 39
  7
Style-Arial
 72
     1
 11
61.114494
 21
-50.028008
 31
0.0
100
AcDbText
 73
     2
  0
TEXT
  5
130
330
3F1
100
AcDbEntity
  8
_0
  6
Continuous
 62
     7
370
    13
100
AcDbText
 10
61.044773
 20
-49.941367
 30
0.0
 40
0.052739
  1
0 22
  7
Style-Arial
 72
     1
 11
61.114495
 21
-49.914998
 31
0.0
100
AcDbText
 73
     2
  0
TEXT
  5
131
330
3F1
100
AcDbEntity
  8
_0
  6
Continuous
 62
     7
370
    13
100
AcDbText
 10
61.044423
 20
-49.828357
 30
0.0
 40
0.052739
  1
0 10
  7
Style-Arial
 72
     1
 11
61.114326
 21
-49.801988
 31
0.0
100
AcDbText
 73
     2
  0
TEXT
  5
132
330
3F1
100
AcDbEntity
  8
_0
  6
Continuous
 62
     7
370
    13
100
AcDbText
 10
61.044773
 20
-49.715357
 30
0.0
 40
0.052739
  1
0 02
  7
Style-Arial
 72
     1
 11
61.114495
 21
-49.688988
 31
0.0
100
AcDbText
 73
     2
  0
TEXT
  5
133
330
3F1
100
AcDbEntity
  8
_0
  6
Continuous
 62
     7
370
    13
100
AcDbText
 10
61.337874
 20
-50.393409
 30
0.0
 40
0.052739
  1
1 28
  7
Style-Arial
 72
     1
 11
61.407917
 21
-50.36704
 31
0.0
100
AcDbText
 73
     2
  0
TEXT
  5
134
330
3F1
100
AcDbEntity
  8
_0
  6
Continuous
 62
     7
370
    13
100
AcDbText
 10
61.338393
 20
-50.280399
 30
0.0
 40
0.052739
  1
0 94
  7
Style-Arial
 72
     1
 11
61.408276
 21
-50.254029
 31
0.0
100
AcDbText
 73
     2
  0
TEXT
  5
135
330
3F1
100
AcDbEntity
  8
_0
  6
Continuous
 62
     7
370
    13
100
AcDbText
 10
61.337896
 20
-50.167388
 30
0.0
 40
0.052739
  1
0 65
  7
Style-Arial
 72
     1
 11
61.4081
 21
-50.141019
 31
0.0
100
AcDbText
 73
     2
  0
TEXT
  5
136
330
3F1
100
AcDbEntity
  8
_0
  6
Continuous
 62
     7
370
    13
100
AcDbText
 10
61.338554
 20
-50.054378
 30
0.0
 40
0.052739
  1
0 42
  7
Style-Arial
 72
     1
 11
61.408276
 21
-50.028008
 31
0.0
100
AcDbText
 73
     2
  0
TEXT
  5
137
330
3F1
100
AcDbEntity
  8
_0
  6
Continuous
 62
     7
370
    13
100
AcDbText
 10
61.338273
 20
-49.941367
 30
0.0
 40
0.052739
  1
0 23
  7
Style-Arial
 72
     1
 11
61.408276
 21
-49.914998
 31
0.0
100
AcDbText
 73
     2
  0
TEXT
  5
138
330
3F1
100
AcDbEntity
  8
_0
  6
Continuous
 62
     7
370
    13
100
AcDbText
 10
61.338194
 20
-49.828357
 30
0.0
 40
0.052739
  1
0 10
  7
Style-Arial
 72
     1
 11
61.408096
 21
-49.801988
 31
0.0
100
AcDbText
 73
     2
  0
TEXT
  5
139
330
3F1
100
AcDbEntity
  8
_0
  6
Continuous
 62
     7
370
    13
100
AcDbText
 10
61.338273
 20
-49.715357
 30
0.0
 40
0.052739
  1
0 03
  7
Style-Arial
 72
     1
 11
61.408276
 21
-49.688988
 31
0.0
100
AcDbText
 73
     2
  0
TEXT
  5
13A
330
3F1
100
AcDbEntity
  8
_0
  6
Continuous
 62
     7
370
    13
100
AcDbText
 10
61.631518
 20
-50.393409
 30
0.0
 40
0.052739
  1
1 36
  7
Style-Arial
 72
     1
 11
61.701521
 21
-50.36704
 31
0.0
100
AcDbText
 73
     2
  0
TEXT
  5
13B
330
3F1
100
AcDbEntity
  8
_0
  6
Continuous
 62
     7
370
    13
100
AcDbText
 10
61.631796
 20
-50.280399
 30
0.0
 40
0.052739
  1
1 00
  7
Style-Arial
 72
     1
 11
61.701698
 21
-50.254029
 31
0.0
100
AcDbText
 73
     2
  0
TEXT
  5
13C
330
3F1
100
AcDbEntity
  8
_0
  6
Continuous
 62
     7
370
    13
100
AcDbText
 10
61.631827
 20
-50.167388
 30
0.0
 40
0.052739
  1
0 69
  7
Style-Arial
 72
     1
 11
61.701871
 21
-50.141019
 31
0.0
100
AcDbText
 73
     2
  0
TEXT
  5
13D
330
3F1
100
AcDbEntity
  8
_0
  6
Continuous
 62
     7
370
    13
100
AcDbText
 10
61.632164
 20
-50.054378
 30
0.0
 40
0.052739
  1
0 44
  7
Style-Arial
 72
     1
 11
61.702047
 21
-50.028008
 31
0.0
100
AcDbText
 73
     2
  0
TEXT
  5
13E
330
3F1
100
AcDbEntity
  8
_0
  6
Continuous
 62
     7
370
    13
100
AcDbText
 10
61.631842
 20
-49.941367
 30
0.0
 40
0.052739
  1
0 25
  7
Style-Arial
 72
     1
 11
61.702047
 21
-49.914998
 31
0.0
100
AcDbText
 73
     2
  0
TEXT
  5
13F
330
3F1
100
AcDbEntity
  8
_0
  6
Continuous
 62
     7
370
    13
100
AcDbText
 10
61.636797
 20
-49.828357
 30
0.0
 40
0.052739
  1
0 11
  7
Style-Arial
 72
     1
 11
61.701696
 21
-49.801988
 31
0.0
100
AcDbText
 73
     2
  0
TEXT
  5
140
330
3F1
100
AcDbEntity
  8
_0
  6
Continuous
 62
     7
370
    13
100
AcDbText
 10
61.632043
 20
-49.715357
 30
0.0
 40
0.052739
  1
0 03
  7
Style-Arial
 72
     1
 11
61.702047
 21
-49.688988
 31
0.0
100
AcDbText
 73
     2
  0
TEXT
  5
141
330
3F1
100
AcDbEntity
  8
_0
  6
Continuous
 62
     7
370
    13
100
AcDbText
 10
61.925265
 20
-50.393409
 30
0.0
 40
0.052739
  1
1 45
  7
Style-Arial
 72
     1
 11
61.995469
 21
-50.36704
 31
0.0
100
AcDbText
 73
     2
  0
TEXT
  5
142
330
3F1
100
AcDbEntity
  8
_0
  6
Continuous
 62
     7
370
    13
100
AcDbText
 10
61.925289
 20
-50.280399
 30
0.0
 40
0.052739
  1
1 06
  7
Style-Arial
 72
     1
 11
61.995292
 21
-50.254029
 31
0.0
100
AcDbText
 73
     2
  0
TEXT
  5
143
330
3F1
100
AcDbEntity
  8
_0
  6
Continuous
 62
     7
370
    13
100
AcDbText
 10
61.925935
 20
-50.167388
 30
0.0
 40
0.052739
  1
0 74
  7
Style-Arial
 72
     1
 11
61.995818
 21
-50.141019
 31
0.0
100
AcDbText
 73
     2
  0
TEXT
  5
144
330
3F1
100
AcDbEntity
  8
_0
  6
Continuous
 62
     7
370
    13
100
AcDbText
 10
61.925814
 20
-50.054378
 30
0.0
 40
0.052739
  1
0 47
  7
Style-Arial
 72
     1
 11
61.995818
 21
-50.028008
 31
0.0
100
AcDbText
 73
     2
  0
TEXT
  5
145
330
3F1
100
AcDbEntity
  8
_0
  6
Continuous
 62
     7
370
    13
100
AcDbText
 10
61.925814
 20
-49.941367
 30
0.0
 40
0.052739
  1
0 27
  7
Style-Arial
 72
     1
 11
61.995818
 21
-49.914998
 31
0.0
100
AcDbText
 73
     2
  0
TEXT
  5
146
330
3F1
100
AcDbEntity
  8
_0
  6
Continuous
 62
     7
370
    13
100
AcDbText
 10
61.925927
 20
-49.828357
 30
0.0
 40
0.052739
  1
0 12
  7
Style-Arial
 72
     1
 11
61.995649
 21
-49.801988
 31
0.0
100
AcDbText
 73
     2
  0
TEXT
  5
147
330
3F1
100
AcDbEntity
  8
_0
  6
Continuous
 62
     7
370
    13
100
AcDbText
 10
61.925814
 20
-49.715357
 30
0.0
 40
0.052739
  1
0 03
  7
Style-Arial
 72
     1
 11
61.995818
 21
-49.688988
 31
0.0
100
AcDbText
 73
     2
  0
TEXT
  5
148
330
3F1
100
AcDbEntity
  8
_0
  6
Continuous
 62
     7
370
    13
100
AcDbText
 10
62.219237
 20
-50.393409
 30
0.0
 40
0.052739
  1
1 53
  7
Style-Arial
 72
     1
 11
62.28924
 21
-50.36704
 31
0.0
100
AcDbText
 73
     2
  0
TEXT
  5
149
330
3F1
100
AcDbEntity
  8
_0
  6
Continuous
 62
     7
370
    13
100
AcDbText
 10
62.219057
 20
-50.280399
 30
0.0
 40
0.052739
  1
1 13
  7
Style-Arial
 72
     1
 11
62.289061
 21
-50.254029
 31
0.0
100
AcDbText
 73
     2
  0
TEXT
  5
14A
330
3F1
100
AcDbEntity
  8
_0
  6
Continuous
 62
     7
370
    13
100
AcDbText
 10
62.219545
 20
-50.167388
 30
0.0
 40
0.052739
  1
0 78
  7
Style-Arial
 72
     1
 11
62.289588
 21
-50.141019
 31
0.0
100
AcDbText
 73
     2
  0
TEXT
  5
14B
330
3F1
100
AcDbEntity
  8
_0
  6
Continuous
 62
     7
370
    13
100
AcDbText
 10
62.219686
 20
-50.054378
 30
0.0
 40
0.052739
  1
0 50
  7
Style-Arial
 72
     1
 11
62.289588
 21
-50.028008
 31
0.0
100
AcDbText
 73
     2
  0
TEXT
  5
14C
330
3F1
100
AcDbEntity
  8
_0
  6
Continuous
 62
     7
370
    13
100
AcDbText
 10
62.219545
 20
-49.941367
 30
0.0
 40
0.052739
  1
0 28
  7
Style-Arial
 72
     1
 11
62.289588
 21
-49.914998
 31
0.0
100
AcDbText
 73
     2
  0
TEXT
  5
14D
330
3F1
100
AcDbEntity
  8
_0
  6
Continuous
 62
     7
370
    13
100
AcDbText
 10
62.219416
 20
-49.828357
 30
0.0
 40
0.052739
  1
0 13
  7
Style-Arial
 72
     1
 11
62.289419
 21
-49.801988
 31
0.0
100
AcDbText
 73
     2
  0
TEXT
  5
14E
330
3F1
100
AcDbEntity
  8
_0
  6
Continuous
 62
     7
370
    13
100
AcDbText
 10
62.219585
 20
-49.715357
 30
0.0
 40
0.052739
  1
0 03
  7
Style-Arial
 72
     1
 11
62.289588
 21
-49.688988
 31
0.0
100
AcDbText
 73
     2
  0
TEXT
  5
14F
330
3F1
100
AcDbEntity
  8
_0
  6
Continuous
 62
     7
370
    13
100
AcDbText
 10
62.513123
 20
-50.393409
 30
0.0
 40
0.052739
  1
1 62
  7
Style-Arial
 72
     1
 11
62.582845
 21
-50.36704
 31
0.0
100
AcDbText
 73
     2
  0
TEXT
  5
150
330
3F1
100
AcDbEntity
  8
_0
  6
Continuous
 62
     7
370
    13
100
AcDbText
 10
62.512798
 20
-50.280399
 30
0.0
 40
0.052739
  1
1 19
  7
Style-Arial
 72
     1
 11
62.582842
 21
-50.254029
 31
0.0
100
AcDbText
 73
     2
  0
TEXT
  5
151
330
3F1
100
AcDbEntity
  8
_0
  6
Continuous
 62
     7
370
    13
100
AcDbText
 10
62.513648
 20
-50.167388
 30
0.0
 40
0.052739
  1
0 82
  7
Style-Arial
 72
     1
 11
62.58337
 21
-50.141019
 31
0.0
100
AcDbText
 73
     2
  0
TEXT
  5
152
330
3F1
100
AcDbEntity
  8
_0
  6
Continuous
 62
     7
370
    13
100
AcDbText
 10
62.513366
 20
-50.054378
 30
0.0
 40
0.052739
  1
0 53
  7
Style-Arial
 72
     1
 11
62.58337
 21
-50.028008
 31
0.0
100
AcDbText
 73
     2
  0
TEXT
  5
153
330
3F1
100
AcDbEntity
  8
_0
  6
Continuous
 62
     7
370
    13
100
AcDbText
 10
62.513467
 20
-49.941367
 30
0.0
 40
0.052739
  1
0 30
  7
Style-Arial
 72
     1
 11
62.583369
 21
-49.914998
 31
0.0
100
AcDbText
 73
     2
  0
TEXT
  5
154
330
3F1
100
AcDbEntity
  8
_0
  6
Continuous
 62
     7
370
    13
100
AcDbText
 10
62.513187
 20
-49.828357
 30
0.0
 40
0.052739
  1
0 13
  7
Style-Arial
 72
     1
 11
62.58319
 21
-49.801988
 31
0.0
100
AcDbText
 73
     2
  0
TEXT
  5
155
330
3F1
100
AcDbEntity
  8
_0
  6
Continuous
 62
     7
370
    13
100
AcDbText
 10
62.513366
 20
-49.715357
 30
0.0
 40
0.052739
  1
0 03
  7
Style-Arial
 72
     1
 11
62.58337
 21
-49.688988
 31
0.0
100
AcDbText
 73
     2
  0
TEXT
  5
156
330
3F1
100
AcDbEntity
  8
_0
  6
Continuous
 62
     7
370
    13
100
AcDbText
 10
62.806889
 20
-50.393409
 30
0.0
 40
0.052739
  1
1 70
  7
Style-Arial
 72
     1
 11
62.876792
 21
-50.36704
 31
0.0
100
AcDbText
 73
     2
  0
TEXT
  5
157
330
3F1
100
AcDbEntity
  8
_0
  6
Continuous
 62
     7
370
    13
100
AcDbText
 10
62.806588
 20
-50.280399
 30
0.0
 40
0.052739
  1
1 25
  7
Style-Arial
 72
     1
 11
62.876792
 21
-50.254029
 31
0.0
100
AcDbText
 73
     2
  0
TEXT
  5
158
330
3F1
100
AcDbEntity
  8
_0
  6
Continuous
 62
     7
370
    13
100
AcDbText
 10
62.807137
 20
-50.167388
 30
0.0
 40
0.052739
  1
0 87
  7
Style-Arial
 72
     1
 11
62.87714
 21
-50.141019
 31
0.0
100
AcDbText
 73
     2
  0
TEXT
  5
159
330
3F1
100
AcDbEntity
  8
_0
  6
Continuous
 62
     7
370
    13
100
AcDbText
 10
62.80696
 20
-50.054378
 30
0.0
 40
0.052739
  1
0 56
  7
Style-Arial
 72
     1
 11
62.876963
 21
-50.028008
 31
0.0
100
AcDbText
 73
     2
  0
TEXT
  5
15A
330
3F1
100
AcDbEntity
  8
_0
  6
Continuous
 62
     7
370
    13
100
AcDbText
 10
62.81206
 20
-49.941367
 30
0.0
 40
0.052739
  1
0 31
  7
Style-Arial
 72
     1
 11
62.876958
 21
-49.914998
 31
0.0
100
AcDbText
 73
     2
  0
TEXT
  5
15B
330
3F1
100
AcDbEntity
  8
_0
  6
Continuous
 62
     7
370
    13
100
AcDbText
 10
62.807078
 20
-49.828357
 30
0.0
 40
0.052739
  1
0 14
  7
Style-Arial
 72
     1
 11
62.876961
 21
-49.801988
 31
0.0
100
AcDbText
 73
     2
  0
TEXT
  5
15C
330
3F1
100
AcDbEntity
  8
_0
  6
Continuous
 62
     7
370
    13
100
AcDbText
 10
62.807137
 20
-49.715357
 30
0.0
 40
0.052739
  1
0 03
  7
Style-Arial
 72
     1
 11
62.87714
 21
-49.688988
 31
0.0
100
AcDbText
 73
     2
  0
TEXT
  5
15D
330
3F1
100
AcDbEntity
  8
_0
  6
Continuous
 62
     7
370
    13
100
AcDbText
 10
58.988186
 20
-52.314555
 30
0.0
 40
0.052739
  1
7 00
  7
Style-Arial
 72
     1
 11
59.058088
 21
-52.288185
 31
0.0
100
AcDbText
 73
     2
  0
TEXT
  5
15E
330
3F1
100
AcDbEntity
  8
_0
  6
Continuous
 62
     7
370
    13
100
AcDbText
 10
58.987723
 20
-52.201555
 30
0.0
 40
0.052739
  1
6 43
  7
Style-Arial
 72
     1
 11
59.057726
 21
-52.175185
 31
0.0
100
AcDbText
 73
     2
  0
TEXT
  5
15F
330
3F1
100
AcDbEntity
  8
_0
  6
Continuous
 62
     7
370
    13
100
AcDbText
 10
58.988045
 20
-52.088544
 30
0.0
 40
0.052739
  1
5 88
  7
Style-Arial
 72
     1
 11
59.058088
 21
-52.062175
 31
0.0
100
AcDbText
 73
     2
  0
TEXT
  5
160
330
3F1
100
AcDbEntity
  8
_0
  6
Continuous
 62
     7
370
    13
100
AcDbText
 10
58.987908
 20
-51.975534
 30
0.0
 40
0.052739
  1
5 36
  7
Style-Arial
 72
     1
 11
59.057911
 21
-51.949165
 31
0.0
100
AcDbText
 73
     2
  0
TEXT
  5
161
330
3F1
100
AcDbEntity
  8
_0
  6
Continuous
 62
     7
370
    13
100
AcDbText
 10
58.988045
 20
-51.862524
 30
0.0
 40
0.052739
  1
4 88
  7
Style-Arial
 72
     1
 11
59.058088
 21
-51.836154
 31
0.0
100
AcDbText
 73
     2
  0
TEXT
  5
162
330
3F1
100
AcDbEntity
  8
_0
  6
Continuous
 62
     7
370
    13
100
AcDbText
 10
58.988034
 20
-51.749513
 30
0.0
 40
0.052739
  1
4 39
  7
Style-Arial
 72
     1
 11
59.058078
 21
-51.723144
 31
0.0
100
AcDbText
 73
     2
  0
TEXT
  5
163
330
3F1
100
AcDbEntity
  8
_0
  6
Continuous
 62
     7
370
    13
100
AcDbText
 10
58.988205
 20
-51.636503
 30
0.0
 40
0.052739
  1
3 94
  7
Style-Arial
 72
     1
 11
59.058088
 21
-51.610133
 31
0.0
100
AcDbText
 73
     2
  0
TEXT
  5
164
330
3F1
100
AcDbEntity
  8
_0
  6
Continuous
 62
     7
370
    13
100
AcDbText
 10
58.993007
 20
-51.523492
 30
0.0
 40
0.052739
  1
3 51
  7
Style-Arial
 72
     1
 11
59.057906
 21
-51.497123
 31
0.0
100
AcDbText
 73
     2
  0
TEXT
  5
165
330
3F1
100
AcDbEntity
  8
_0
  6
Continuous
 62
     7
370
    13
100
AcDbText
 10
58.992828
 20
-51.410492
 30
0.0
 40
0.052739
  1
3 11
  7
Style-Arial
 72
     1
 11
59.057726
 21
-51.384123
 31
0.0
100
AcDbText
 73
     2
  0
TEXT
  5
166
330
3F1
100
AcDbEntity
  8
_0
  6
Continuous
 62
     7
370
    13
100
AcDbText
 10
58.988085
 20
-51.297482
 30
0.0
 40
0.052739
  1
2 73
  7
Style-Arial
 72
     1
 11
59.058088
 21
-51.271113
 31
0.0
100
AcDbText
 73
     2
  0
TEXT
  5
167
330
3F1
100
AcDbEntity
  8
_0
  6
Continuous
 62
     7
370
    13
100
AcDbText
 10
58.988034
 20
-51.184471
 30
0.0
 40
0.052739
  1
2 38
  7
Style-Arial
 72
     1
 11
59.058078
 21
-51.158102
 31
0.0
100
AcDbText
 73
     2
  0
TEXT
  5
168
330
3F1
100
AcDbEntity
  8
_0
  6
Continuous
 62
     7
370
    13
100
AcDbText
 10
58.987884
 20
-51.071461
 30
0.0
 40
0.052739
  1
2 05
  7
Style-Arial
 72
     1
 11
59.058088
 21
-51.045092
 31
0.0
100
AcDbText
 73
     2
  0
TEXT
  5
169
330
3F1
100
AcDbEntity
  8
_0
  6
Continuous
 62
     7
370
    13
100
AcDbText
 10
58.987525
 20
-50.958451
 30
0.0
 40
0.052739
  1
1 75
  7
Style-Arial
 72
     1
 11
59.05773
 21
-50.932081
 31
0.0
100
AcDbText
 73
     2
  0
TEXT
  5
16A
330
3F1
100
AcDbEntity
  8
_0
  6
Continuous
 62
     7
370
    13
100
AcDbText
 10
58.987726
 20
-50.84544
 30
0.0
 40
0.052739
  1
1 47
  7
Style-Arial
 72
     1
 11
59.05773
 21
-50.819071
 31
0.0
100
AcDbText
 73
     2
  0
TEXT
  5
16B
330
3F1
100
AcDbEntity
  8
_0
  6
Continuous
 62
     7
370
    13
100
AcDbText
 10
58.988008
 20
-50.73244
 30
0.0
 40
0.052739
  1
1 22
  7
Style-Arial
 72
     1
 11
59.05773
 21
-50.706071
 31
0.0
100
AcDbText
 73
     2
  0
TEXT
  5
16C
330
3F1
100
AcDbEntity
  8
_0
  6
Continuous
 62
     7
370
    13
100
AcDbText
 10
58.988045
 20
-50.619419
 30
0.0
 40
0.052739
  1
0 98
  7
Style-Arial
 72
     1
 11
59.058088
 21
-50.59305
 31
0.0
100
AcDbText
 73
     2
  0
TEXT
  5
16D
330
3F1
100
AcDbEntity
  8
_0
  6
Continuous
 62
     7
370
    13
100
AcDbText
 10
58.988045
 20
-50.506419
 30
0.0
 40
0.052739
  1
0 78
  7
Style-Arial
 72
     1
 11
59.058088
 21
-50.48005
 31
0.0
100
AcDbText
 73
     2
  0
TEXT
  5
16E
330
3F1
100
AcDbEntity
  8
_0
  6
Continuous
 62
     7
370
    13
100
AcDbText
 10
59.281956
 20
-52.314555
 30
0.0
 40
0.052739
  1
8 00
  7
Style-Arial
 72
     1
 11
59.351859
 21
-52.288185
 31
0.0
100
AcDbText
 73
     2
  0
TEXT
  5
16F
330
3F1
100
AcDbEntity
  8
_0
  6
Continuous
 62
     7
370
    13
100
AcDbText
 10
59.281655
 20
-52.201555
 30
0.0
 40
0.052739
  1
7 35
  7
Style-Arial
 72
     1
 11
59.351859
 21
-52.175185
 31
0.0
100
AcDbText
 73
     2
  0
TEXT
  5
170
330
3F1
100
AcDbEntity
  8
_0
  6
Continuous
 62
     7
370
    13
100
AcDbText
 10
59.281785
 20
-52.088544
 30
0.0
 40
0.052739
  1
6 72
  7
Style-Arial
 72
     1
 11
59.351507
 21
-52.062175
 31
0.0
100
AcDbText
 73
     2
  0
TEXT
  5
171
330
3F1
100
AcDbEntity
  8
_0
  6
Continuous
 62
     7
370
    13
100
AcDbText
 10
59.281606
 20
-51.975534
 30
0.0
 40
0.052739
  1
6 12
  7
Style-Arial
 72
     1
 11
59.351328
 21
-51.949165
 31
0.0
100
AcDbText
 73
     2
  0
TEXT
  5
172
330
3F1
100
AcDbEntity
  8
_0
  6
Continuous
 62
     7
370
    13
100
AcDbText
 10
59.281679
 20
-51.862524
 30
0.0
 40
0.052739
  1
5 56
  7
Style-Arial
 72
     1
 11
59.351682
 21
-51.836154
 31
0.0
100
AcDbText
 73
     2
  0
TEXT
  5
173
330
3F1
100
AcDbEntity
  8
_0
  6
Continuous
 62
     7
370
    13
100
AcDbText
 10
59.286779
 20
-51.749513
 30
0.0
 40
0.052739
  1
5 01
  7
Style-Arial
 72
     1
 11
59.351677
 21
-51.723144
 31
0.0
100
AcDbText
 73
     2
  0
TEXT
  5
174
330
3F1
100
AcDbEntity
  8
_0
  6
Continuous
 62
     7
370
    13
100
AcDbText
 10
59.281956
 20
-51.636503
 30
0.0
 40
0.052739
  1
4 50
  7
Style-Arial
 72
     1
 11
59.351859
 21
-51.610133
 31
0.0
100
AcDbText
 73
     2
  0
TEXT
  5
175
330
3F1
100
AcDbEntity
  8
_0
  6
Continuous
 62
     7
370
    13
100
AcDbText
 10
59.286779
 20
-51.523492
 30
0.0
 40
0.052739
  1
4 01
  7
Style-Arial
 72
     1
 11
59.351677
 21
-51.497123
 31
0.0
100
AcDbText
 73
     2
  0
TEXT
  5
176
330
3F1
100
AcDbEntity
  8
_0
  6
Continuous
 62
     7
370
    13
100
AcDbText
 10
59.281815
 20
-51.410492
 30
0.0
 40
0.052739
  1
3 58
  7
Style-Arial
 72
     1
 11
59.351859
 21
-51.384123
 31
0.0
100
AcDbText
 73
     2
  0
TEXT
  5
177
330
3F1
100
AcDbEntity
  8
_0
  6
Continuous
 62
     7
370
    13
100
AcDbText
 10
59.281957
 20
-51.297482
 30
0.0
 40
0.052739
  1
3 12
  7
Style-Arial
 72
     1
 11
59.351679
 21
-51.271113
 31
0.0
100
AcDbText
 73
     2
  0
TEXT
  5
178
330
3F1
100
AcDbEntity
  8
_0
  6
Continuous
 62
     7
370
    13
100
AcDbText
 10
59.282137
 20
-51.184471
 30
0.0
 40
0.052739
  1
2 72
  7
Style-Arial
 72
     1
 11
59.351859
 21
-51.158102
 31
0.0
100
AcDbText
 73
     2
  0
TEXT
  5
179
330
3F1
100
AcDbEntity
  8
_0
  6
Continuous
 62
     7
370
    13
100
AcDbText
 10
59.281655
 20
-51.071461
 30
0.0
 40
0.052739
  1
2 35
  7
Style-Arial
 72
     1
 11
59.351859
 21
-51.045092
 31
0.0
100
AcDbText
 73
     2
  0
TEXT
  5
17A
330
3F1
100
AcDbEntity
  8
_0
  6
Continuous
 62
     7
370
    13
100
AcDbText
 10
59.281956
 20
-50.958451
 30
0.0
 40
0.052739
  1
2 00
  7
Style-Arial
 72
     1
 11
59.351859
 21
-50.932081
 31
0.0
100
AcDbText
 73
     2
  0
TEXT
  5
17B
330
3F1
100
AcDbEntity
  8
_0
  6
Continuous
 62
     7
370
    13
100
AcDbText
 10
59.281291
 20
-50.84544
 30
0.0
 40
0.052739
  1
1 68
  7
Style-Arial
 72
     1
 11
59.351335
 21
-50.819071
 31
0.0
100
AcDbText
 73
     2
  0
TEXT
  5
17C
330
3F1
100
AcDbEntity
  8
_0
  6
Continuous
 62
     7
370
    13
100
AcDbText
 10
59.281467
 20
-50.73244
 30
0.0
 40
0.052739
  1
1 39
  7
Style-Arial
 72
     1
 11
59.351511
 21
-50.706071
 31
0.0
100
AcDbText
 73
     2
  0
TEXT
  5
17D
330
3F1
100
AcDbEntity
  8
_0
  6
Continuous
 62
     7
370
    13
100
AcDbText
 10
59.28161
 20
-50.619419
 30
0.0
 40
0.052739
  1
1 12
  7
Style-Arial
 72
     1
 11
59.351331
 21
-50.59305
 31
0.0
100
AcDbText
 73
     2
  0
TEXT
  5
17E
330
3F1
100
AcDbEntity
  8
_0
  6
Continuous
 62
     7
370
    13
100
AcDbText
 10
59.281816
 20
-50.506419
 30
0.0
 40
0.052739
  1
0 89
  7
Style-Arial
 72
     1
 11
59.351859
 21
-50.48005
 31
0.0
100
AcDbText
 73
     2
  0
TEXT
  5
17F
330
3F1
100
AcDbEntity
  8
_0
  6
Continuous
 62
     7
370
    13
100
AcDbText
 10
59.575727
 20
-52.314555
 30
0.0
 40
0.052739
  1
9 00
  7
Style-Arial
 72
     1
 11
59.64563
 21
-52.288185
 31
0.0
100
AcDbText
 73
     2
  0
TEXT
  5
180
330
3F1
100
AcDbEntity
  8
_0
  6
Continuous
 62
     7
370
    13
100
AcDbText
 10
59.575627
 20
-52.201555
 30
0.0
 40
0.052739
  1
8 27
  7
Style-Arial
 72
     1
 11
59.64563
 21
-52.175185
 31
0.0
100
AcDbText
 73
     2
  0
TEXT
  5
181
330
3F1
100
AcDbEntity
  8
_0
  6
Continuous
 62
     7
370
    13
100
AcDbText
 10
59.57545
 20
-52.088544
 30
0.0
 40
0.052739
  1
7 56
  7
Style-Arial
 72
     1
 11
59.645453
 21
-52.062175
 31
0.0
100
AcDbText
 73
     2
  0
TEXT
  5
182
330
3F1
100
AcDbEntity
  8
_0
  6
Continuous
 62
     7
370
    13
100
AcDbText
 10
59.575235
 20
-51.975534
 30
0.0
 40
0.052739
  1
6 89
  7
Style-Arial
 72
     1
 11
59.645278
 21
-51.949165
 31
0.0
100
AcDbText
 73
     2
  0
TEXT
  5
183
330
3F1
100
AcDbEntity
  8
_0
  6
Continuous
 62
     7
370
    13
100
AcDbText
 10
59.575074
 20
-51.862524
 30
0.0
 40
0.052739
  1
6 25
  7
Style-Arial
 72
     1
 11
59.645278
 21
-51.836154
 31
0.0
100
AcDbText
 73
     2
  0
TEXT
  5
184
330
3F1
100
AcDbEntity
  8
_0
  6
Continuous
 62
     7
370
    13
100
AcDbText
 10
59.575571
 20
-51.749513
 30
0.0
 40
0.052739
  1
5 64
  7
Style-Arial
 72
     1
 11
59.645454
 21
-51.723144
 31
0.0
100
AcDbText
 73
     2
  0
TEXT
  5
185
330
3F1
100
AcDbEntity
  8
_0
  6
Continuous
 62
     7
370
    13
100
AcDbText
 10
59.57545
 20
-51.636503
 30
0.0
 40
0.052739
  1
5 06
  7
Style-Arial
 72
     1
 11
59.645453
 21
-51.610133
 31
0.0
100
AcDbText
 73
     2
  0
TEXT
  5
186
330
3F1
100
AcDbEntity
  8
_0
  6
Continuous
 62
     7
370
    13
100
AcDbText
 10
59.575908
 20
-51.523492
 30
0.0
 40
0.052739
  1
4 52
  7
Style-Arial
 72
     1
 11
59.64563
 21
-51.497123
 31
0.0
100
AcDbText
 73
     2
  0
TEXT
  5
187
330
3F1
100
AcDbEntity
  8
_0
  6
Continuous
 62
     7
370
    13
100
AcDbText
 10
59.575727
 20
-51.410492
 30
0.0
 40
0.052739
  1
4 00
  7
Style-Arial
 72
     1
 11
59.64563
 21
-51.384123
 31
0.0
100
AcDbText
 73
     2
  0
TEXT
  5
188
330
3F1
100
AcDbEntity
  8
_0
  6
Continuous
 62
     7
370
    13
100
AcDbText
 10
59.575907
 20
-51.297482
 30
0.0
 40
0.052739
  1
3 52
  7
Style-Arial
 72
     1
 11
59.645629
 21
-51.271113
 31
0.0
100
AcDbText
 73
     2
  0
TEXT
  5
189
330
3F1
100
AcDbEntity
  8
_0
  6
Continuous
 62
     7
370
    13
100
AcDbText
 10
59.575449
 20
-51.184471
 30
0.0
 40
0.052739
  1
3 06
  7
Style-Arial
 72
     1
 11
59.645452
 21
-51.158102
 31
0.0
100
AcDbText
 73
     2
  0
TEXT
  5
18A
330
3F1
100
AcDbEntity
  8
_0
  6
Continuous
 62
     7
370
    13
100
AcDbText
 10
59.575571
 20
-51.071461
 30
0.0
 40
0.052739
  1
2 64
  7
Style-Arial
 72
     1
 11
59.645454
 21
-51.045092
 31
0.0
100
AcDbText
 73
     2
  0
TEXT
  5
18B
330
3F1
100
AcDbEntity
  8
_0
  6
Continuous
 62
     7
370
    13
100
AcDbText
 10
59.575426
 20
-50.958451
 30
0.0
 40
0.052739
  1
2 25
  7
Style-Arial
 72
     1
 11
59.64563
 21
-50.932081
 31
0.0
100
AcDbText
 73
     2
  0
TEXT
  5
18C
330
3F1
100
AcDbEntity
  8
_0
  6
Continuous
 62
     7
370
    13
100
AcDbText
 10
59.575238
 20
-50.84544
 30
0.0
 40
0.052739
  1
1 89
  7
Style-Arial
 72
     1
 11
59.645282
 21
-50.819071
 31
0.0
100
AcDbText
 73
     2
  0
TEXT
  5
18D
330
3F1
100
AcDbEntity
  8
_0
  6
Continuous
 62
     7
370
    13
100
AcDbText
 10
59.575101
 20
-50.73244
 30
0.0
 40
0.052739
  1
1 56
  7
Style-Arial
 72
     1
 11
59.645105
 21
-50.706071
 31
0.0
100
AcDbText
 73
     2
  0
TEXT
  5
18E
330
3F1
100
AcDbEntity
  8
_0
  6
Continuous
 62
     7
370
    13
100
AcDbText
 10
59.575278
 20
-50.619419
 30
0.0
 40
0.052739
  1
1 27
  7
Style-Arial
 72
     1
 11
59.645282
 21
-50.59305
 31
0.0
100
AcDbText
 73
     2
  0
TEXT
  5
18F
330
3F1
100
AcDbEntity
  8
_0
  6
Continuous
 62
     7
370
    13
100
AcDbText
 10
59.575379
 20
-50.506419
 30
0.0
 40
0.052739
  1
1 00
  7
Style-Arial
 72
     1
 11
59.645282
 21
-50.48005
 31
0.0
100
AcDbText
 73
     2
  0
TEXT
  5
190
330
3F1
100
AcDbEntity
  8
_0
  6
Continuous
 62
     7
370
    13
100
AcDbText
 10
59.849025
 20
-52.314555
 30
0.0
 40
0.052739
  1
10 00
  7
Style-Arial
 72
     1
 11
59.939408
 21
-52.288185
 31
0.0
100
AcDbText
 73
     2
  0
TEXT
  5
191
330
3F1
100
AcDbEntity
  8
_0
  6
Continuous
 62
     7
370
    13
100
AcDbText
 10
59.869052
 20
-52.201555
 30
0.0
 40
0.052739
  1
9 16
  7
Style-Arial
 72
     1
 11
59.939055
 21
-52.175185
 31
0.0
100
AcDbText
 73
     2
  0
TEXT
  5
192
330
3F1
100
AcDbEntity
  8
_0
  6
Continuous
 62
     7
370
    13
100
AcDbText
 10
59.869498
 20
-52.088544
 30
0.0
 40
0.052739
  1
8 40
  7
Style-Arial
 72
     1
 11
59.939401
 21
-52.062175
 31
0.0
100
AcDbText
 73
     2
  0
TEXT
  5
193
330
3F1
100
AcDbEntity
  8
_0
  6
Continuous
 62
     7
370
    13
100
AcDbText
 10
59.869045
 20
-51.975534
 30
0.0
 40
0.052739
  1
7 66
  7
Style-Arial
 72
     1
 11
59.939048
 21
-51.949165
 31
0.0
100
AcDbText
 73
     2
  0
TEXT
  5
194
330
3F1
100
AcDbEntity
  8
_0
  6
Continuous
 62
     7
370
    13
100
AcDbText
 10
59.869166
 20
-51.862524
 30
0.0
 40
0.052739
  1
6 94
  7
Style-Arial
 72
     1
 11
59.939049
 21
-51.836154
 31
0.0
100
AcDbText
 73
     2
  0
TEXT
  5
195
330
3F1
100
AcDbEntity
  8
_0
  6
Continuous
 62
     7
370
    13
100
AcDbText
 10
59.869046
 20
-51.749513
 30
0.0
 40
0.052739
  1
6 27
  7
Style-Arial
 72
     1
 11
59.939049
 21
-51.723144
 31
0.0
100
AcDbText
 73
     2
  0
TEXT
  5
196
330
3F1
100
AcDbEntity
  8
_0
  6
Continuous
 62
     7
370
    13
100
AcDbText
 10
59.869221
 20
-51.636503
 30
0.0
 40
0.052739
  1
0 06
  7
Style-Arial
 72
     1
 11
59.939224
 21
-51.610133
 31
0.0
100
AcDbText
 73
     2
  0
TEXT
  5
197
330
3F1
100
AcDbEntity
  8
_0
  6
Continuous
 62
     7
370
    13
100
AcDbText
 10
59.869679
 20
-51.523492
 30
0.0
 40
0.052739
  1
5 02
  7
Style-Arial
 72
     1
 11
59.939401
 21
-51.497123
 31
0.0
100
AcDbText
 73
     2
  0
TEXT
  5
198
330
3F1
100
AcDbEntity
  8
_0
  6
Continuous
 62
     7
370
    13
100
AcDbText
 10
59.869518
 20
-51.410492
 30
0.0
 40
0.052739
  1
4 44
  7
Style-Arial
 72
     1
 11
59.939401
 21
-51.384123
 31
0.0
100
AcDbText
 73
     2
  0
TEXT
  5
199
330
3F1
100
AcDbEntity
  8
_0
  6
Continuous
 62
     7
370
    13
100
AcDbText
 10
59.87433
 20
-51.297482
 30
0.0
 40
0.052739
  1
3 91
  7
Style-Arial
 72
     1
 11
59.939228
 21
-51.271113
 31
0.0
100
AcDbText
 73
     2
  0
TEXT
  5
19A
330
3F1
100
AcDbEntity
  8
_0
  6
Continuous
 62
     7
370
    13
100
AcDbText
 10
59.869508
 20
-51.184471
 30
0.0
 40
0.052739
  1
3 40
  7
Style-Arial
 72
     1
 11
59.939411
 21
-51.158102
 31
0.0
100
AcDbText
 73
     2
  0
TEXT
  5
19B
330
3F1
100
AcDbEntity
  8
_0
  6
Continuous
 62
     7
370
    13
100
AcDbText
 10
59.869398
 20
-51.071461
 30
0.0
 40
0.052739
  1
2 93
  7
Style-Arial
 72
     1
 11
59.939401
 21
-51.045092
 31
0.0
100
AcDbText
 73
     2
  0
TEXT
  5
19C
330
3F1
100
AcDbEntity
  8
_0
  6
Continuous
 62
     7
370
    13
100
AcDbText
 10
59.869498
 20
-50.958451
 30
0.0
 40
0.052739
  1
2 50
  7
Style-Arial
 72
     1
 11
59.939401
 21
-50.932081
 31
0.0
100
AcDbText
 73
     2
  0
TEXT
  5
19D
330
3F1
100
AcDbEntity
  8
_0
  6
Continuous
 62
     7
370
    13
100
AcDbText
 10
59.869329
 20
-50.84544
 30
0.0
 40
0.052739
  1
2 10
  7
Style-Arial
 72
     1
 11
59.939232
 21
-50.819071
 31
0.0
100
AcDbText
 73
     2
  0
TEXT
  5
19E
330
3F1
100
AcDbEntity
  8
_0
  6
Continuous
 62
     7
370
    13
100
AcDbText
 10
59.86917
 20
-50.73244
 30
0.0
 40
0.052739
  1
1 74
  7
Style-Arial
 72
     1
 11
59.939053
 21
-50.706071
 31
0.0
100
AcDbText
 73
     2
  0
TEXT
  5
19F
330
3F1
100
AcDbEntity
  8
_0
  6
Continuous
 62
     7
370
    13
100
AcDbText
 10
59.873972
 20
-50.619419
 30
0.0
 40
0.052739
  1
1 41
  7
Style-Arial
 72
     1
 11
59.93887
 21
-50.59305
 31
0.0
100
AcDbText
 73
     2
  0
TEXT
  5
1A0
330
3F1
100
AcDbEntity
  8
_0
  6
Continuous
 62
     7
370
    13
100
AcDbText
 10
59.873803
 20
-50.506419
 30
0.0
 40
0.052739
  1
1 11
  7
Style-Arial
 72
     1
 11
59.938701
 21
-50.48005
 31
0.0
100
AcDbText
 73
     2
  0
TEXT
  5
1A1
330
3F1
100
AcDbEntity
  8
_0
  6
Continuous
 62
     7
370
    13
100
AcDbText
 10
60.142447
 20
-52.314555
 30
0.0
 40
0.052739
  1
11 00
  7
Style-Arial
 72
     1
 11
60.23283
 21
-52.288185
 31
0.0
100
AcDbText
 73
     2
  0
TEXT
  5
1A2
330
3F1
100
AcDbEntity
  8
_0
  6
Continuous
 62
     7
370
    13
100
AcDbText
 10
60.142616
 20
-52.201555
 30
0.0
 40
0.052739
  1
10 10
  7
Style-Arial
 72
     1
 11
60.232999
 21
-52.175185
 31
0.0
100
AcDbText
 73
     2
  0
TEXT
  5
1A3
330
3F1
100
AcDbEntity
  8
_0
  6
Continuous
 62
     7
370
    13
100
AcDbText
 10
60.163299
 20
-52.088544
 30
0.0
 40
0.052739
  1
9 24
  7
Style-Arial
 72
     1
 11
60.233182
 21
-52.062175
 31
0.0
100
AcDbText
 73
     2
  0
TEXT
  5
1A4
330
3F1
100
AcDbEntity
  8
_0
  6
Continuous
 62
     7
370
    13
100
AcDbText
 10
60.16346
 20
-51.975534
 30
0.0
 40
0.052739
  1
8 42
  7
Style-Arial
 72
     1
 11
60.233182
 21
-51.949165
 31
0.0
100
AcDbText
 73
     2
  0
TEXT
  5
1A5
330
3F1
100
AcDbEntity
  8
_0
  6
Continuous
 62
     7
370
    13
100
AcDbText
 10
60.163299
 20
-51.862524
 30
0.0
 40
0.052739
  1
7 84
  7
Style-Arial
 72
     1
 11
60.233182
 21
-51.836154
 31
0.0
100
AcDbText
 73
     2
  0
TEXT
  5
1A6
330
3F1
100
AcDbEntity
  8
_0
  6
Continuous
 62
     7
370
    13
100
AcDbText
 10
60.162776
 20
-51.749513
 30
0.0
 40
0.052739
  1
6 89
  7
Style-Arial
 72
     1
 11
60.23282
 21
-51.723144
 31
0.0
100
AcDbText
 73
     2
  0
TEXT
  5
1A7
330
3F1
100
AcDbEntity
  8
_0
  6
Continuous
 62
     7
370
    13
100
AcDbText
 10
60.162607
 20
-51.636503
 30
0.0
 40
0.052739
  1
6 19
  7
Style-Arial
 72
     1
 11
60.232651
 21
-51.610133
 31
0.0
100
AcDbText
 73
     2
  0
TEXT
  5
1A8
330
3F1
100
AcDbEntity
  8
_0
  6
Continuous
 62
     7
370
    13
100
AcDbText
 10
60.16346
 20
-51.523492
 30
0.0
 40
0.052739
  1
5 52
  7
Style-Arial
 72
     1
 11
60.233182
 21
-51.497123
 31
0.0
100
AcDbText
 73
     2
  0
TEXT
  5
1A9
330
3F1
100
AcDbEntity
  8
_0
  6
Continuous
 62
     7
370
    13
100
AcDbText
 10
60.163139
 20
-51.410492
 30
0.0
 40
0.052739
  1
4 89
  7
Style-Arial
 72
     1
 11
60.233182
 21
-51.384123
 31
0.0
100
AcDbText
 73
     2
  0
TEXT
  5
1AA
330
3F1
100
AcDbEntity
  8
_0
  6
Continuous
 62
     7
370
    13
100
AcDbText
 10
60.163269
 20
-51.297482
 30
0.0
 40
0.052739
  1
4 30
  7
Style-Arial
 72
     1
 11
60.233171
 21
-51.271113
 31
0.0
100
AcDbText
 73
     2
  0
TEXT
  5
1AB
330
3F1
100
AcDbEntity
  8
_0
  6
Continuous
 62
     7
370
    13
100
AcDbText
 10
60.163299
 20
-51.184471
 30
0.0
 40
0.052739
  1
3 74
  7
Style-Arial
 72
     1
 11
60.233181
 21
-51.158102
 31
0.0
100
AcDbText
 73
     2
  0
TEXT
  5
1AC
330
3F1
100
AcDbEntity
  8
_0
  6
Continuous
 62
     7
370
    13
100
AcDbText
 10
60.163178
 20
-51.071461
 30
0.0
 40
0.052739
  1
3 23
  7
Style-Arial
 72
     1
 11
60.233181
 21
-51.045092
 31
0.0
100
AcDbText
 73
     2
  0
TEXT
  5
1AD
330
3F1
100
AcDbEntity
  8
_0
  6
Continuous
 62
     7
370
    13
100
AcDbText
 10
60.162978
 20
-50.958451
 30
0.0
 40
0.052739
  1
2 75
  7
Style-Arial
 72
     1
 11
60.233182
 21
-50.932081
 31
0.0
100
AcDbText
 73
     2
  0
TEXT
  5
1AE
330
3F1
100
AcDbEntity
  8
_0
  6
Continuous
 62
     7
370
    13
100
AcDbText
 10
60.168101
 20
-50.84544
 30
0.0
 40
0.052739
  1
2 31
  7
Style-Arial
 72
     1
 11
60.233
 21
-50.819071
 31
0.0
100
AcDbText
 73
     2
  0
TEXT
  5
1AF
330
3F1
100
AcDbEntity
  8
_0
  6
Continuous
 62
     7
370
    13
100
AcDbText
 10
60.167753
 20
-50.73244
 30
0.0
 40
0.052739
  1
1 91
  7
Style-Arial
 72
     1
 11
60.232652
 21
-50.706071
 31
0.0
100
AcDbText
 73
     2
  0
TEXT
  5
1B0
330
3F1
100
AcDbEntity
  8
_0
  6
Continuous
 62
     7
370
    13
100
AcDbText
 10
60.162619
 20
-50.619419
 30
0.0
 40
0.052739
  1
1 55
  7
Style-Arial
 72
     1
 11
60.232823
 21
-50.59305
 31
0.0
100
AcDbText
 73
     2
  0
TEXT
  5
1B1
330
3F1
100
AcDbEntity
  8
_0
  6
Continuous
 62
     7
370
    13
100
AcDbText
 10
60.163102
 20
-50.506419
 30
0.0
 40
0.052739
  1
1 22
  7
Style-Arial
 72
     1
 11
60.232823
 21
-50.48005
 31
0.0
100
AcDbText
 73
     2
  0
TEXT
  5
1B2
330
3F1
100
AcDbEntity
  8
_0
  6
Continuous
 62
     7
370
    13
100
AcDbText
 10
60.436566
 20
-52.314555
 30
0.0
 40
0.052739
  1
12 00
  7
Style-Arial
 72
     1
 11
60.52695
 21
-52.288185
 31
0.0
100
AcDbText
 73
     2
  0
TEXT
  5
1B3
330
3F1
100
AcDbEntity
  8
_0
  6
Continuous
 62
     7
370
    13
100
AcDbText
 10
60.436399
 20
-52.201555
 30
0.0
 40
0.052739
  1
11 02
  7
Style-Arial
 72
     1
 11
60.526601
 21
-52.175185
 31
0.0
100
AcDbText
 73
     2
  0
TEXT
  5
1B4
330
3F1
100
AcDbEntity
  8
_0
  6
Continuous
 62
     7
370
    13
100
AcDbText
 10
60.436289
 20
-52.088544
 30
0.0
 40
0.052739
  1
10 06
  7
Style-Arial
 72
     1
 11
60.526772
 21
-52.062175
 31
0.0
100
AcDbText
 73
     2
  0
TEXT
  5
1B5
330
3F1
100
AcDbEntity
  8
_0
  6
Continuous
 62
     7
370
    13
100
AcDbText
 10
60.45673
 20
-51.975534
 30
0.0
 40
0.052739
  1
9 19
  7
Style-Arial
 72
     1
 11
60.526774
 21
-51.949165
 31
0.0
100
AcDbText
 73
     2
  0
TEXT
  5
1B6
330
3F1
100
AcDbEntity
  8
_0
  6
Continuous
 62
     7
370
    13
100
AcDbText
 10
60.456949
 20
-51.862524
 30
0.0
 40
0.052739
  1
8 33
  7
Style-Arial
 72
     1
 11
60.526953
 21
-51.836154
 31
0.0
100
AcDbText
 73
     2
  0
TEXT
  5
1B7
330
3F1
100
AcDbEntity
  8
_0
  6
Continuous
 62
     7
370
    13
100
AcDbText
 10
60.457231
 20
-51.749513
 30
0.0
 40
0.052739
  1
7 52
  7
Style-Arial
 72
     1
 11
60.526953
 21
-51.723144
 31
0.0
100
AcDbText
 73
     2
  0
TEXT
  5
1B8
330
3F1
100
AcDbEntity
  8
_0
  6
Continuous
 62
     7
370
    13
100
AcDbText
 10
60.456397
 20
-51.636503
 30
0.0
 40
0.052739
  1
6 75
  7
Style-Arial
 72
     1
 11
60.526601
 21
-51.610133
 31
0.0
100
AcDbText
 73
     2
  0
TEXT
  5
1B9
330
3F1
100
AcDbEntity
  8
_0
  6
Continuous
 62
     7
370
    13
100
AcDbText
 10
60.456879
 20
-51.523492
 30
0.0
 40
0.052739
  1
6 02
  7
Style-Arial
 72
     1
 11
60.526601
 21
-51.497123
 31
0.0
100
AcDbText
 73
     2
  0
TEXT
  5
1BA
330
3F1
100
AcDbEntity
  8
_0
  6
Continuous
 62
     7
370
    13
100
AcDbText
 10
60.456949
 20
-51.410492
 30
0.0
 40
0.052739
  1
5 33
  7
Style-Arial
 72
     1
 11
60.526953
 21
-51.384123
 31
0.0
100
AcDbText
 73
     2
  0
TEXT
  5
1BB
330
3F1
100
AcDbEntity
  8
_0
  6
Continuous
 62
     7
370
    13
100
AcDbText
 10
60.456734
 20
-51.297482
 30
0.0
 40
0.052739
  1
4 69
  7
Style-Arial
 72
     1
 11
60.526777
 21
-51.271113
 31
0.0
100
AcDbText
 73
     2
  0
TEXT
  5
1BC
330
3F1
100
AcDbEntity
  8
_0
  6
Continuous
 62
     7
370
    13
100
AcDbText
 10
60.45691
 20
-51.184471
 30
0.0
 40
0.052739
  1
4 08
  7
Style-Arial
 72
     1
 11
60.526953
 21
-51.158102
 31
0.0
100
AcDbText
 73
     2
  0
TEXT
  5
1BD
330
3F1
100
AcDbEntity
  8
_0
  6
Continuous
 62
     7
370
    13
100
AcDbText
 10
60.45723
 20
-51.071461
 30
0.0
 40
0.052739
  1
3 52
  7
Style-Arial
 72
     1
 11
60.526952
 21
-51.045092
 31
0.0
100
AcDbText
 73
     2
  0
TEXT
  5
1BE
330
3F1
100
AcDbEntity
  8
_0
  6
Continuous
 62
     7
370
    13
100
AcDbText
 10
60.45705
 20
-50.958451
 30
0.0
 40
0.052739
  1
3 00
  7
Style-Arial
 72
     1
 11
60.526952
 21
-50.932081
 31
0.0
100
AcDbText
 73
     2
  0
TEXT
  5
1BF
330
3F1
100
AcDbEntity
  8
_0
  6
Continuous
 62
     7
370
    13
100
AcDbText
 10
60.457231
 20
-50.84544
 30
0.0
 40
0.052739
  1
2 52
  7
Style-Arial
 72
     1
 11
60.526953
 21
-50.819071
 31
0.0
100
AcDbText
 73
     2
  0
TEXT
  5
1C0
330
3F1
100
AcDbEntity
  8
_0
  6
Continuous
 62
     7
370
    13
100
AcDbText
 10
60.45691
 20
-50.73244
 30
0.0
 40
0.052739
  1
2 08
  7
Style-Arial
 72
     1
 11
60.526953
 21
-50.706071
 31
0.0
100
AcDbText
 73
     2
  0
TEXT
  5
1C1
330
3F1
100
AcDbEntity
  8
_0
  6
Continuous
 62
     7
370
    13
100
AcDbText
 10
60.456385
 20
-50.619419
 30
0.0
 40
0.052739
  1
1 69
  7
Style-Arial
 72
     1
 11
60.526429
 21
-50.59305
 31
0.0
100
AcDbText
 73
     2
  0
TEXT
  5
1C2
330
3F1
100
AcDbEntity
  8
_0
  6
Continuous
 62
     7
370
    13
100
AcDbText
 10
60.456601
 20
-50.506419
 30
0.0
 40
0.052739
  1
1 33
  7
Style-Arial
 72
     1
 11
60.526604
 21
-50.48005
 31
0.0
100
AcDbText
 73
     2
  0
TEXT
  5
1C3
330
3F1
100
AcDbEntity
  8
_0
  6
Continuous
 62
     7
370
    13
100
AcDbText
 10
60.730347
 20
-52.314555
 30
0.0
 40
0.052739
  1
13 00
  7
Style-Arial
 72
     1
 11
60.82073
 21
-52.288185
 31
0.0
100
AcDbText
 73
     2
  0
TEXT
  5
1C4
330
3F1
100
AcDbEntity
  8
_0
  6
Continuous
 62
     7
370
    13
100
AcDbText
 10
60.730009
 20
-52.201555
 30
0.0
 40
0.052739
  1
11 94
  7
Style-Arial
 72
     1
 11
60.820372
 21
-52.175185
 31
0.0
100
AcDbText
 73
     2
  0
TEXT
  5
1C5
330
3F1
100
AcDbEntity
  8
_0
  6
Continuous
 62
     7
370
    13
100
AcDbText
 10
60.730518
 20
-52.088544
 30
0.0
 40
0.052739
  1
10 92
  7
Style-Arial
 72
     1
 11
60.82072
 21
-52.062175
 31
0.0
100
AcDbText
 73
     2
  0
TEXT
  5
1C6
330
3F1
100
AcDbEntity
  8
_0
  6
Continuous
 62
     7
370
    13
100
AcDbText
 10
60.75052
 20
-51.975534
 30
0.0
 40
0.052739
  1
9 95
  7
Style-Arial
 72
     1
 11
60.820724
 21
-51.949165
 31
0.0
100
AcDbText
 73
     2
  0
TEXT
  5
1C7
330
3F1
100
AcDbEntity
  8
_0
  6
Continuous
 62
     7
370
    13
100
AcDbText
 10
60.750721
 20
-51.862524
 30
0.0
 40
0.052739
  1
9 03
  7
Style-Arial
 72
     1
 11
60.820724
 21
-51.836154
 31
0.0
100
AcDbText
 73
     2
  0
TEXT
  5
1C8
330
3F1
100
AcDbEntity
  8
_0
  6
Continuous
 62
     7
370
    13
100
AcDbText
 10
60.750351
 20
-51.749513
 30
0.0
 40
0.052739
  1
8 15
  7
Style-Arial
 72
     1
 11
60.820555
 21
-51.723144
 31
0.0
100
AcDbText
 73
     2
  0
TEXT
  5
1C9
330
3F1
100
AcDbEntity
  8
_0
  6
Continuous
 62
     7
370
    13
100
AcDbText
 10
60.755654
 20
-51.636503
 30
0.0
 40
0.052739
  1
7 31
  7
Style-Arial
 72
     1
 11
60.820552
 21
-51.610133
 31
0.0
100
AcDbText
 73
     2
  0
TEXT
  5
1CA
330
3F1
100
AcDbEntity
  8
_0
  6
Continuous
 62
     7
370
    13
100
AcDbText
 10
60.75065
 20
-51.523492
 30
0.0
 40
0.052739
  1
6 52
  7
Style-Arial
 72
     1
 11
60.820372
 21
-51.497123
 31
0.0
100
AcDbText
 73
     2
  0
TEXT
  5
1CB
330
3F1
100
AcDbEntity
  8
_0
  6
Continuous
 62
     7
370
    13
100
AcDbText
 10
60.75068
 20
-51.410492
 30
0.0
 40
0.052739
  1
5 78
  7
Style-Arial
 72
     1
 11
60.820724
 21
-51.384123
 31
0.0
100
AcDbText
 73
     2
  0
TEXT
  5
1CC
330
3F1
100
AcDbEntity
  8
_0
  6
Continuous
 62
     7
370
    13
100
AcDbText
 10
60.75068
 20
-51.297482
 30
0.0
 40
0.052739
  1
5 08
  7
Style-Arial
 72
     1
 11
60.820724
 21
-51.271113
 31
0.0
100
AcDbText
 73
     2
  0
TEXT
  5
1CD
330
3F1
100
AcDbEntity
  8
_0
  6
Continuous
 62
     7
370
    13
100
AcDbText
 10
60.751002
 20
-51.184471
 30
0.0
 40
0.052739
  1
4 42
  7
Style-Arial
 72
     1
 11
60.820724
 21
-51.158102
 31
0.0
100
AcDbText
 73
     2
  0
TEXT
  5
1CE
330
3F1
100
AcDbEntity
  8
_0
  6
Continuous
 62
     7
370
    13
100
AcDbText
 10
60.755653
 20
-51.071461
 30
0.0
 40
0.052739
  1
3 81
  7
Style-Arial
 72
     1
 11
60.820551
 21
-51.045092
 31
0.0
100
AcDbText
 73
     2
  0
TEXT
  5
1CF
330
3F1
100
AcDbEntity
  8
_0
  6
Continuous
 62
     7
370
    13
100
AcDbText
 10
60.750519
 20
-50.958451
 30
0.0
 40
0.052739
  1
3 25
  7
Style-Arial
 72
     1
 11
60.820723
 21
-50.932081
 31
0.0
100
AcDbText
 73
     2
  0
TEXT
  5
1D0
330
3F1
100
AcDbEntity
  8
_0
  6
Continuous
 62
     7
370
    13
100
AcDbText
 10
60.750721
 20
-50.84544
 30
0.0
 40
0.052739
  1
2 73
  7
Style-Arial
 72
     1
 11
60.820724
 21
-50.819071
 31
0.0
100
AcDbText
 73
     2
  0
TEXT
  5
1D1
330
3F1
100
AcDbEntity
  8
_0
  6
Continuous
 62
     7
370
    13
100
AcDbText
 10
60.750543
 20
-50.73244
 30
0.0
 40
0.052739
  1
2 26
  7
Style-Arial
 72
     1
 11
60.820547
 21
-50.706071
 31
0.0
100
AcDbText
 73
     2
  0
TEXT
  5
1D2
330
3F1
100
AcDbEntity
  8
_0
  6
Continuous
 62
     7
370
    13
100
AcDbText
 10
60.750372
 20
-50.619419
 30
0.0
 40
0.052739
  1
1 83
  7
Style-Arial
 72
     1
 11
60.820375
 21
-50.59305
 31
0.0
100
AcDbText
 73
     2
  0
TEXT
  5
1D3
330
3F1
100
AcDbEntity
  8
_0
  6
Continuous
 62
     7
370
    13
100
AcDbText
 10
60.750493
 20
-50.506419
 30
0.0
 40
0.052739
  1
1 44
  7
Style-Arial
 72
     1
 11
60.820375
 21
-50.48005
 31
0.0
100
AcDbText
 73
     2
  0
TEXT
  5
1D4
330
3F1
100
AcDbEntity
  8
_0
  6
Continuous
 62
     7
370
    13
100
AcDbText
 10
61.024118
 20
-52.314555
 30
0.0
 40
0.052739
  1
14 00
  7
Style-Arial
 72
     1
 11
61.114502
 21
-52.288185
 31
0.0
100
AcDbText
 73
     2
  0
TEXT
  5
1D5
330
3F1
100
AcDbEntity
  8
_0
  6
Continuous
 62
     7
370
    13
100
AcDbText
 10
61.023841
 20
-52.201555
 30
0.0
 40
0.052739
  1
12 86
  7
Style-Arial
 72
     1
 11
61.114325
 21
-52.175185
 31
0.0
100
AcDbText
 73
     2
  0
TEXT
  5
1D6
330
3F1
100
AcDbEntity
  8
_0
  6
Continuous
 62
     7
370
    13
100
AcDbText
 10
61.023482
 20
-52.088544
 30
0.0
 40
0.052739
  1
11 76
  7
Style-Arial
 72
     1
 11
61.113966
 21
-52.062175
 31
0.0
100
AcDbText
 73
     2
  0
TEXT
  5
1D7
330
3F1
100
AcDbEntity
  8
_0
  6
Continuous
 62
     7
370
    13
100
AcDbText
 10
61.024299
 20
-51.975534
 30
0.0
 40
0.052739
  1
10 72
  7
Style-Arial
 72
     1
 11
61.114502
 21
-51.949165
 31
0.0
100
AcDbText
 73
     2
  0
TEXT
  5
1D8
330
3F1
100
AcDbEntity
  8
_0
  6
Continuous
 62
     7
370
    13
100
AcDbText
 10
61.044773
 20
-51.862524
 30
0.0
 40
0.052739
  1
9 72
  7
Style-Arial
 72
     1
 11
61.114495
 21
-51.836154
 31
0.0
100
AcDbText
 73
     2
  0
TEXT
  5
1D9
330
3F1
100
AcDbEntity
  8
_0
  6
Continuous
 62
     7
370
    13
100
AcDbText
 10
61.044491
 20
-51.749513
 30
0.0
 40
0.052739
  1
8 77
  7
Style-Arial
 72
     1
 11
61.114495
 21
-51.723144
 31
0.0
100
AcDbText
 73
     2
  0
TEXT
  5
1DA
330
3F1
100
AcDbEntity
  8
_0
  6
Continuous
 62
     7
370
    13
100
AcDbText
 10
61.044491
 20
-51.636503
 30
0.0
 40
0.052739
  1
7 87
  7
Style-Arial
 72
     1
 11
61.114495
 21
-51.610133
 31
0.0
100
AcDbText
 73
     2
  0
TEXT
  5
1DB
330
3F1
100
AcDbEntity
  8
_0
  6
Continuous
 62
     7
370
    13
100
AcDbText
 10
61.044773
 20
-51.523492
 30
0.0
 40
0.052739
  1
7 02
  7
Style-Arial
 72
     1
 11
61.114495
 21
-51.497123
 31
0.0
100
AcDbText
 73
     2
  0
TEXT
  5
1DC
330
3F1
100
AcDbEntity
  8
_0
  6
Continuous
 62
     7
370
    13
100
AcDbText
 10
61.044421
 20
-51.410492
 30
0.0
 40
0.052739
  1
6 22
  7
Style-Arial
 72
     1
 11
61.114143
 21
-51.384123
 31
0.0
100
AcDbText
 73
     2
  0
TEXT
  5
1DD
330
3F1
100
AcDbEntity
  8
_0
  6
Continuous
 62
     7
370
    13
100
AcDbText
 10
61.044491
 20
-51.297482
 30
0.0
 40
0.052739
  1
5 47
  7
Style-Arial
 72
     1
 11
61.114495
 21
-51.271113
 31
0.0
100
AcDbText
 73
     2
  0
TEXT
  5
1DE
330
3F1
100
AcDbEntity
  8
_0
  6
Continuous
 62
     7
370
    13
100
AcDbText
 10
61.044314
 20
-51.184471
 30
0.0
 40
0.052739
  1
4 76
  7
Style-Arial
 72
     1
 11
61.114318
 21
-51.158102
 31
0.0
100
AcDbText
 73
     2
  0
TEXT
  5
1DF
330
3F1
100
AcDbEntity
  8
_0
  6
Continuous
 62
     7
370
    13
100
AcDbText
 10
61.049245
 20
-51.071461
 30
0.0
 40
0.052739
  1
4 11
  7
Style-Arial
 72
     1
 11
61.114144
 21
-51.045092
 31
0.0
100
AcDbText
 73
     2
  0
TEXT
  5
1E0
330
3F1
100
AcDbEntity
  8
_0
  6
Continuous
 62
     7
370
    13
100
AcDbText
 10
61.044602
 20
-50.958451
 30
0.0
 40
0.052739
  1
3 50
  7
Style-Arial
 72
     1
 11
61.114504
 21
-50.932081
 31
0.0
100
AcDbText
 73
     2
  0
TEXT
  5
1E1
330
3F1
100
AcDbEntity
  8
_0
  6
Continuous
 62
     7
370
    13
100
AcDbText
 10
61.044612
 20
-50.84544
 30
0.0
 40
0.052739
  1
2 94
  7
Style-Arial
 72
     1
 11
61.114495
 21
-50.819071
 31
0.0
100
AcDbText
 73
     2
  0
TEXT
  5
1E2
330
3F1
100
AcDbEntity
  8
_0
  6
Continuous
 62
     7
370
    13
100
AcDbText
 10
61.044491
 20
-50.73244
 30
0.0
 40
0.052739
  1
2 43
  7
Style-Arial
 72
     1
 11
61.114495
 21
-50.706071
 31
0.0
100
AcDbText
 73
     2
  0
TEXT
  5
1E3
330
3F1
100
AcDbEntity
  8
_0
  6
Continuous
 62
     7
370
    13
100
AcDbText
 10
61.044143
 20
-50.619419
 30
0.0
 40
0.052739
  1
1 97
  7
Style-Arial
 72
     1
 11
61.114146
 21
-50.59305
 31
0.0
100
AcDbText
 73
     2
  0
TEXT
  5
1E4
330
3F1
100
AcDbEntity
  8
_0
  6
Continuous
 62
     7
370
    13
100
AcDbText
 10
61.043966
 20
-50.506419
 30
0.0
 40
0.052739
  1
1 56
  7
Style-Arial
 72
     1
 11
61.113969
 21
-50.48005
 31
0.0
100
AcDbText
 73
     2
  0
TEXT
  5
1E5
330
3F1
100
AcDbEntity
  8
_0
  6
Continuous
 62
     7
370
    13
100
AcDbText
 10
61.317889
 20
-52.314555
 30
0.0
 40
0.052739
  1
15 00
  7
Style-Arial
 72
     1
 11
61.408272
 21
-52.288185
 31
0.0
100
AcDbText
 73
     2
  0
TEXT
  5
1E6
330
3F1
100
AcDbEntity
  8
_0
  6
Continuous
 62
     7
370
    13
100
AcDbText
 10
61.317748
 20
-52.201555
 30
0.0
 40
0.052739
  1
13 78
  7
Style-Arial
 72
     1
 11
61.408272
 21
-52.175185
 31
0.0
100
AcDbText
 73
     2
  0
TEXT
  5
1E7
330
3F1
100
AcDbEntity
  8
_0
  6
Continuous
 62
     7
370
    13
100
AcDbText
 10
61.317713
 20
-52.088544
 30
0.0
 40
0.052739
  1
12 60
  7
Style-Arial
 72
     1
 11
61.408096
 21
-52.062175
 31
0.0
100
AcDbText
 73
     2
  0
TEXT
  5
1E8
330
3F1
100
AcDbEntity
  8
_0
  6
Continuous
 62
     7
370
    13
100
AcDbText
 10
61.3174
 20
-51.975534
 30
0.0
 40
0.052739
  1
11 48
  7
Style-Arial
 72
     1
 11
61.407924
 21
-51.949165
 31
0.0
100
AcDbText
 73
     2
  0
TEXT
  5
1E9
330
3F1
100
AcDbEntity
  8
_0
  6
Continuous
 62
     7
370
    13
100
AcDbText
 10
61.31807
 20
-51.862524
 30
0.0
 40
0.052739
  1
10 42
  7
Style-Arial
 72
     1
 11
61.408272
 21
-51.836154
 31
0.0
100
AcDbText
 73
     2
  0
TEXT
  5
1EA
330
3F1
100
AcDbEntity
  8
_0
  6
Continuous
 62
     7
370
    13
100
AcDbText
 10
61.338373
 20
-51.749513
 30
0.0
 40
0.052739
  1
9 40
  7
Style-Arial
 72
     1
 11
61.408276
 21
-51.723144
 31
0.0
100
AcDbText
 73
     2
  0
TEXT
  5
1EB
330
3F1
100
AcDbEntity
  8
_0
  6
Continuous
 62
     7
370
    13
100
AcDbText
 10
61.338393
 20
-51.636503
 30
0.0
 40
0.052739
  1
8 44
  7
Style-Arial
 72
     1
 11
61.408276
 21
-51.610133
 31
0.0
100
AcDbText
 73
     2
  0
TEXT
  5
1EC
330
3F1
100
AcDbEntity
  8
_0
  6
Continuous
 62
     7
370
    13
100
AcDbText
 10
61.338273
 20
-51.523492
 30
0.0
 40
0.052739
  1
7 53
  7
Style-Arial
 72
     1
 11
61.408276
 21
-51.497123
 31
0.0
100
AcDbText
 73
     2
  0
TEXT
  5
1ED
330
3F1
100
AcDbEntity
  8
_0
  6
Continuous
 62
     7
370
    13
100
AcDbText
 10
61.337745
 20
-51.410492
 30
0.0
 40
0.052739
  1
6 67
  7
Style-Arial
 72
     1
 11
61.407748
 21
-51.384123
 31
0.0
100
AcDbText
 73
     2
  0
TEXT
  5
1EE
330
3F1
100
AcDbEntity
  8
_0
  6
Continuous
 62
     7
370
    13
100
AcDbText
 10
61.338085
 20
-51.297482
 30
0.0
 40
0.052739
  1
5 86
  7
Style-Arial
 72
     1
 11
61.408088
 21
-51.271113
 31
0.0
100
AcDbText
 73
     2
  0
TEXT
  5
1EF
330
3F1
100
AcDbEntity
  8
_0
  6
Continuous
 62
     7
370
    13
100
AcDbText
 10
61.338194
 20
-51.184471
 30
0.0
 40
0.052739
  1
5 10
  7
Style-Arial
 72
     1
 11
61.408096
 21
-51.158102
 31
0.0
100
AcDbText
 73
     2
  0
TEXT
  5
1F0
330
3F1
100
AcDbEntity
  8
_0
  6
Continuous
 62
     7
370
    13
100
AcDbText
 10
61.338373
 20
-51.071461
 30
0.0
 40
0.052739
  1
4 40
  7
Style-Arial
 72
     1
 11
61.408276
 21
-51.045092
 31
0.0
100
AcDbText
 73
     2
  0
TEXT
  5
1F1
330
3F1
100
AcDbEntity
  8
_0
  6
Continuous
 62
     7
370
    13
100
AcDbText
 10
61.338071
 20
-50.958451
 30
0.0
 40
0.052739
  1
3 75
  7
Style-Arial
 72
     1
 11
61.408275
 21
-50.932081
 31
0.0
100
AcDbText
 73
     2
  0
TEXT
  5
1F2
330
3F1
100
AcDbEntity
  8
_0
  6
Continuous
 62
     7
370
    13
100
AcDbText
 10
61.337892
 20
-50.84544
 30
0.0
 40
0.052739
  1
3 15
  7
Style-Arial
 72
     1
 11
61.408096
 21
-50.819071
 31
0.0
100
AcDbText
 73
     2
  0
TEXT
  5
1F3
330
3F1
100
AcDbEntity
  8
_0
  6
Continuous
 62
     7
370
    13
100
AcDbText
 10
61.338197
 20
-50.73244
 30
0.0
 40
0.052739
  1
2 60
  7
Style-Arial
 72
     1
 11
61.4081
 21
-50.706071
 31
0.0
100
AcDbText
 73
     2
  0
TEXT
  5
1F4
330
3F1
100
AcDbEntity
  8
_0
  6
Continuous
 62
     7
370
    13
100
AcDbText
 10
61.343016
 20
-50.619419
 30
0.0
 40
0.052739
  1
2 11
  7
Style-Arial
 72
     1
 11
61.407914
 21
-50.59305
 31
0.0
100
AcDbText
 73
     2
  0
TEXT
  5
1F5
330
3F1
100
AcDbEntity
  8
_0
  6
Continuous
 62
     7
370
    13
100
AcDbText
 10
61.337748
 20
-50.506419
 30
0.0
 40
0.052739
  1
1 67
  7
Style-Arial
 72
     1
 11
61.407752
 21
-50.48005
 31
0.0
100
AcDbText
 73
     2
  0
TEXT
  5
1F6
330
3F1
100
AcDbEntity
  8
_0
  6
Continuous
 62
     7
370
    13
100
AcDbText
 10
61.611308
 20
-52.314555
 30
0.0
 40
0.052739
  1
16 00
  7
Style-Arial
 72
     1
 11
61.701691
 21
-52.288185
 31
0.0
100
AcDbText
 73
     2
  0
TEXT
  5
1F7
330
3F1
100
AcDbEntity
  8
_0
  6
Continuous
 62
     7
370
    13
100
AcDbText
 10
61.611343
 20
-52.201555
 30
0.0
 40
0.052739
  1
14 69
  7
Style-Arial
 72
     1
 11
61.701867
 21
-52.175185
 31
0.0
100
AcDbText
 73
     2
  0
TEXT
  5
1F8
330
3F1
100
AcDbEntity
  8
_0
  6
Continuous
 62
     7
370
    13
100
AcDbText
 10
61.61168
 20
-52.088544
 30
0.0
 40
0.052739
  1
13 44
  7
Style-Arial
 72
     1
 11
61.702043
 21
-52.062175
 31
0.0
100
AcDbText
 73
     2
  0
TEXT
  5
1F9
330
3F1
100
AcDbEntity
  8
_0
  6
Continuous
 62
     7
370
    13
100
AcDbText
 10
61.611359
 20
-51.975534
 30
0.0
 40
0.052739
  1
12 25
  7
Style-Arial
 72
     1
 11
61.702043
 21
-51.949165
 31
0.0
100
AcDbText
 73
     2
  0
TEXT
  5
1FA
330
3F1
100
AcDbEntity
  8
_0
  6
Continuous
 62
     7
370
    13
100
AcDbText
 10
61.615965
 20
-51.862524
 30
0.0
 40
0.052739
  1
11 11
  7
Style-Arial
 72
     1
 11
61.701344
 21
-51.836154
 31
0.0
100
AcDbText
 73
     2
  0
TEXT
  5
1FB
330
3F1
100
AcDbEntity
  8
_0
  6
Continuous
 62
     7
370
    13
100
AcDbText
 10
61.61156
 20
-51.749513
 30
0.0
 40
0.052739
  1
10 03
  7
Style-Arial
 72
     1
 11
61.702043
 21
-51.723144
 31
0.0
100
AcDbText
 73
     2
  0
TEXT
  5
1FC
330
3F1
100
AcDbEntity
  8
_0
  6
Continuous
 62
     7
370
    13
100
AcDbText
 10
61.632144
 20
-51.636503
 30
0.0
 40
0.052739
  1
9 00
  7
Style-Arial
 72
     1
 11
61.702047
 21
-51.610133
 31
0.0
100
AcDbText
 73
     2
  0
TEXT
  5
1FD
330
3F1
100
AcDbEntity
  8
_0
  6
Continuous
 62
     7
370
    13
100
AcDbText
 10
61.632043
 20
-51.523492
 30
0.0
 40
0.052739
  1
8 03
  7
Style-Arial
 72
     1
 11
61.702047
 21
-51.497123
 31
0.0
100
AcDbText
 73
     2
  0
TEXT
  5
1FE
330
3F1
100
AcDbEntity
  8
_0
  6
Continuous
 62
     7
370
    13
100
AcDbText
 10
61.636797
 20
-51.410492
 30
0.0
 40
0.052739
  1
7 11
  7
Style-Arial
 72
     1
 11
61.701696
 21
-51.384123
 31
0.0
100
AcDbText
 73
     2
  0
TEXT
  5
1FF
330
3F1
100
AcDbEntity
  8
_0
  6
Continuous
 62
     7
370
    13
100
AcDbText
 10
61.631491
 20
-51.297482
 30
0.0
 40
0.052739
  1
6 25
  7
Style-Arial
 72
     1
 11
61.701695
 21
-51.271113
 31
0.0
100
AcDbText
 73
     2
  0
TEXT
  5
200
330
3F1
100
AcDbEntity
  8
_0
  6
Continuous
 62
     7
370
    13
100
AcDbText
 10
61.632164
 20
-51.184471
 30
0.0
 40
0.052739
  1
5 44
  7
Style-Arial
 72
     1
 11
61.702047
 21
-51.158102
 31
0.0
100
AcDbText
 73
     2
  0
TEXT
  5
201
330
3F1
100
AcDbEntity
  8
_0
  6
Continuous
 62
     7
370
    13
100
AcDbText
 10
61.631827
 20
-51.071461
 30
0.0
 40
0.052739
  1
4 69
  7
Style-Arial
 72
     1
 11
61.701871
 21
-51.045092
 31
0.0
100
AcDbText
 73
     2
  0
TEXT
  5
202
330
3F1
100
AcDbEntity
  8
_0
  6
Continuous
 62
     7
370
    13
100
AcDbText
 10
61.632144
 20
-50.958451
 30
0.0
 40
0.052739
  1
4 00
  7
Style-Arial
 72
     1
 11
61.702047
 21
-50.932081
 31
0.0
100
AcDbText
 73
     2
  0
TEXT
  5
203
330
3F1
100
AcDbEntity
  8
_0
  6
Continuous
 62
     7
370
    13
100
AcDbText
 10
61.631865
 20
-50.84544
 30
0.0
 40
0.052739
  1
3 36
  7
Style-Arial
 72
     1
 11
61.701869
 21
-50.819071
 31
0.0
100
AcDbText
 73
     2
  0
TEXT
  5
204
330
3F1
100
AcDbEntity
  8
_0
  6
Continuous
 62
     7
370
    13
100
AcDbText
 10
61.632003
 20
-50.73244
 30
0.0
 40
0.052739
  1
2 78
  7
Style-Arial
 72
     1
 11
61.702047
 21
-50.706071
 31
0.0
100
AcDbText
 73
     2
  0
TEXT
  5
205
330
3F1
100
AcDbEntity
  8
_0
  6
Continuous
 62
     7
370
    13
100
AcDbText
 10
61.631842
 20
-50.619419
 30
0.0
 40
0.052739
  1
2 25
  7
Style-Arial
 72
     1
 11
61.702047
 21
-50.59305
 31
0.0
100
AcDbText
 73
     2
  0
TEXT
  5
206
330
3F1
100
AcDbEntity
  8
_0
  6
Continuous
 62
     7
370
    13
100
AcDbText
 10
61.631655
 20
-50.506419
 30
0.0
 40
0.052739
  1
1 78
  7
Style-Arial
 72
     1
 11
61.701698
 21
-50.48005
 31
0.0
100
AcDbText
 73
     2
  0
TEXT
  5
207
330
3F1
100
AcDbEntity
  8
_0
  6
Continuous
 62
     7
370
    13
100
AcDbText
 10
61.905431
 20
-52.314555
 30
0.0
 40
0.052739
  1
17 00
  7
Style-Arial
 72
     1
 11
61.995814
 21
-52.288185
 31
0.0
100
AcDbText
 73
     2
  0
TEXT
  5
208
330
3F1
100
AcDbEntity
  8
_0
  6
Continuous
 62
     7
370
    13
100
AcDbText
 10
61.910088
 20
-52.201555
 30
0.0
 40
0.052739
  1
15 61
  7
Style-Arial
 72
     1
 11
61.995466
 21
-52.175185
 31
0.0
100
AcDbText
 73
     2
  0
TEXT
  5
209
330
3F1
100
AcDbEntity
  8
_0
  6
Continuous
 62
     7
370
    13
100
AcDbText
 10
61.90529
 20
-52.088544
 30
0.0
 40
0.052739
  1
14 28
  7
Style-Arial
 72
     1
 11
61.995814
 21
-52.062175
 31
0.0
100
AcDbText
 73
     2
  0
TEXT
  5
20A
330
3F1
100
AcDbEntity
  8
_0
  6
Continuous
 62
     7
370
    13
100
AcDbText
 10
61.905622
 20
-51.975534
 30
0.0
 40
0.052739
  1
13 02
  7
Style-Arial
 72
     1
 11
61.995824
 21
-51.949165
 31
0.0
100
AcDbText
 73
     2
  0
TEXT
  5
20B
330
3F1
100
AcDbEntity
  8
_0
  6
Continuous
 62
     7
370
    13
100
AcDbText
 10
61.909905
 20
-51.862524
 30
0.0
 40
0.052739
  1
11 81
  7
Style-Arial
 72
     1
 11
61.995284
 21
-51.836154
 31
0.0
100
AcDbText
 73
     2
  0
TEXT
  5
20C
330
3F1
100
AcDbEntity
  8
_0
  6
Continuous
 62
     7
370
    13
100
AcDbText
 10
61.904964
 20
-51.749513
 30
0.0
 40
0.052739
  1
10 65
  7
Style-Arial
 72
     1
 11
61.995649
 21
-51.723144
 31
0.0
100
AcDbText
 73
     2
  0
TEXT
  5
20D
330
3F1
100
AcDbEntity
  8
_0
  6
Continuous
 62
     7
370
    13
100
AcDbText
 10
61.925637
 20
-51.636503
 30
0.0
 40
0.052739
  1
9 56
  7
Style-Arial
 72
     1
 11
61.99564
 21
-51.610133
 31
0.0
100
AcDbText
 73
     2
  0
TEXT
  5
20E
330
3F1
100
AcDbEntity
  8
_0
  6
Continuous
 62
     7
370
    13
100
AcDbText
 10
61.925814
 20
-51.523492
 30
0.0
 40
0.052739
  1
8 53
  7
Style-Arial
 72
     1
 11
61.995818
 21
-51.497123
 31
0.0
100
AcDbText
 73
     2
  0
TEXT
  5
20F
330
3F1
100
AcDbEntity
  8
_0
  6
Continuous
 62
     7
370
    13
100
AcDbText
 10
61.925774
 20
-51.410492
 30
0.0
 40
0.052739
  1
7 58
  7
Style-Arial
 72
     1
 11
61.995818
 21
-51.384123
 31
0.0
100
AcDbText
 73
     2
  0
TEXT
  5
210
330
3F1
100
AcDbEntity
  8
_0
  6
Continuous
 62
     7
370
    13
100
AcDbText
 10
61.925407
 20
-51.297482
 30
0.0
 40
0.052739
  1
6 64
  7
Style-Arial
 72
     1
 11
61.99529
 21
-51.271113
 31
0.0
100
AcDbText
 73
     2
  0
TEXT
  5
211
330
3F1
100
AcDbEntity
  8
_0
  6
Continuous
 62
     7
370
    13
100
AcDbText
 10
61.925774
 20
-51.184471
 30
0.0
 40
0.052739
  1
5 78
  7
Style-Arial
 72
     1
 11
61.995818
 21
-51.158102
 31
0.0
100
AcDbText
 73
     2
  0
TEXT
  5
212
330
3F1
100
AcDbEntity
  8
_0
  6
Continuous
 62
     7
370
    13
100
AcDbText
 10
61.925774
 20
-51.071461
 30
0.0
 40
0.052739
  1
4 99
  7
Style-Arial
 72
     1
 11
61.995818
 21
-51.045092
 31
0.0
100
AcDbText
 73
     2
  0
TEXT
  5
213
330
3F1
100
AcDbEntity
  8
_0
  6
Continuous
 62
     7
370
    13
100
AcDbText
 10
61.925613
 20
-50.958451
 30
0.0
 40
0.052739
  1
4 25
  7
Style-Arial
 72
     1
 11
61.995818
 21
-50.932081
 31
0.0
100
AcDbText
 73
     2
  0
TEXT
  5
214
330
3F1
100
AcDbEntity
  8
_0
  6
Continuous
 62
     7
370
    13
100
AcDbText
 10
61.925814
 20
-50.84544
 30
0.0
 40
0.052739
  1
3 57
  7
Style-Arial
 72
     1
 11
61.995817
 21
-50.819071
 31
0.0
100
AcDbText
 73
     2
  0
TEXT
  5
215
330
3F1
100
AcDbEntity
  8
_0
  6
Continuous
 62
     7
370
    13
100
AcDbText
 10
61.925613
 20
-50.73244
 30
0.0
 40
0.052739
  1
2 95
  7
Style-Arial
 72
     1
 11
61.995818
 21
-50.706071
 31
0.0
100
AcDbText
 73
     2
  0
TEXT
  5
216
330
3F1
100
AcDbEntity
  8
_0
  6
Continuous
 62
     7
370
    13
100
AcDbText
 10
61.925774
 20
-50.619419
 30
0.0
 40
0.052739
  1
2 39
  7
Style-Arial
 72
     1
 11
61.995817
 21
-50.59305
 31
0.0
100
AcDbText
 73
     2
  0
TEXT
  5
217
330
3F1
100
AcDbEntity
  8
_0
  6
Continuous
 62
     7
370
    13
100
AcDbText
 10
61.925426
 20
-50.506419
 30
0.0
 40
0.052739
  1
1 89
  7
Style-Arial
 72
     1
 11
61.995469
 21
-50.48005
 31
0.0
100
AcDbText
 73
     2
  0
TEXT
  5
218
330
3F1
100
AcDbEntity
  8
_0
  6
Continuous
 62
     7
370
    13
100
AcDbText
 10
62.199212
 20
-52.314555
 30
0.0
 40
0.052739
  1
18 00
  7
Style-Arial
 72
     1
 11
62.289595
 21
-52.288185
 31
0.0
100
AcDbText
 73
     2
  0
TEXT
  5
219
330
3F1
100
AcDbEntity
  8
_0
  6
Continuous
 62
     7
370
    13
100
AcDbText
 10
62.19876
 20
-52.201555
 30
0.0
 40
0.052739
  1
16 53
  7
Style-Arial
 72
     1
 11
62.289243
 21
-52.175185
 31
0.0
100
AcDbText
 73
     2
  0
TEXT
  5
21A
330
3F1
100
AcDbEntity
  8
_0
  6
Continuous
 62
     7
370
    13
100
AcDbText
 10
62.198932
 20
-52.088544
 30
0.0
 40
0.052739
  1
15 13
  7
Style-Arial
 72
     1
 11
62.289416
 21
-52.062175
 31
0.0
100
AcDbText
 73
     2
  0
TEXT
  5
21B
330
3F1
100
AcDbEntity
  8
_0
  6
Continuous
 62
     7
370
    13
100
AcDbText
 10
62.198895
 20
-51.975534
 30
0.0
 40
0.052739
  1
13 68
  7
Style-Arial
 72
     1
 11
62.289419
 21
-51.949165
 31
0.0
100
AcDbText
 73
     2
  0
TEXT
  5
21C
330
3F1
100
AcDbEntity
  8
_0
  6
Continuous
 62
     7
370
    13
100
AcDbText
 10
62.199212
 20
-51.862524
 30
0.0
 40
0.052739
  1
12 50
  7
Style-Arial
 72
     1
 11
62.289595
 21
-51.836154
 31
0.0
100
AcDbText
 73
     2
  0
TEXT
  5
21D
330
3F1
100
AcDbEntity
  8
_0
  6
Continuous
 62
     7
370
    13
100
AcDbText
 10
62.198576
 20
-51.749513
 30
0.0
 40
0.052739
  1
11 26
  7
Style-Arial
 72
     1
 11
62.28906
 21
-51.723144
 31
0.0
100
AcDbText
 73
     2
  0
TEXT
  5
21E
330
3F1
100
AcDbEntity
  8
_0
  6
Continuous
 62
     7
370
    13
100
AcDbText
 10
62.198932
 20
-51.636503
 30
0.0
 40
0.052739
  1
10 13
  7
Style-Arial
 72
     1
 11
62.289416
 21
-51.610133
 31
0.0
100
AcDbText
 73
     2
  0
TEXT
  5
21F
330
3F1
100
AcDbEntity
  8
_0
  6
Continuous
 62
     7
370
    13
100
AcDbText
 10
62.219585
 20
-51.523492
 30
0.0
 40
0.052739
  1
9 03
  7
Style-Arial
 72
     1
 11
62.289588
 21
-51.497123
 31
0.0
100
AcDbText
 73
     2
  0
TEXT
  5
220
330
3F1
100
AcDbEntity
  8
_0
  6
Continuous
 62
     7
370
    13
100
AcDbText
 10
62.219686
 20
-51.410492
 30
0.0
 40
0.052739
  1
8 00
  7
Style-Arial
 72
     1
 11
62.289588
 21
-51.384123
 31
0.0
100
AcDbText
 73
     2
  0
TEXT
  5
221
330
3F1
100
AcDbEntity
  8
_0
  6
Continuous
 62
     7
370
    13
100
AcDbText
 10
62.219585
 20
-51.297482
 30
0.0
 40
0.052739
  1
7 03
  7
Style-Arial
 72
     1
 11
62.289588
 21
-51.271113
 31
0.0
100
AcDbText
 73
     2
  0
TEXT
  5
222
330
3F1
100
AcDbEntity
  8
_0
  6
Continuous
 62
     7
370
    13
100
AcDbText
 10
62.219064
 20
-51.184471
 30
0.0
 40
0.052739
  1
6 13
  7
Style-Arial
 72
     1
 11
62.289067
 21
-51.158102
 31
0.0
100
AcDbText
 73
     2
  0
TEXT
  5
223
330
3F1
100
AcDbEntity
  8
_0
  6
Continuous
 62
     7
370
    13
100
AcDbText
 10
62.219545
 20
-51.071461
 30
0.0
 40
0.052739
  1
5 28
  7
Style-Arial
 72
     1
 11
62.289588
 21
-51.045092
 31
0.0
100
AcDbText
 73
     2
  0
TEXT
  5
224
330
3F1
100
AcDbEntity
  8
_0
  6
Continuous
 62
     7
370
    13
100
AcDbText
 10
62.219686
 20
-50.958451
 30
0.0
 40
0.052739
  1
4 50
  7
Style-Arial
 72
     1
 11
62.289588
 21
-50.932081
 31
0.0
100
AcDbText
 73
     2
  0
TEXT
  5
225
330
3F1
100
AcDbEntity
  8
_0
  6
Continuous
 62
     7
370
    13
100
AcDbText
 10
62.219555
 20
-50.84544
 30
0.0
 40
0.052739
  1
3 78
  7
Style-Arial
 72
     1
 11
62.289598
 21
-50.819071
 31
0.0
100
AcDbText
 73
     2
  0
TEXT
  5
226
330
3F1
100
AcDbEntity
  8
_0
  6
Continuous
 62
     7
370
    13
100
AcDbText
 10
62.219415
 20
-50.73244
 30
0.0
 40
0.052739
  1
3 13
  7
Style-Arial
 72
     1
 11
62.289419
 21
-50.706071
 31
0.0
100
AcDbText
 73
     2
  0
TEXT
  5
227
330
3F1
100
AcDbEntity
  8
_0
  6
Continuous
 62
     7
370
    13
100
AcDbText
 10
62.219585
 20
-50.619419
 30
0.0
 40
0.052739
  1
2 53
  7
Style-Arial
 72
     1
 11
62.289588
 21
-50.59305
 31
0.0
100
AcDbText
 73
     2
  0
TEXT
  5
228
330
3F1
100
AcDbEntity
  8
_0
  6
Continuous
 62
     7
370
    13
100
AcDbText
 10
62.219686
 20
-50.506419
 30
0.0
 40
0.052739
  1
2 00
  7
Style-Arial
 72
     1
 11
62.289588
 21
-50.48005
 31
0.0
100
AcDbText
 73
     2
  0
TEXT
  5
229
330
3F1
100
AcDbEntity
  8
_0
  6
Continuous
 62
     7
370
    13
100
AcDbText
 10
62.492983
 20
-52.313524
 30
0.0
 40
0.052739
  1
19 00
  7
Style-Arial
 72
     1
 11
62.583366
 21
-52.287154
 31
0.0
100
AcDbText
 73
     2
  0
TEXT
  5
22A
330
3F1
100
AcDbEntity
  8
_0
  6
Continuous
 62
     7
370
    13
100
AcDbText
 10
62.492682
 20
-52.200513
 30
0.0
 40
0.052739
  1
17 45
  7
Style-Arial
 72
     1
 11
62.583366
 21
-52.174144
 31
0.0
100
AcDbText
 73
     2
  0
TEXT
  5
22B
330
3F1
100
AcDbEntity
  8
_0
  6
Continuous
 62
     7
370
    13
100
AcDbText
 10
62.492682
 20
-51.975534
 30
0.0
 40
0.052739
  1
14 55
  7
Style-Arial
 72
     1
 11
62.583366
 21
-51.949165
 31
0.0
100
AcDbText
 73
     2
  0
TEXT
  5
22C
330
3F1
100
AcDbEntity
  8
_0
  6
Continuous
 62
     7
370
    13
100
AcDbText
 10
62.492662
 20
-51.862524
 30
0.0
 40
0.052739
  1
13 19
  7
Style-Arial
 72
     1
 11
62.583186
 21
-51.836154
 31
0.0
100
AcDbText
 73
     2
  0
TEXT
  5
22D
330
3F1
100
AcDbEntity
  8
_0
  6
Continuous
 62
     7
370
    13
100
AcDbText
 10
62.497457
 20
-51.749513
 30
0.0
 40
0.052739
  1
11 91
  7
Style-Arial
 72
     1
 11
62.582836
 21
-51.723144
 31
0.0
100
AcDbText
 73
     2
  0
TEXT
  5
22E
330
3F1
100
AcDbEntity
  8
_0
  6
Continuous
 62
     7
370
    13
100
AcDbText
 10
62.492666
 20
-51.636503
 30
0.0
 40
0.052739
  1
10 69
  7
Style-Arial
 72
     1
 11
62.58319
 21
-51.610133
 31
0.0
100
AcDbText
 73
     2
  0
TEXT
  5
22F
330
3F1
100
AcDbEntity
  8
_0
  6
Continuous
 62
     7
370
    13
100
AcDbText
 10
62.513366
 20
-51.523492
 30
0.0
 40
0.052739
  1
9 53
  7
Style-Arial
 72
     1
 11
62.58337
 21
-51.497123
 31
0.0
100
AcDbText
 73
     2
  0
TEXT
  5
230
330
3F1
100
AcDbEntity
  8
_0
  6
Continuous
 62
     7
370
    13
100
AcDbText
 10
62.513487
 20
-51.410492
 30
0.0
 40
0.052739
  1
8 44
  7
Style-Arial
 72
     1
 11
62.58337
 21
-51.384123
 31
0.0
100
AcDbText
 73
     2
  0
TEXT
  5
231
330
3F1
100
AcDbEntity
  8
_0
  6
Continuous
 62
     7
370
    13
100
AcDbText
 10
62.513648
 20
-51.297482
 30
0.0
 40
0.052739
  1
7 42
  7
Style-Arial
 72
     1
 11
62.58337
 21
-51.271113
 31
0.0
100
AcDbText
 73
     2
  0
TEXT
  5
232
330
3F1
100
AcDbEntity
  8
_0
  6
Continuous
 62
     7
370
    13
100
AcDbText
 10
62.513014
 20
-51.184471
 30
0.0
 40
0.052739
  1
6 47
  7
Style-Arial
 72
     1
 11
62.583018
 21
-51.158102
 31
0.0
100
AcDbText
 73
     2
  0
TEXT
  5
233
330
3F1
100
AcDbEntity
  8
_0
  6
Continuous
 62
     7
370
    13
100
AcDbText
 10
62.513366
 20
-51.071461
 30
0.0
 40
0.052739
  1
5 57
  7
Style-Arial
 72
     1
 11
62.58337
 21
-51.045092
 31
0.0
100
AcDbText
 73
     2
  0
TEXT
  5
234
330
3F1
100
AcDbEntity
  8
_0
  6
Continuous
 62
     7
370
    13
100
AcDbText
 10
62.513165
 20
-50.958451
 30
0.0
 40
0.052739
  1
4 75
  7
Style-Arial
 72
     1
 11
62.58337
 21
-50.932081
 31
0.0
100
AcDbText
 73
     2
  0
TEXT
  5
235
330
3F1
100
AcDbEntity
  8
_0
  6
Continuous
 62
     7
370
    13
100
AcDbText
 10
62.513325
 20
-50.84544
 30
0.0
 40
0.052739
  1
3 99
  7
Style-Arial
 72
     1
 11
62.583369
 21
-50.819071
 31
0.0
100
AcDbText
 73
     2
  0
TEXT
  5
236
330
3F1
100
AcDbEntity
  8
_0
  6
Continuous
 62
     7
370
    13
100
AcDbText
 10
62.513466
 20
-50.73244
 30
0.0
 40
0.052739
  1
3 30
  7
Style-Arial
 72
     1
 11
62.583369
 21
-50.706071
 31
0.0
100
AcDbText
 73
     2
  0
TEXT
  5
237
330
3F1
100
AcDbEntity
  8
_0
  6
Continuous
 62
     7
370
    13
100
AcDbText
 10
62.51319
 20
-50.619419
 30
0.0
 40
0.052739
  1
2 67
  7
Style-Arial
 72
     1
 11
62.583194
 21
-50.59305
 31
0.0
100
AcDbText
 73
     2
  0
TEXT
  5
238
330
3F1
100
AcDbEntity
  8
_0
  6
Continuous
 62
     7
370
    13
100
AcDbText
 10
62.507318
 20
-50.506419
 30
0.0
 40
0.052739
  1
2 11
  7
Style-Arial
 72
     1
 11
62.572216
 21
-50.48005
 31
0.0
100
AcDbText
 73
     2
  0
TEXT
  5
239
330
3F1
100
AcDbEntity
  8
_0
  6
Continuous
 62
     7
370
    13
100
AcDbText
 10
62.786933
 20
-52.314555
 30
0.0
 40
0.052739
  1
20 00
  7
Style-Arial
 72
     1
 11
62.877316
 21
-52.288185
 31
0.0
100
AcDbText
 73
     2
  0
TEXT
  5
23A
330
3F1
100
AcDbEntity
  8
_0
  6
Continuous
 62
     7
370
    13
100
AcDbText
 10
62.786653
 20
-52.201555
 30
0.0
 40
0.052739
  1
18 37
  7
Style-Arial
 72
     1
 11
62.877137
 21
-52.175185
 31
0.0
100
AcDbText
 73
     2
  0
TEXT
  5
23B
330
3F1
100
AcDbEntity
  8
_0
  6
Continuous
 62
     7
370
    13
100
AcDbText
 10
62.791235
 20
-52.088544
 30
0.0
 40
0.052739
  1
16 81
  7
Style-Arial
 72
     1
 11
62.876613
 21
-52.062175
 31
0.0
100
AcDbText
 73
     2
  0
TEXT
  5
23C
330
3F1
100
AcDbEntity
  8
_0
  6
Continuous
 62
     7
370
    13
100
AcDbText
 10
62.791586
 20
-51.975534
 30
0.0
 40
0.052739
  1
15 31
  7
Style-Arial
 72
     1
 11
62.876965
 21
-51.949165
 31
0.0
100
AcDbText
 73
     2
  0
TEXT
  5
23D
330
3F1
100
AcDbEntity
  8
_0
  6
Continuous
 62
     7
370
    13
100
AcDbText
 10
62.786437
 20
-51.862524
 30
0.0
 40
0.052739
  1
13 69
  7
Style-Arial
 72
     1
 11
62.87696
 21
-51.836154
 31
0.0
100
AcDbText
 73
     2
  0
TEXT
  5
23E
330
3F1
100
AcDbEntity
  8
_0
  6
Continuous
 62
     7
370
    13
100
AcDbText
 10
62.786653
 20
-51.749513
 30
0.0
 40
0.052739
  1
12 53
  7
Style-Arial
 72
     1
 11
62.877137
 21
-51.723144
 31
0.0
100
AcDbText
 73
     2
  0
TEXT
  5
23F
330
3F1
100
AcDbEntity
  8
_0
  6
Continuous
 62
     7
370
    13
100
AcDbText
 10
62.786104
 20
-51.636503
 30
0.0
 40
0.052739
  1
11 25
  7
Style-Arial
 72
     1
 11
62.876789
 21
-51.610133
 31
0.0
100
AcDbText
 73
     2
  0
TEXT
  5
240
330
3F1
100
AcDbEntity
  8
_0
  6
Continuous
 62
     7
370
    13
100
AcDbText
 10
62.786653
 20
-51.523492
 30
0.0
 40
0.052739
  1
10 03
  7
Style-Arial
 72
     1
 11
62.877137
 21
-51.497123
 31
0.0
100
AcDbText
 73
     2
  0
TEXT
  5
241
330
3F1
100
AcDbEntity
  8
_0
  6
Continuous
 62
     7
370
    13
100
AcDbText
 10
62.807097
 20
-51.410492
 30
0.0
 40
0.052739
  1
8 89
  7
Style-Arial
 72
     1
 11
62.87714
 21
-51.384123
 31
0.0
100
AcDbText
 73
     2
  0
TEXT
  5
242
330
3F1
100
AcDbEntity
  8
_0
  6
Continuous
 62
     7
370
    13
100
AcDbText
 10
62.81206
 20
-51.297482
 30
0.0
 40
0.052739
  1
7 81
  7
Style-Arial
 72
     1
 11
62.876958
 21
-51.271113
 31
0.0
100
AcDbText
 73
     2
  0
TEXT
  5
243
330
3F1
100
AcDbEntity
  8
_0
  6
Continuous
 62
     7
370
    13
100
AcDbText
 10
62.811708
 20
-51.184471
 30
0.0
 40
0.052739
  1
6 81
  7
Style-Arial
 72
     1
 11
62.876606
 21
-51.158102
 31
0.0
100
AcDbText
 73
     2
  0
TEXT
  5
244
330
3F1
100
AcDbEntity
  8
_0
  6
Continuous
 62
     7
370
    13
100
AcDbText
 10
62.807137
 20
-51.071461
 30
0.0
 40
0.052739
  1
5 87
  7
Style-Arial
 72
     1
 11
62.87714
 21
-51.045092
 31
0.0
100
AcDbText
 73
     2
  0
TEXT
  5
245
330
3F1
100
AcDbEntity
  8
_0
  6
Continuous
 62
     7
370
    13
100
AcDbText
 10
62.807238
 20
-50.958451
 30
0.0
 40
0.052739
  1
5 00
  7
Style-Arial
 72
     1
 11
62.87714
 21
-50.932081
 31
0.0
100
AcDbText
 73
     2
  0
TEXT
  5
246
330
3F1
100
AcDbEntity
  8
_0
  6
Continuous
 62
     7
370
    13
100
AcDbText
 10
62.807238
 20
-50.84544
 30
0.0
 40
0.052739
  1
4 20
  7
Style-Arial
 72
     1
 11
62.87714
 21
-50.819071
 31
0.0
100
AcDbText
 73
     2
  0
TEXT
  5
247
330
3F1
100
AcDbEntity
  8
_0
  6
Continuous
 62
     7
370
    13
100
AcDbText
 10
62.807137
 20
-50.73244
 30
0.0
 40
0.052739
  1
3 47
  7
Style-Arial
 72
     1
 11
62.87714
 21
-50.706071
 31
0.0
100
AcDbText
 73
     2
  0
TEXT
  5
248
330
3F1
100
AcDbEntity
  8
_0
  6
Continuous
 62
     7
370
    13
100
AcDbText
 10
62.81206
 20
-50.619419
 30
0.0
 40
0.052739
  1
2 81
  7
Style-Arial
 72
     1
 11
62.876958
 21
-50.59305
 31
0.0
100
AcDbText
 73
     2
  0
TEXT
  5
249
330
3F1
100
AcDbEntity
  8
_0
  6
Continuous
 62
     7
370
    13
100
AcDbText
 10
62.807419
 20
-50.506419
 30
0.0
 40
0.052739
  1
2 22
  7
Style-Arial
 72
     1
 11
62.87714
 21
-50.48005
 31
0.0
100
AcDbText
 73
     2
  0
TEXT
  5
24A
330
3F1
100
AcDbEntity
  8
_0
  6
Continuous
 62
     7
370
    13
100
AcDbText
 10
58.694127
 20
-50.506419
 30
0.0
 40
0.052739
  1
0 96
  7
Style-Arial
 72
     1
 11
58.76413
 21
-50.48005
 31
0.0
100
AcDbText
 73
     2
  0
TEXT
  5
24B
330
3F1
100
AcDbEntity
  8
_0
  6
Continuous
 62
     7
370
    13
100
AcDbText
 10
58.694237
 20
-50.619419
 30
0.0
 40
0.052739
  1
1 22
  7
Style-Arial
 72
     1
 11
58.763959
 21
-50.59305
 31
0.0
100
AcDbText
 73
     2
  0
TEXT
  5
24C
330
3F1
100
AcDbEntity
  8
_0
  6
Continuous
 62
     7
370
    13
100
AcDbText
 10
58.694056
 20
-50.73244
 30
0.0
 40
0.052739
  1
1 50
  7
Style-Arial
 72
     1
 11
58.763959
 21
-50.706071
 31
0.0
100
AcDbText
 73
     2
  0
TEXT
  5
24D
330
3F1
100
AcDbEntity
  8
_0
  6
Continuous
 62
     7
370
    13
100
AcDbText
 10
58.694237
 20
-50.84544
 30
0.0
 40
0.052739
  1
1 82
  7
Style-Arial
 72
     1
 11
58.763959
 21
-50.819071
 31
0.0
100
AcDbText
 73
     2
  0
TEXT
  5
24E
330
3F1
100
AcDbEntity
  8
_0
  6
Continuous
 62
     7
370
    13
100
AcDbText
 10
58.693958
 20
-50.958451
 30
0.0
 40
0.052739
  1
2 16
  7
Style-Arial
 72
     1
 11
58.763961
 21
-50.932081
 31
0.0
100
AcDbText
 73
     2
  0
TEXT
  5
24F
330
3F1
100
AcDbEntity
  8
_0
  6
Continuous
 62
     7
370
    13
100
AcDbText
 10
58.694424
 20
-51.071461
 30
0.0
 40
0.052739
  1
2 54
  7
Style-Arial
 72
     1
 11
58.764307
 21
-51.045092
 31
0.0
100
AcDbText
 73
     2
  0
TEXT
  5
250
330
3F1
100
AcDbEntity
  8
_0
  6
Continuous
 62
     7
370
    13
100
AcDbText
 10
58.694424
 20
-51.184471
 30
0.0
 40
0.052739
  1
2 94
  7
Style-Arial
 72
     1
 11
58.764307
 21
-51.158102
 31
0.0
100
AcDbText
 73
     2
  0
TEXT
  5
251
330
3F1
100
AcDbEntity
  8
_0
  6
Continuous
 62
     7
370
    13
100
AcDbText
 10
58.694263
 20
-51.297482
 30
0.0
 40
0.052739
  1
3 38
  7
Style-Arial
 72
     1
 11
58.764306
 21
-51.271113
 31
0.0
100
AcDbText
 73
     2
  0
TEXT
  5
252
330
3F1
100
AcDbEntity
  8
_0
  6
Continuous
 62
     7
370
    13
100
AcDbText
 10
58.694434
 20
-51.410492
 30
0.0
 40
0.052739
  1
3 84
  7
Style-Arial
 72
     1
 11
58.764317
 21
-51.384123
 31
0.0
100
AcDbText
 73
     2
  0
TEXT
  5
253
330
3F1
100
AcDbEntity
  8
_0
  6
Continuous
 62
     7
370
    13
100
AcDbText
 10
58.694304
 20
-51.523492
 30
0.0
 40
0.052739
  1
4 33
  7
Style-Arial
 72
     1
 11
58.764307
 21
-51.497123
 31
0.0
100
AcDbText
 73
     2
  0
TEXT
  5
254
330
3F1
100
AcDbEntity
  8
_0
  6
Continuous
 62
     7
370
    13
100
AcDbText
 10
58.694127
 20
-51.636503
 30
0.0
 40
0.052739
  1
4 86
  7
Style-Arial
 72
     1
 11
58.76413
 21
-51.610133
 31
0.0
100
AcDbText
 73
     2
  0
TEXT
  5
255
330
3F1
100
AcDbEntity
  8
_0
  6
Continuous
 62
     7
370
    13
100
AcDbText
 10
58.699237
 20
-51.749513
 30
0.0
 40
0.052739
  1
5 41
  7
Style-Arial
 72
     1
 11
58.764135
 21
-51.723144
 31
0.0
100
AcDbText
 73
     2
  0
TEXT
  5
256
330
3F1
100
AcDbEntity
  8
_0
  6
Continuous
 62
     7
370
    13
100
AcDbText
 10
58.694052
 20
-51.862524
 30
0.0
 40
0.052739
  1
6 00
  7
Style-Arial
 72
     1
 11
58.763955
 21
-51.836154
 31
0.0
100
AcDbText
 73
     2
  0
TEXT
  5
257
330
3F1
100
AcDbEntity
  8
_0
  6
Continuous
 62
     7
370
    13
100
AcDbText
 10
58.400493
 20
-51.297482
 30
0.0
 40
0.052739
  1
4 39
  7
Style-Arial
 72
     1
 11
58.470536
 21
-51.271113
 31
0.0
100
AcDbText
 73
     2
  0
TEXT
  5
258
330
3F1
100
AcDbEntity
  8
_0
  6
Continuous
 62
     7
370
    13
100
AcDbText
 10
58.400532
 20
-51.184471
 30
0.0
 40
0.052739
  1
3 83
  7
Style-Arial
 72
     1
 11
58.470536
 21
-51.158102
 31
0.0
100
AcDbText
 73
     2
  0
TEXT
  5
259
330
3F1
100
AcDbEntity
  8
_0
  6
Continuous
 62
     7
370
    13
100
AcDbText
 10
58.400633
 20
-51.071461
 30
0.0
 40
0.052739
  1
3 30
  7
Style-Arial
 72
     1
 11
58.470535
 21
-51.045092
 31
0.0
100
AcDbText
 73
     2
  0
TEXT
  5
25A
330
3F1
100
AcDbEntity
  8
_0
  6
Continuous
 62
     7
370
    13
100
AcDbText
 10
58.405466
 20
-50.958451
 30
0.0
 40
0.052739
  1
2 81
  7
Style-Arial
 72
     1
 11
58.470365
 21
-50.932081
 31
0.0
100
AcDbText
 73
     2
  0
TEXT
  5
25B
330
3F1
100
AcDbEntity
  8
_0
  6
Continuous
 62
     7
370
    13
100
AcDbText
 10
58.400356
 20
-50.84544
 30
0.0
 40
0.052739
  1
2 36
  7
Style-Arial
 72
     1
 11
58.470359
 21
-50.819071
 31
0.0
100
AcDbText
 73
     2
  0
TEXT
  5
25C
330
3F1
100
AcDbEntity
  8
_0
  6
Continuous
 62
     7
370
    13
100
AcDbText
 10
58.399984
 20
-50.73244
 30
0.0
 40
0.052739
  1
1 95
  7
Style-Arial
 72
     1
 11
58.470188
 21
-50.706071
 31
0.0
100
AcDbText
 73
     2
  0
TEXT
  5
25D
330
3F1
100
AcDbEntity
  8
_0
  6
Continuous
 62
     7
370
    13
100
AcDbText
 10
58.400145
 20
-50.619419
 30
0.0
 40
0.052739
  1
1 58
  7
Style-Arial
 72
     1
 11
58.470188
 21
-50.59305
 31
0.0
100
AcDbText
 73
     2
  0
TEXT
  5
25E
330
3F1
100
AcDbEntity
  8
_0
  6
Continuous
 62
     7
370
    13
100
AcDbText
 10
58.106238
 20
-50.506419
 30
0.0
 40
0.052739
  1
1 63
  7
Style-Arial
 72
     1
 11
58.176241
 21
-50.48005
 31
0.0
100
AcDbText
 73
     2
  0
TEXT
  5
25F
330
3F1
100
AcDbEntity
  8
_0
  6
Continuous
 62
     7
370
    13
100
AcDbText
 10
58.106585
 20
-50.619419
 30
0.0
 40
0.052739
  1
2 06
  7
Style-Arial
 72
     1
 11
58.176588
 21
-50.59305
 31
0.0
100
AcDbText
 73
     2
  0
TEXT
  5
260
330
3F1
100
AcDbEntity
  8
_0
  6
Continuous
 62
     7
370
    13
100
AcDbText
 10
58.106561
 20
-50.73244
 30
0.0
 40
0.052739
  1
2 55
  7
Style-Arial
 72
     1
 11
58.176765
 21
-50.706071
 31
0.0
100
AcDbText
 73
     2
  0
TEXT
  5
261
330
3F1
100
AcDbEntity
  8
_0
  6
Continuous
 62
     7
370
    13
100
AcDbText
 10
58.106721
 20
-50.84544
 30
0.0
 40
0.052739
  1
3 09
  7
Style-Arial
 72
     1
 11
58.176765
 21
-50.819071
 31
0.0
100
AcDbText
 73
     2
  0
TEXT
  5
262
330
3F1
100
AcDbEntity
  8
_0
  6
Continuous
 62
     7
370
    13
100
AcDbText
 10
58.106586
 20
-50.958451
 30
0.0
 40
0.052739
  1
3 67
  7
Style-Arial
 72
     1
 11
58.176589
 21
-50.932081
 31
0.0
100
AcDbText
 73
     2
  0
TEXT
  5
263
330
3F1
100
AcDbEntity
  8
_0
  6
Continuous
 62
     7
370
    13
100
AcDbText
 10
58.106762
 20
-51.071461
 30
0.0
 40
0.052739
  1
4 27
  7
Style-Arial
 72
     1
 11
58.176765
 21
-51.045092
 31
0.0
100
AcDbText
 73
     2
  0
TEXT
  5
264
330
3F1
100
AcDbEntity
  8
_0
  6
Continuous
 62
     7
370
    13
100
AcDbText
 10
58.106863
 20
-51.184471
 30
0.0
 40
0.052739
  1
5 00
  7
Style-Arial
 72
     1
 11
58.176765
 21
-51.158102
 31
0.0
100
AcDbText
 73
     2
  0
TEXT
  5
265
330
3F1
100
AcDbEntity
  8
_0
  6
Continuous
 62
     7
370
    13
100
AcDbText
 10
57.813092
 20
-50.958451
 30
0.0
 40
0.052739
  1
4 00
  7
Style-Arial
 72
     1
 11
57.882995
 21
-50.932081
 31
0.0
100
AcDbText
 73
     2
  0
TEXT
  5
266
330
3F1
100
AcDbEntity
  8
_0
  6
Continuous
 62
     7
370
    13
100
AcDbText
 10
57.812813
 20
-50.84544
 30
0.0
 40
0.052739
  1
3 36
  7
Style-Arial
 72
     1
 11
57.882817
 21
-50.819071
 31
0.0
100
AcDbText
 73
     2
  0
TEXT
  5
267
330
3F1
100
AcDbEntity
  8
_0
  6
Continuous
 62
     7
370
    13
100
AcDbText
 10
57.812951
 20
-50.73244
 30
0.0
 40
0.052739
  1
2 78
  7
Style-Arial
 72
     1
 11
57.882995
 21
-50.706071
 31
0.0
100
AcDbText
 73
     2
  0
TEXT
  5
268
330
3F1
100
AcDbEntity
  8
_0
  6
Continuous
 62
     7
370
    13
100
AcDbText
 10
57.81279
 20
-50.619419
 30
0.0
 40
0.052739
  1
2 25
  7
Style-Arial
 72
     1
 11
57.882995
 21
-50.59305
 31
0.0
100
AcDbText
 73
     2
  0
TEXT
  5
269
330
3F1
100
AcDbEntity
  8
_0
  6
Continuous
 62
     7
370
    13
100
AcDbText
 10
57.812592
 20
-50.506419
 30
0.0
 40
0.052739
  1
1 78
  7
Style-Arial
 72
     1
 11
57.882636
 21
-50.48005
 31
0.0
100
AcDbText
 73
     2
  0
TEXT
  5
26A
330
3F1
100
AcDbEntity
  8
_0
  6
Continuous
 62
     7
370
    13
100
AcDbText
 10
57.51932
 20
-50.504982
 30
0.0
 40
0.052739
  1
3 00
  7
Style-Arial
 72
     1
 11
57.589223
 21
-50.478613
 31
0.0
100
AcDbText
 73
     2
  0
TEXT
  5
26B
330
3F1
100
AcDbEntity
  8
_0
  6
Continuous
 62
     7
370
    13
100
AcDbText
 10
57.212897
 20
-49.602346
 30
0.0
 40
0.052739
  1
W=2'
  7
Style-Arial
 72
     1
 11
57.294959
 21
-49.575977
 31
0.0
100
AcDbText
 73
     2
  0
TEXT
  5
26C
330
3F1
100
AcDbEntity
  8
_0
  6
Continuous
 62
     7
370
    13
100
AcDbText
 10
57.506667
 20
-49.602346
 30
0.0
 40
0.052739
  1
W=3'
  7
Style-Arial
 72
     1
 11
57.588729
 21
-49.575977
 31
0.0
100
AcDbText
 73
     2
  0
TEXT
  5
26D
330
3F1
100
AcDbEntity
  8
_0
  6
Continuous
 62
     7
370
    13
100
AcDbText
 10
57.800438
 20
-49.602346
 30
0.0
 40
0.052739
  1
W=4'
  7
Style-Arial
 72
     1
 11
57.882501
 21
-49.575977
 31
0.0
100
AcDbText
 73
     2
  0
TEXT
  5
26E
330
3F1
100
AcDbEntity
  8
_0
  6
Continuous
 62
     7
370
    13
100
AcDbText
 10
58.386459
 20
-49.602346
 30
0.0
 40
0.052739
  1
W=5'
  7
Style-Arial
 72
     1
 11
58.468522
 21
-49.575977
 31
0.0
100
AcDbText
 73
     2
  0
TEXT
  5
26F
330
3F1
100
AcDbEntity
  8
_0
  6
Continuous
 62
     7
370
    13
100
AcDbText
 10
58.680015
 20
-49.602346
 30
0.0
 40
0.052739
  1
W=6'
  7
Style-Arial
 72
     1
 11
58.762078
 21
-49.575977
 31
0.0
100
AcDbText
 73
     2
  0
TEXT
  5
270
330
3F1
100
AcDbEntity
  8
_0
  6
Continuous
 62
     7
370
    13
100
AcDbText
 10
58.974001
 20
-49.602346
 30
0.0
 40
0.052739
  1
W=7'
  7
Style-Arial
 72
     1
 11
59.056063
 21
-49.575977
 31
0.0
100
AcDbText
 73
     2
  0
TEXT
  5
271
330
3F1
100
AcDbEntity
  8
_0
  6
Continuous
 62
     7
370
    13
100
AcDbText
 10
59.267782
 20
-49.602346
 30
0.0
 40
0.052739
  1
W=8'
  7
Style-Arial
 72
     1
 11
59.349844
 21
-49.575977
 31
0.0
100
AcDbText
 73
     2
  0
TEXT
  5
272
330
3F1
100
AcDbEntity
  8
_0
  6
Continuous
 62
     7
370
    13
100
AcDbText
 10
59.561553
 20
-49.602346
 30
0.0
 40
0.052739
  1
W=9'
  7
Style-Arial
 72
     1
 11
59.643615
 21
-49.575977
 31
0.0
100
AcDbText
 73
     2
  0
TEXT
  5
273
330
3F1
100
AcDbEntity
  8
_0
  6
Continuous
 62
     7
370
    13
100
AcDbText
 10
59.834847
 20
-49.602346
 30
0.0
 40
0.052739
  1
W=10'
  7
Style-Arial
 72
     1
 11
59.93739
 21
-49.575977
 31
0.0
100
AcDbText
 73
     2
  0
TEXT
  5
274
330
3F1
100
AcDbEntity
  8
_0
  6
Continuous
 62
     7
370
    13
100
AcDbText
 10
60.128399
 20
-49.602346
 30
0.0
 40
0.052739
  1
W=11'
  7
Style-Arial
 72
     1
 11
60.230942
 21
-49.575977
 31
0.0
100
AcDbText
 73
     2
  0
TEXT
  5
275
330
3F1
100
AcDbEntity
  8
_0
  6
Continuous
 62
     7
370
    13
100
AcDbText
 10
60.422389
 20
-49.602346
 30
0.0
 40
0.052739
  1
W=12'
  7
Style-Arial
 72
     1
 11
60.524931
 21
-49.575977
 31
0.0
100
AcDbText
 73
     2
  0
TEXT
  5
276
330
3F1
100
AcDbEntity
  8
_0
  6
Continuous
 62
     7
370
    13
100
AcDbText
 10
60.716159
 20
-49.602346
 30
0.0
 40
0.052739
  1
W=13'
  7
Style-Arial
 72
     1
 11
60.818702
 21
-49.575977
 31
0.0
100
AcDbText
 73
     2
  0
TEXT
  5
277
330
3F1
100
AcDbEntity
  8
_0
  6
Continuous
 62
     7
370
    13
100
AcDbText
 10
61.009941
 20
-49.602346
 30
0.0
 40
0.052739
  1
W=14'
  7
Style-Arial
 72
     1
 11
61.112483
 21
-49.575977
 31
0.0
100
AcDbText
 73
     2
  0
TEXT
  5
278
330
3F1
100
AcDbEntity
  8
_0
  6
Continuous
 62
     7
370
    13
100
AcDbText
 10
61.303711
 20
-49.602346
 30
0.0
 40
0.052739
  1
W=15'
  7
Style-Arial
 72
     1
 11
61.406254
 21
-49.575977
 31
0.0
100
AcDbText
 73
     2
  0
TEXT
  5
279
330
3F1
100
AcDbEntity
  8
_0
  6
Continuous
 62
     7
370
    13
100
AcDbText
 10
61.597268
 20
-49.602346
 30
0.0
 40
0.052739
  1
W=16'
  7
Style-Arial
 72
     1
 11
61.69981
 21
-49.575977
 31
0.0
100
AcDbText
 73
     2
  0
TEXT
  5
27A
330
3F1
100
AcDbEntity
  8
_0
  6
Continuous
 62
     7
370
    13
100
AcDbText
 10
61.891253
 20
-49.602346
 30
0.0
 40
0.052739
  1
W=17'
  7
Style-Arial
 72
     1
 11
61.993796
 21
-49.575977
 31
0.0
100
AcDbText
 73
     2
  0
TEXT
  5
27B
330
3F1
100
AcDbEntity
  8
_0
  6
Continuous
 62
     7
370
    13
100
AcDbText
 10
62.185034
 20
-49.602346
 30
0.0
 40
0.052739
  1
W=18'
  7
Style-Arial
 72
     1
 11
62.287577
 21
-49.575977
 31
0.0
100
AcDbText
 73
     2
  0
TEXT
  5
27C
330
3F1
100
AcDbEntity
  8
_0
  6
Continuous
 62
     7
370
    13
100
AcDbText
 10
62.478805
 20
-49.602346
 30
0.0
 40
0.052739
  1
W=19'
  7
Style-Arial
 72
     1
 11
62.581348
 21
-49.575977
 31
0.0
100
AcDbText
 73
     2
  0
TEXT
  5
27D
330
3F1
100
AcDbEntity
  8
_0
  6
Continuous
 62
     7
370
    13
100
AcDbText
 10
62.772795
 20
-49.602346
 30
0.0
 40
0.052739
  1
W=20'
  7
Style-Arial
 72
     1
 11
62.875338
 21
-49.575977
 31
0.0
100
AcDbText
 73
     2
  0
TEXT
  5
27E
330
3F1
100
AcDbEntity
  8
_0
  6
Continuous
 62
     7
370
    13
100
AcDbText
 10
60.061511
 20
-49.483336
 30
0.0
 40
0.052739
  1
Y
  7
Style-Arial
 72
     1
 11
60.08581
 21
-49.456966
 31
0.0
100
AcDbText
 73
     2
  0
TEXT
  5
27F
330
3F1
100
AcDbEntity
  8
_0
  6
Continuous
 62
     7
370
    13
100
AcDbText
 10
56.873721
 20
-49.539836
 30
0.0
 40
0.052739
  1
X
  7
Style-Arial
 72
     1
 11
56.89806
 21
-49.513466
 31
0.0
100
AcDbText
 73
     2
  0
TEXT
  5
280
330
3F1
100
AcDbEntity
  8
_0
  6
Continuous
 62
     7
370
    13
100
AcDbText
 10
56.289907
 20
-49.494961
 30
0.0
 40
0.052739
  1
LENGTH
  7
Style-Arial
 72
     1
 11
56.436386
 21
-49.468591
 31
0.0
100
AcDbText
 73
     2
  0
TEXT
  5
281
330
3F1
100
AcDbEntity
  8
_0
  6
Continuous
 62
     7
370
    13
100
AcDbText
 10
56.416344
 20
-49.596158
 30
0.0
 40
0.052739
  1
L
  7
Style-Arial
 72
     1
 11
56.435518
 21
-49.569789
 31
0.0
100
AcDbText
 73
     2
  0
TEXT
  5
282
330
3F1
100
AcDbEntity
  8
_0
  6
Continuous
 62
     7
370
    13
100
AcDbText
 10
56.338927
 20
-49.994054
 30
0.0
 40
0.052739
  1
37 50'
  7
Style-Arial
 72
     1
 11
56.436385
 21
-49.967685
 31
0.0
100
AcDbText
 73
     2
  0
TEXT
  5
283
330
3F1
100
AcDbEntity
  8
_0
  6
Continuous
 62
     7
370
    13
100
AcDbText
 10
56.338928
 20
-50.4497
 30
0.0
 40
0.052739
  1
50 00'
  7
Style-Arial
 72
     1
 11
56.436386
 21
-50.423331
 31
0.0
100
AcDbText
 73
     2
  0
TEXT
  5
284
330
3F1
100
AcDbEntity
  8
_0
  6
Continuous
 62
     7
370
    13
100
AcDbText
 10
56.338928
 20
-50.788721
 30
0.0
 40
0.052739
  1
75 00'
  7
Style-Arial
 72
     1
 11
56.436386
 21
-50.762352
 31
0.0
100
AcDbText
 73
     2
  0
TEXT
  5
285
330
3F1
100
AcDbEntity
  8
_0
  6
Continuous
 62
     7
370
    13
100
AcDbText
 10
56.338928
 20
-51.127856
 30
0.0
 40
0.052739
  1
87 50'
  7
Style-Arial
 72
     1
 11
56.436386
 21
-51.101487
 31
0.0
100
AcDbText
 73
     2
  0
TEXT
  5
286
330
3F1
100
AcDbEntity
  8
_0
  6
Continuous
 62
     7
370
    13
100
AcDbText
 10
56.318451
 20
-51.357492
 30
0.0
 40
0.052739
  1
100 00'
  7
Style-Arial
 72
     1
 11
56.436389
 21
-51.331122
 31
0.0
100
AcDbText
 73
     2
  0
TEXT
  5
287
330
3F1
100
AcDbEntity
  8
_0
  6
Continuous
 62
     7
370
    13
100
AcDbText
 10
56.318451
 20
-52.145044
 30
0.0
 40
0.052739
  1
150 00'
  7
Style-Arial
 72
     1
 11
56.436389
 21
-52.118675
 31
0.0
100
AcDbText
 73
     2
  0
TEXT
  5
28A
330
3F1
100
AcDbEntity
  8
_0
  6
Continuous
 62
     7
370
    13
100
AcDbText
 10
58.405466
 20
-50.053794
 30
0.0
 40
0.052739
  1
0 31
  7
Style-Arial
 72
     1
 11
58.470364
 21
-50.027425
 31
0.0
100
AcDbText
 73
     2
  0
TEXT
  5
28B
330
3F1
100
AcDbEntity
  8
_0
  6
Continuous
 62
     7
370
    13
100
AcDbText
 10
58.399373
 20
-51.411659
 30
0.0
 40
0.052739
  1
5 00
  7
Style-Arial
 72
     1
 11
58.469276
 21
-51.38529
 31
0.0
100
AcDbText
 73
     2
  0
TEXT
  5
28C
330
3F1
100
AcDbEntity
  8
_0
  6
Continuous
 62
     7
370
    13
100
AcDbText
 10
58.09422
 20
-49.602346
 30
0.0
 40
0.052739
  1
W=5'
  7
Style-Arial
 72
     1
 11
58.176282
 21
-49.575977
 31
0.0
100
AcDbText
 73
     2
  0
TEXT
  5
28D
330
3F1
100
AcDbEntity
  8
_0
  6
Continuous
 62
     7
370
    13
100
AcDbText
 10
62.492883
 20
-52.087503
 30
0.0
 40
0.052739
  1
15 97
  7
Style-Arial
 72
     1
 11
62.583366
 21
-52.061133
 31
0.0
100
AcDbText
 73
     2
  0
TEXT
  5
2A2
330
3F1
100
AcDbEntity
  8
DIM
  6
Continuous
 62
     7
370
    13
100
AcDbText
 10
63.633014
 20
-49.612268
 30
0.0
 40
0.052739
  1
6'-3"
 50
89.764931
  7
Style-Arial
 72
     1
 11
63.606939
 21
-49.54055
 31
0.0
100
AcDbText
 73
     2
  0
TEXT
  5
2A7
330
3F1
100
AcDbEntity
  8
DIM
  6
Continuous
 62
     7
370
    13
100
AcDbText
 10
63.640807
 20
-49.920427
 30
0.0
 40
0.052739
  1
6'-3"
 50
90.770147
  7
Style-Arial
 72
     1
 11
63.613478
 21
-49.849176
 31
0.0
100
AcDbText
 73
     2
  0
TEXT
  5
2AC
330
3F1
100
AcDbEntity
  8
DIM
  6
Continuous
 62
     7
370
    13
100
AcDbText
 10
63.651367
 20
-50.254298
 30
0.0
 40
0.052739
  1
6'-3"
 50
91.982644
  7
Style-Arial
 72
     1
 11
63.622536
 21
-50.183643
 31
0.0
100
AcDbText
 73
     2
  0
TEXT
  5
2B1
330
3F1
100
AcDbEntity
  8
DIM
  6
Continuous
 62
     7
370
    13
100
AcDbText
 10
63.674102
 20
-50.573353
 30
0.0
 40
0.052739
  1
6'-3"
 50
93.628814
  7
Style-Arial
 72
     1
 11
63.643253
 21
-50.503555
 31
0.0
100
AcDbText
 73
     2
  0
TEXT
  5
2B7
330
3F1
100
AcDbEntity
  8
DIM
  6
Continuous
 62
     7
370
    13
100
AcDbText
 10
63.697577
 20
-50.907986
 30
0.0
 40
0.052739
  1
6'-3"
 50
94.478081
  7
Style-Arial
 72
     1
 11
63.665697
 21
-50.838652
 31
0.0
100
AcDbText
 73
     2
  0
TEXT
  5
2BC
330
3F1
100
AcDbEntity
  8
DIM
  6
Continuous
 62
     7
370
    13
100
AcDbText
 10
63.73463
 20
-51.255684
 30
0.0
 40
0.052739
  1
6'-3"
 50
96.581944
  7
Style-Arial
 72
     1
 11
63.700226
 21
-51.187568
 31
0.0
100
AcDbText
 73
     2
  0
TEXT
  5
2C0
330
3F1
100
AcDbEntity
  8
DIM
  6
Continuous
 62
     7
370
    13
100
AcDbText
 10
63.765425
 20
-51.56804
 30
0.0
 40
0.052739
  1
6'-3"
 50
95.38625
  7
Style-Arial
 72
     1
 11
63.73245
 21
-51.49922
 31
0.0
100
AcDbText
 73
     2
  0
TEXT
  5
2C6
330
3F1
100
AcDbEntity
  8
DIM
  6
Continuous
 62
     7
370
    13
100
AcDbText
 10
63.804615
 20
-51.911585
 30
0.0
 40
0.052739
  1
6'-3"
 50
97.363567
  7
Style-Arial
 72
     1
 11
63.769285
 21
-51.843944
 31
0.0
100
AcDbText
 73
     2
  0
TEXT
  5
2C7
330
3F1
100
AcDbEntity
  8
DIM
  6
Continuous
 62
     7
370
    13
100
AcDbText
 10
63.821336
 20
-49.612612
 30
0.0
 40
0.052739
  1
X 
 50
90.0
  7
Style-Arial
 72
     1
 11
63.794967
 21
-49.588273
 31
0.0
100
AcDbText
 73
     2
  0
TEXT
  5
2C8
330
3F1
100
AcDbEntity
  8
DIM
  6
Continuous
 62
     7
370
    13
100
AcDbText
 10
63.840742
 20
-49.590234
 30
0.0
 40
0.052739
  1
 1
 50
90.0
  7
Style-Arial
 72
     1
 11
63.814373
 21
-49.566297
 31
0.0
100
AcDbText
 73
     2
  0
TEXT
  5
2C9
330
3F1
100
AcDbEntity
  8
DIM
  6
Continuous
 62
     7
370
    13
100
AcDbText
 10
63.946598
 20
-49.772024
 30
0.0
 40
0.052739
  1
X 
 50
91.0
  7
Style-Arial
 72
     1
 11
63.919808
 21
-49.748149
 31
0.0
100
AcDbText
 73
     2
  0
TEXT
  5
2CA
330
3F1
100
AcDbEntity
  8
DIM
  6
Continuous
 62
     7
370
    13
100
AcDbText
 10
63.965678
 20
-49.752884
 30
0.0
 40
0.052739
  1
 2
 50
91.0
  7
Style-Arial
 72
     1
 11
63.938811
 21
-49.724588
 31
0.0
100
AcDbText
 73
     2
  0
TEXT
  5
2CB
330
3F1
100
AcDbEntity
  8
DIM
  6
Continuous
 62
     7
370
    13
100
AcDbText
 10
64.070307
 20
-49.9131
 30
0.0
 40
0.052739
  1
X
 50
92.0
  7
Style-Arial
 72
     1
 11
64.043104
 21
-49.889696
 31
0.0
100
AcDbText
 73
     2
  0
TEXT
  5
2CC
330
3F1
100
AcDbEntity
  8
DIM
  6
Continuous
 62
     7
370
    13
100
AcDbText
 10
64.091446
 20
-49.906875
 30
0.0
 40
0.052739
  1
 3
 50
92.0
  7
Style-Arial
 72
     1
 11
64.064079
 21
-49.87877
 31
0.0
100
AcDbText
 73
     2
  0
TEXT
  5
2CD
330
3F1
100
AcDbEntity
  8
DIM
  6
Continuous
 62
     7
370
    13
100
AcDbText
 10
64.201036
 20
-50.056535
 30
0.0
 40
0.052739
  1
X
 50
94.0
  7
Style-Arial
 72
     1
 11
64.173033
 21
-50.034094
 31
0.0
100
AcDbText
 73
     2
  0
TEXT
  5
2CE
330
3F1
100
AcDbEntity
  8
DIM
  6
Continuous
 62
     7
370
    13
100
AcDbText
 10
64.222182
 20
-50.047357
 30
0.0
 40
0.052739
  1
 4
 50
94.0
  7
Style-Arial
 72
     1
 11
64.193859
 21
-50.020345
 31
0.0
100
AcDbText
 73
     2
  0
TEXT
  5
2CF
330
3F1
100
AcDbEntity
  8
DIM
  6
Continuous
 62
     7
370
    13
100
AcDbText
 10
64.330651
 20
-50.177483
 30
0.0
 40
0.052739
  1
X
 50
94.0
  7
Style-Arial
 72
     1
 11
64.302648
 21
-50.155042
 31
0.0
100
AcDbText
 73
     2
  0
TEXT
  5
2D0
330
3F1
100
AcDbEntity
  8
DIM
  6
Continuous
 62
     7
370
    13
100
AcDbText
 10
64.341225
 20
-50.161772
 30
0.0
 40
0.052739
  1
 5
 50
94.0
  7
Style-Arial
 72
     1
 11
64.31288
 21
-50.134439
 31
0.0
100
AcDbText
 73
     2
  0
TEXT
  5
2D1
330
3F1
100
AcDbEntity
  8
DIM
  6
Continuous
 62
     7
370
    13
100
AcDbText
 10
64.438729
 20
-50.331311
 30
0.0
 40
0.052739
  1
X
 50
97.0
  7
Style-Arial
 72
     1
 11
64.40959
 21
-50.310367
 31
0.0
100
AcDbText
 73
     2
  0
TEXT
  5
2D2
330
3F1
100
AcDbEntity
  8
DIM
  6
Continuous
 62
     7
370
    13
100
AcDbText
 10
64.449143
 20
-50.311322
 30
0.0
 40
0.052739
  1
 6
 50
97.0
  7
Style-Arial
 72
     1
 11
64.419431
 21
-50.28571
 31
0.0
100
AcDbText
 73
     2
  0
TEXT
  5
2D3
330
3F1
100
AcDbEntity
  8
DIM
  6
Continuous
 62
     7
370
    13
100
AcDbText
 10
64.552847
 20
-50.559498
 30
0.0
 40
0.052739
  1
X
 50
95.0
  7
Style-Arial
 72
     1
 11
64.524457
 21
-50.537549
 31
0.0
100
AcDbText
 73
     2
  0
TEXT
  5
2D4
330
3F1
100
AcDbEntity
  8
DIM
  6
Continuous
 62
     7
370
    13
100
AcDbText
 10
64.569786
 20
-50.544298
 30
0.0
 40
0.052739
  1
 7
 50
95.0
  7
Style-Arial
 72
     1
 11
64.540986
 21
-50.517665
 31
0.0
100
AcDbText
 73
     2
  0
TEXT
  5
2D5
330
3F1
100
AcDbEntity
  8
DIM
  6
Continuous
 62
     7
370
    13
100
AcDbText
 10
64.670573
 20
-50.772249
 30
0.0
 40
0.052739
  1
X
 50
97.0
  7
Style-Arial
 72
     1
 11
64.641434
 21
-50.751304
 31
0.0
100
AcDbText
 73
     2
  0
TEXT
  5
2D6
330
3F1
100
AcDbEntity
  8
DIM
  6
Continuous
 62
     7
370
    13
100
AcDbText
 10
64.683106
 20
-50.746977
 30
0.0
 40
0.052739
  1
 8
 50
97.0
  7
Style-Arial
 72
     1
 11
64.653389
 21
-50.721325
 31
0.0
100
AcDbText
 73
     2
  0
TEXT
  5
347
330
3F1
100
AcDbEntity
  8
DIM
  6
Continuous
 62
     7
370
    13
100
AcDbText
 10
63.524087
 20
-51.324944
 30
0.0
 40
0.052739
  1
Y
  7
Style-Arial
 72
     1
 11
63.548386
 21
-51.298575
 31
0.0
100
AcDbText
 73
     2
  0
TEXT
  5
348
330
3F1
100
AcDbEntity
  8
DIM
  6
Continuous
 62
     7
370
    13
100
AcDbText
 10
63.551918
 20
-51.675588
 30
0.0
 40
0.052739
  1
Y
  7
Style-Arial
 72
     1
 11
63.576217
 21
-51.649218
 31
0.0
100
AcDbText
 73
     2
  0
TEXT
  5
349
330
3F1
100
AcDbEntity
  8
DIM
  6
Continuous
 62
     7
370
    13
100
AcDbText
 10
63.570613
 20
-51.999861
 30
0.0
 40
0.052739
  1
Y
  7
Style-Arial
 72
     1
 11
63.594912
 21
-51.973492
 31
0.0
100
AcDbText
 73
     2
  0
TEXT
  5
34A
330
3F1
100
AcDbEntity
  8
DIM
  6
Continuous
 62
     7
370
    13
100
AcDbText
 10
63.530422
 20
-52.290453
 30
0.0
 40
0.052739
  1
W
  7
Style-Arial
 72
     1
 11
63.564771
 21
-52.264083
 31
0.0
100
AcDbText
 73
     2
  0
TEXT
  5
34B
330
3F1
100
AcDbEntity
  8
_0
  6
Continuous
 62
     7
370
    13
100
AcDbText
 10
63.504865
 20
-52.488009
 30
0.0
 40
0.052739
  1
O
  7
Style-Arial
 72
     1
 11
63.531877
 21
-52.46164
 31
0.0
100
AcDbText
 73
     2
  0
TEXT
  5
34C
330
3F1
100
AcDbEntity
  8
DIM
  6
Continuous
 62
     7
370
    13
100
AcDbText
 10
63.546274
 20
-52.512826
 30
0.0
 40
0.052739
  1
 1
  7
Style-Arial
 72
     1
 11
63.570211
 21
-52.486457
 31
0.0
100
AcDbText
 73
     2
  0
TEXT
  5
34D
330
3F1
100
AcDbEntity
  8
LEGEND
  6
Continuous
 62
     7
370
    13
100
AcDbText
 10
63.935448
 20
-52.296015
 30
0.0
 40
0.052739
  1
 Y = W
  7
Style-Arial
 72
     1
 11
64.046573
 21
-52.269646
 31
0.0
100
AcDbText
 73
     2
  0
TEXT
  5
34E
330
3F1
100
AcDbEntity
  8
LEGEND
  6
Continuous
 62
     7
370
    13
100
AcDbText
 10
64.05096
 20
-52.263515
 30
0.0
 40
0.052739
  1
        X
  7
Style-Arial
 72
     1
 11
64.157141
 21
-52.237146
 31
0.0
100
AcDbText
 73
     2
  0
TEXT
  5
34F
330
3F1
100
AcDbEntity
  8
LEGEND
  6
Continuous
 62
     7
370
    13
100
AcDbText
 10
64.056126
 20
-52.350953
 30
0.0
 40
0.052739
  1
        L
  7
Style-Arial
 72
     1
 11
64.157141
 21
-52.324583
 31
0.0
100
AcDbText
 73
     2
  0
TEXT
  5
350
330
3F1
100
AcDbEntity
  8
LEGEND
  6
Continuous
 62
     7
370
    13
100
AcDbText
 10
64.099812
 20
-52.243105
 30
0.0
 40
0.052739
  1
         2
  7
Style-Arial
 72
     1
 11
64.210414
 21
-52.216735
 31
0.0
100
AcDbText
 73
     2
  0
TEXT
  5
351
330
3F1
100
AcDbEntity
  8
LEGEND
  6
Continuous
 62
     7
370
    13
100
AcDbText
 10
64.096853
 20
-52.331212
 30
0.0
 40
0.052739
  1
         2
  7
Style-Arial
 72
     1
 11
64.207455
 21
-52.304843
 31
0.0
100
AcDbText
 73
     2
  0
TEXT
  5
353
330
3F1
100
AcDbEntity
  8
DIM
  6
Continuous
 62
     7
370
    13
100
AcDbText
 10
63.600234
 20
-49.282223
 30
0.0
 40
0.052739
  1
O
  7
Style-Arial
 72
     1
 11
63.627246
 21
-49.255854
 31
0.0
100
AcDbText
 73
     2
  0
TEXT
  5
354
330
3F1
100
AcDbEntity
  8
DIM
  6
Continuous
 62
     7
370
    13
100
AcDbText
 10
63.664241
 20
-49.297171
 30
0.0
 40
0.052739
  1
2
  7
Style-Arial
 72
     1
 11
63.682772
 21
-49.270802
 31
0.0
100
AcDbText
 73
     2
  0
TEXT
  5
362
330
3F1
100
AcDbEntity
  8
HATCH
  6
Continuous
 62
     7
370
    13
100
AcDbText
 10
56.763214
 20
-54.765182
 30
0.0
 40
0.052739
  1
AND DESIGNING TRAFFIC BARRIERS"
  7
Style-Arial
 72
     1
 11
57.433782
 21
-54.738813
 31
0.0
100
AcDbText
 73
     2
  0
TEXT
  5
363
330
3F1
100
AcDbEntity
  8
HATCH
  6
Continuous
 62
     7
370
    13
100
AcDbText
 10
56.759637
 20
-54.683796
 30
0.0
 40
0.052739
  1
SEE AASHTO "GUIDE FOR SELECTING, LOCATING
  7
Style-Arial
 72
     1
 11
57.648716
 21
-54.657427
 31
0.0
100
AcDbText
 73
     2
  0
TEXT
  5
364
330
3F1
100
AcDbEntity
  8
LEGEND
  6
Continuous
 62
     7
370
    13
100
AcDbText
 10
61.11376
 20
-53.029682
 30
0.0
 40
0.052739
  1
W = TOTAL LATERAL TRANSITION OF GUARD RAIL =
  7
Style-Arial
 72
     1
 11
62.043177
 21
-53.003312
 31
0.0
100
AcDbText
 73
     2
  0
TEXT
  5
366
330
3F1
100
AcDbEntity
  8
LEGEND
  6
Continuous
 62
     7
370
    13
100
AcDbText
 10
61.898436
 20
-53.132429
 30
0.0
 40
0.052739
  1
      1   
  7
Style-Arial
 72
     1
 11
61.973524
 21
-53.10606
 31
0.0
100
AcDbText
 73
     2
  0
TEXT
  5
367
330
3F1
100
AcDbEntity
  8
LEGEND
  6
Continuous
 62
     7
370
    13
100
AcDbText
 10
61.98895
 20
-53.129313
 30
0.0
 40
0.052739
  1
          2
  7
Style-Arial
 72
     1
 11
62.109782
 21
-53.102944
 31
0.0
100
AcDbText
 73
     2
  0
TEXT
  5
36A
330
3F1
100
AcDbEntity
  8
LEGEND
  6
Continuous
 62
     7
370
    13
100
AcDbText
 10
61.125956
 20
-53.553851
 30
0.0
 40
0.052739
  1
 2
  7
Style-Arial
 72
     1
 11
61.154717
 21
-53.527481
 31
0.0
100
AcDbText
 73
     2
  0
TEXT
  5
36D
330
3F1
100
AcDbEntity
  8
LEGEND
  6
Continuous
 62
     7
370
    13
100
AcDbText
 10
61.121404
 20
-53.320671
 30
0.0
 40
0.052739
  1
 1
  7
Style-Arial
 72
     1
 11
61.145341
 21
-53.294302
 31
0.0
100
AcDbText
 73
     2
  0
TEXT
  5
36F
330
3F1
100
AcDbEntity
  8
LEGEND
  6
Continuous
 62
     7
370
    13
100
AcDbText
 10
61.267321
 20
-53.859942
 30
0.0
 40
0.052739
  1
OF 6'-3" FROM FIRST GUARD RAIL POST
  7
Style-Arial
 72
     1
 11
61.982689
 21
-53.833573
 31
0.0
100
AcDbText
 73
     2
  0
TEXT
  5
370
330
3F1
100
AcDbEntity
  8
LEGEND
  6
Continuous
 62
     7
370
    13
100
AcDbText
 10
61.26536
 20
-53.940901
 30
0.0
 40
0.052739
  1
MESURED ALONG FACE OF GUARD RAIL
  7
Style-Arial
 72
     1
 11
61.992887
 21
-53.914531
 31
0.0
100
AcDbText
 73
     2
  0
TEXT
  5
371
330
3F1
100
AcDbEntity
  8
LEGEND
  6
Continuous
 62
     7
370
    13
100
AcDbText
 10
61.134132
 20
-54.102817
 30
0.0
 40
0.052739
  1
Y = LATERAL OFFSET FROM FACEOF GUARD 
  7
Style-Arial
 72
     1
 11
61.939802
 21
-54.076448
 31
0.0
100
AcDbText
 73
     2
  0
TEXT
  5
372
330
3F1
100
AcDbEntity
  8
LEGEND
  6
Continuous
 62
     7
370
    13
100
AcDbText
 10
61.265077
 20
-54.183776
 30
0.0
 40
0.052739
  1
RAIL AT POST NEAREST TO PAVEMENT
  7
Style-Arial
 72
     1
 11
61.972747
 21
-54.157406
 31
0.0
100
AcDbText
 73
     2
  0
TEXT
  5
373
330
3F1
100
AcDbEntity
  8
LEGEND
  6
Continuous
 62
     7
370
    13
100
AcDbText
 10
61.264992
 20
-54.264744
 30
0.0
 40
0.052739
  1
EDGE TO FACE OF GUARD RAIL AT EACH
  7
Style-Arial
 72
     1
 11
62.003131
 21
-54.238375
 31
0.0
100
AcDbText
 73
     2
  0
TEXT
  5
374
330
3F1
100
AcDbEntity
  8
LEGEND
  6
Continuous
 62
     7
370
    13
100
AcDbText
 10
61.26759
 20
-54.348713
 30
0.0
 40
0.052739
  1
SUCCESSIVE POST
  7
Style-Arial
 72
     1
 11
61.614953
 21
-54.322344
 31
0.0
100
AcDbText
 73
     2
  0
TEXT
  5
375
330
3F1
100
AcDbEntity
  8
LEGEND
  6
Continuous
 62
     7
370
    13
100
AcDbText
 10
61.142348
 20
-54.507619
 30
0.0
 40
0.052739
  1
L = TOTAL LENGTH OF TRANSITI0N PORTION
  7
Style-Arial
 72
     1
 11
61.944883
 21
-54.48125
 31
0.0
100
AcDbText
 73
     2
  0
TEXT
  5
376
330
3F1
100
AcDbEntity
  8
LEGEND
  6
Continuous
 62
     7
370
    13
100
AcDbText
 10
61.267247
 20
-54.588578
 30
0.0
 40
0.052739
  1
OF GUARD RAIL
  7
Style-Arial
 72
     1
 11
61.552546
 21
-54.562208
 31
0.0
100
AcDbText
 73
     2
  0
TEXT
  5
377
330
3F1
100
AcDbEntity
  8
LEGEND
  6
Continuous
 62
     7
370
    13
100
AcDbText
 10
60.997239
 20
-53.799009
 30
0.0
 40
0.052739
  1
1
  7
Style-Arial
 72
     1
 11
61.010946
 21
-53.772639
 31
0.0
100
AcDbText
 73
     2
  0
TEXT
  5
378
330
3F1
100
AcDbEntity
  8
LEGEND
  6
Continuous
 62
     7
370
    13
100
AcDbText
 10
61.131537
 20
-53.800137
 30
0.0
 40
0.052739
  1
N
  7
Style-Arial
 72
     1
 11
61.155132
 21
-53.773767
 31
0.0
100
AcDbText
 73
     2
  0
TEXT
  5
379
330
3F1
100
AcDbEntity
  8
TEXT
  6
Continuous
 62
     7
370
    13
100
AcDbText
 10
63.361732
 20
-50.89146
 30
0.0
 40
0.052739
  1
DIRECTION OF TRAFFIC
 50
90.0
  7
Style-Arial
 72
     1
 11
63.335363
 21
-50.46308
 31
0.0
100
AcDbText
 73
     2
  0
TEXT
  5
37A
330
3F1
100
AcDbEntity
  8
TEXT
  6
Continuous
 62
     7
370
    13
100
AcDbText
 10
63.361732
 20
-52.167136
 30
0.0
 40
0.052739
  1
EDGE OF PAVEMENT
 50
90.0
  7
Style-Arial
 72
     1
 11
63.335363
 21
-51.789102
 31
0.0
100
AcDbText
 73
     2
  0
TEXT
  5
380
330
3F1
100
AcDbEntity
  8
_0
  6
Continuous
 62
     7
370
    13
100
AcDbText
 10
56.318451
 20
-51.696836
 30
0.0
 40
0.052739
  1
125 00'
  7
Style-Arial
 72
     1
 11
56.436389
 21
-51.670466
 31
0.0
100
AcDbText
 73
     2
  0
TEXT
  5
381
330
3F1
100
AcDbEntity
  8
HATCH
  6
Continuous
 62
     7
370
    13
100
AcDbText
 10
56.245633
 20
-54.602411
 30
0.0
 40
0.052739
  1
REFERENCE:  FOR MORE INFORMATION ON GUARD RAILS
  7
Style-Arial
 72
     1
 11
57.293873
 21
-54.576042
 31
0.0
100
AcDbText
 73
     2
  0
TEXT
  5
365
330
3F1
100
AcDbEntity
  8
LEGEND
  6
Continuous
 62
     7
370
    13
100
AcDbText
 10
61.858027
 20
-53.11064
 30
0.0
 40
0.052739
  1
     O   - O
  7
Style-Arial
 72
     1
 11
62.018031
 21
-53.084271
 31
0.0
100
AcDbText
 73
     2
  0
TEXT
  5
368
330
3F1
100
AcDbEntity
  8
LEGEND
  6
Continuous
 62
     7
370
    13
100
AcDbText
 10
61.085026
 20
-53.296994
 30
0.0
 40
0.052739
  1
O   = OFFSET FROM EDGE OF PAVEMENT TO FACE
  7
Style-Arial
 72
     1
 11
61.997118
 21
-53.270625
 31
0.0
100
AcDbText
 73
     2
  0
TEXT
  5
36E
330
3F1
100
AcDbEntity
  8
LEGEND
  6
Continuous
 62
     7
370
    13
100
AcDbText
 10
60.941748
 20
-53.778984
 30
0.0
 40
0.052739
  1
X    X    = CUMULATIVE DISTANCE IN INCREMENTS
  7
Style-Arial
 72
     1
 11
61.8375
 21
-53.752615
 31
0.0
100
AcDbText
 73
     2
  0
TEXT
  5
3D3
330
3F1
100
AcDbEntity
  8
LEGEND
  6
Continuous
 62
     7
370
    13
100
AcDbText
 10
61.085026
 20
-53.296994
 30
0.0
 40
0.052739
  1
O   = OFFSET FROM EDGE OF PAVEMENT TO FACE
  7
Style-Arial
 72
     1
 11
61.997118
 21
-53.270625
 31
0.0
100
AcDbText
 73
     2
  0
TEXT
  5
3D4
330
3F1
100
AcDbEntity
  8
LEGEND
  6
Continuous
 62
     7
370
    13
100
AcDbText
 10
61.16482
 20
-53.377953
 30
0.0
 40
0.052739
  1
     OF GUARD RAIL MAXIMUM
  7
Style-Arial
 72
     1
 11
61.688106
 21
-53.351583
 31
0.0
100
AcDbText
 73
     2
  0
TEXT
  5
3D6
330
3F1
100
AcDbEntity
  8
LEGEND
  6
Continuous
 62
     7
370
    13
100
AcDbText
 10
61.164792
 20
-53.620828
 30
0.0
 40
0.052739
  1
     OF GUARD RAIL MINIMUM
  7
Style-Arial
 72
     1
 11
61.675758
 21
-53.594458
 31
0.0
100
AcDbText
 73
     2
  0
TEXT
  5
3DA
330
3F1
100
AcDbEntity
  8
LEGEND
  6
Continuous
 62
     7
370
    13
100
AcDbText
 10
61.08507
 20
-53.536567
 30
0.0
 40
0.052739
  1
O   = OFFSET FROM EDGE OF PAVEMENT TO FACE
  7
Style-Arial
 72
     1
 11
61.997162
 21
-53.510198
 31
0.0
100
AcDbText
 73
     2
  0
TEXT
  5
64
330
3F1
100
AcDbEntity
  8
TITLE
  6
Continuous
 62
     7
370
    13
100
AcDbText
 10
57.296187
 20
-55.471313
 30
0.0
 40
0.105477
  1
TYPICAL WITH BEAM GUARD RAIL INSTALLATION CRITERIA
  7
Style-Arial
 72
     1
 11
59.421327
 21
-55.418575
 31
0.0
100
AcDbText
 73
     2
  0
TEXT
  5
66
330
3F1
100
AcDbEntity
  8
2-30K
  6
Continuous
 62
     7
370
    13
100
AcDbText
 10
63.180053
 20
-55.46161
 30
0.0
 40
0.079108
  1
DATE
  7
Style-Arial
 72
     1
 11
63.324522
 21
-55.422056
 31
0.0
100
AcDbText
 73
     2
  0
TEXT
  5
67
330
3F1
100
AcDbEntity
  8
2-30K
  6
Continuous
 62
     7
370
    13
100
AcDbText
 10
64.21953
 20
-55.456428
 30
0.0
 40
0.079108
  1
FIGURE
  7
Style-Arial
 72
     1
 11
64.42538
 21
-55.416874
 31
0.0
100
AcDbText
 73
     2
  0
TEXT
  5
65
330
3F1
100
AcDbEntity
  8
2-30K
  6
Continuous
 62
     7
370
    13
100
AcDbText
 10
64.285924
 20
-55.595479
 30
0.0
 40
0.079108
  1
2-30p
  7
Style-Arial
 72
     1
 11
64.424996
 21
-55.555925
 31
0.0
100
AcDbText
 73
     2
  0
TEXT
  5
289
330
3F1
100
AcDbEntity
  8
_0
  6
Continuous
 62
     7
370
    13
100
AcDbText
 10
58.171688
 20
-49.341015
 30
0.0
 40
0.079108
  1
OFFSETS (Y) FOR INTRODUCED GUARD RAIL TRANSIT
  7
Style-Arial
 72
     1
 11
59.635244
 21
-49.301461
 31
0.0
100
AcDbText
 73
     2
  0
TEXT
  5
288
330
3F1
100
AcDbEntity
  8
_0
  6
Continuous
 62
     7
370
    13
100
AcDbText
 10
59.356859
 20
-49.209976
 30
0.0
 40
0.079108
  1
TABLE III
  7
Style-Arial
 72
     1
 11
59.588394
 21
-49.170423
 31
0.0
100
AcDbText
 73
     2
  0
ENDSEC
  0
SECTION
  2
OBJECTS
  0
DICTIONARY
  5
3E5
330
0
100
AcDbDictionary
281
     1
  3
ACAD_COLOR
350
404
  3
ACAD_GROUP
350
401
  3
ACAD_LAYOUT
350
3F5
  3
ACAD_MATERIAL
350
403
  3
ACAD_MLINESTYLE
350
3EF
  3
ACAD_PLOTSETTINGS
350
402
  3
ACAD_PLOTSTYLENAME
350
3E4
  3
ACAD_TABLESTYLE
350
418
  3
AcadDim
350
411
  3
MicroStation
350
409
  0
DICTIONARY
  5
3E1
330
3E0
100
AcDbDictionary
280
     1
281
     1
  3
ACAD_LAYERFILTERS
360
408
  3
ACAD_LAYERSTATES
360
3E2
  0
DICTIONARY
  5
414
330
3F1
100
AcDbDictionary
280
     1
281
     1
  3
ACAD_SORTENTS
360
415
  0
DICTIONARY
  5
404
102
{ACAD_REACTORS
330
3E5
102
}
330
3E5
100
AcDbDictionary
281
     1
  0
DICTIONARY
  5
401
102
{ACAD_REACTORS
330
3E5
102
}
330
3E5
100
AcDbDictionary
281
     1
  0
DICTIONARY
  5
3F5
102
{ACAD_REACTORS
330
3E5
102
}
330
3E5
100
AcDbDictionary
281
     1
  3
Layout1
350
3F9
  3
Model
350
3F4
  0
DICTIONARY
  5
403
102
{ACAD_REACTORS
330
3E5
102
}
330
3E5
100
AcDbDictionary
281
     1
  0
DICTIONARY
  5
3EF
102
{ACAD_REACTORS
330
3E5
102
}
330
3E5
100
AcDbDictionary
281
     1
  3
Standard
350
3EE
  0
DICTIONARY
  5
402
102
{ACAD_REACTORS
330
3E5
102
}
330
3E5
100
AcDbDictionary
281
     1
  0
ACDBDICTIONARYWDFLT
  5
3E4
102
{ACAD_REACTORS
330
3E5
102
}
330
3E5
100
AcDbDictionary
281
     1
  3
Normal
350
3E3
100
AcDbDictionaryWithDefault
340
3E3
  0
DICTIONARY
  5
418
102
{ACAD_REACTORS
330
3E5
102
}
330
3E5
100
AcDbDictionary
281
     1
  0
XRECORD
  5
411
102
{ACAD_REACTORS
330
3E5
102
}
330
3E5
100
AcDbXrecord
280
     1
 90
   990106
  3
 
 60
     0
 61
     0
 62
     1
 63
     1
 64
     0
 65
     0
 66
     0
 67
     3
 68
     1
 69
     1
 70
     0
 71
     0
 72
     0
 40
0.0
170
     0
  0
DICTIONARY
  5
409
102
{ACAD_REACTORS
330
3E5
102
}
330
3E5
100
AcDbDictionary
281
     1
  3
ApplicationElement 972
350
3CC
  3
ApplicationElement 988
350
3DC
  3
ApplicationElement 989
350
3DD
  3
ModelApplicationElement 0 971
350
3CB
  0
DICTIONARY
  5
408
102
{ACAD_REACTORS
330
3E1
102
}
330
3E1
100
AcDbDictionary
281
     1
  0
DICTIONARY
  5
3E2
102
{ACAD_REACTORS
330
3E1
102
}
330
3E1
100
AcDbDictionary
281
     1
  0
SORTENTSTABLE
  5
415
102
{ACAD_REACTORS
330
414
102
}
330
414
100
AcDbSortentsTable
330
3F1
331
64
  5
380
331
65
  5
3D4
331
66
  5
381
331
67
  5
3D3
331
68
  5
64
331
69
  5
65
331
6A
  5
66
331
6B
  5
67
331
6C
  5
68
331
6D
  5
69
331
6E
  5
6A
331
6F
  5
6B
331
70
  5
6C
331
71
  5
6D
331
72
  5
6E
331
73
  5
6F
331
74
  5
70
331
75
  5
71
331
76
  5
72
331
77
  5
73
331
78
  5
74
331
79
  5
75
331
7A
  5
76
331
7B
  5
77
331
7C
  5
78
331
7D
  5
79
331
7E
  5
7A
331
7F
  5
7B
331
80
  5
7C
331
81
  5
7D
331
82
  5
7E
331
83
  5
7F
331
84
  5
80
331
85
  5
81
331
86
  5
82
331
87
  5
83
331
88
  5
84
331
89
  5
85
331
8A
  5
86
331
8B
  5
87
331
8C
  5
88
331
8D
  5
89
331
8E
  5
8A
331
8F
  5
8B
331
90
  5
8C
331
91
  5
8D
331
92
  5
8E
331
93
  5
8F
331
94
  5
90
331
95
  5
91
331
96
  5
92
331
97
  5
93
331
98
  5
94
331
99
  5
95
331
9A
  5
96
331
9B
  5
97
331
9C
  5
98
331
9D
  5
99
331
9E
  5
9A
331
9F
  5
9B
331
A0
  5
9C
331
A1
  5
9D
331
A2
  5
FE
331
A3
  5
FF
331
A4
  5
100
331
A5
  5
101
331
A6
  5
102
331
A7
  5
103
331
A8
  5
104
331
A9
  5
105
331
AA
  5
106
331
AB
  5
107
331
AC
  5
108
331
AD
  5
109
331
AE
  5
10A
331
AF
  5
10B
331
B0
  5
10C
331
B1
  5
10D
331
B2
  5
10E
331
B3
  5
10F
331
B4
  5
110
331
B5
  5
111
331
B6
  5
112
331
B7
  5
113
331
B8
  5
114
331
B9
  5
115
331
BA
  5
116
331
BB
  5
117
331
BC
  5
118
331
BD
  5
119
331
BE
  5
11A
331
BF
  5
11B
331
C0
  5
11C
331
C1
  5
11D
331
C2
  5
11E
331
C3
  5
11F
331
C4
  5
120
331
C5
  5
121
331
C6
  5
122
331
C7
  5
123
331
C8
  5
124
331
C9
  5
125
331
CA
  5
126
331
CB
  5
127
331
CC
  5
128
331
CD
  5
129
331
CE
  5
12A
331
CF
  5
12B
331
D0
  5
12C
331
D1
  5
12D
331
D2
  5
12E
331
D3
  5
12F
331
D4
  5
130
331
D5
  5
131
331
D6
  5
132
331
D7
  5
133
331
D8
  5
134
331
D9
  5
135
331
DA
  5
136
331
DB
  5
137
331
DC
  5
138
331
DD
  5
139
331
DE
  5
13A
331
DF
  5
13B
331
E0
  5
13C
331
E1
  5
13D
331
E2
  5
13E
331
E3
  5
13F
331
E4
  5
140
331
E5
  5
141
331
E6
  5
142
331
E7
  5
143
331
E8
  5
144
331
E9
  5
145
331
EA
  5
146
331
EB
  5
147
331
EC
  5
148
331
ED
  5
149
331
EE
  5
14A
331
EF
  5
14B
331
F0
  5
14C
331
F1
  5
14D
331
F2
  5
14E
331
F3
  5
14F
331
F4
  5
150
331
F5
  5
151
331
F6
  5
152
331
F7
  5
153
331
F8
  5
154
331
F9
  5
155
331
FA
  5
156
331
FB
  5
157
331
FC
  5
158
331
FD
  5
159
331
FE
  5
15A
331
FF
  5
15B
331
100
  5
15C
331
101
  5
15D
331
102
  5
15E
331
103
  5
15F
331
104
  5
160
331
105
  5
161
331
106
  5
162
331
107
  5
163
331
108
  5
164
331
109
  5
165
331
10A
  5
166
331
10B
  5
167
331
10C
  5
168
331
10D
  5
169
331
10E
  5
16A
331
10F
  5
16B
331
110
  5
16C
331
111
  5
16D
331
112
  5
16E
331
113
  5
16F
331
114
  5
170
331
115
  5
171
331
116
  5
172
331
117
  5
173
331
118
  5
174
331
119
  5
175
331
11A
  5
176
331
11B
  5
177
331
11C
  5
178
331
11D
  5
179
331
11E
  5
17A
331
11F
  5
17B
331
120
  5
17C
331
121
  5
17D
331
122
  5
17E
331
123
  5
17F
331
124
  5
180
331
125
  5
181
331
126
  5
182
331
127
  5
183
331
128
  5
184
331
129
  5
185
331
12A
  5
186
331
12B
  5
187
331
12C
  5
188
331
12D
  5
189
331
12E
  5
18A
331
12F
  5
18B
331
130
  5
18C
331
131
  5
18D
331
132
  5
18E
331
133
  5
18F
331
134
  5
190
331
135
  5
191
331
136
  5
192
331
137
  5
193
331
138
  5
194
331
139
  5
195
331
13A
  5
196
331
13B
  5
197
331
13C
  5
198
331
13D
  5
199
331
13E
  5
19A
331
13F
  5
19B
331
140
  5
19C
331
141
  5
19D
331
142
  5
19E
331
143
  5
19F
331
144
  5
1A0
331
145
  5
1A1
331
146
  5
1A2
331
147
  5
1A3
331
148
  5
1A4
331
149
  5
1A5
331
14A
  5
1A6
331
14B
  5
1A7
331
14C
  5
1A8
331
14D
  5
1A9
331
14E
  5
1AA
331
14F
  5
1AB
331
150
  5
1AC
331
151
  5
1AD
331
152
  5
1AE
331
153
  5
1AF
331
154
  5
1B0
331
155
  5
1B1
331
156
  5
1B2
331
157
  5
1B3
331
158
  5
1B4
331
159
  5
1B5
331
15A
  5
1B6
331
15B
  5
1B7
331
15C
  5
1B8
331
15D
  5
1B9
331
15E
  5
1BA
331
15F
  5
1BB
331
160
  5
1BC
331
161
  5
1BD
331
162
  5
1BE
331
163
  5
1BF
331
164
  5
1C0
331
165
  5
1C1
331
166
  5
1C2
331
167
  5
1C3
331
168
  5
1C4
331
169
  5
1C5
331
16A
  5
1C6
331
16B
  5
1C7
331
16C
  5
1C8
331
16D
  5
1C9
331
16E
  5
1CA
331
16F
  5
1CB
331
170
  5
1CC
331
171
  5
1CD
331
172
  5
1CE
331
173
  5
1CF
331
174
  5
1D0
331
175
  5
1D1
331
176
  5
1D2
331
177
  5
1D3
331
178
  5
1D4
331
179
  5
1D5
331
17A
  5
1D6
331
17B
  5
1D7
331
17C
  5
1D8
331
17D
  5
1D9
331
17E
  5
1DA
331
17F
  5
1DB
331
180
  5
1DC
331
181
  5
1DD
331
182
  5
1DE
331
183
  5
1DF
331
184
  5
1E0
331
185
  5
1E1
331
186
  5
1E2
331
187
  5
1E3
331
188
  5
1E4
331
189
  5
1E5
331
18A
  5
1E6
331
18B
  5
1E7
331
18C
  5
1E8
331
18D
  5
1E9
331
18E
  5
1EA
331
18F
  5
1EB
331
190
  5
1EC
331
191
  5
1ED
331
192
  5
1EE
331
193
  5
1EF
331
194
  5
1F0
331
195
  5
1F1
331
196
  5
1F2
331
197
  5
1F3
331
198
  5
1F4
331
199
  5
1F5
331
19A
  5
1F6
331
19B
  5
1F7
331
19C
  5
1F8
331
19D
  5
1F9
331
19E
  5
1FA
331
19F
  5
1FB
331
1A0
  5
1FC
331
1A1
  5
1FD
331
1A2
  5
1FE
331
1A3
  5
1FF
331
1A4
  5
200
331
1A5
  5
201
331
1A6
  5
202
331
1A7
  5
203
331
1A8
  5
204
331
1A9
  5
205
331
1AA
  5
206
331
1AB
  5
207
331
1AC
  5
208
331
1AD
  5
209
331
1AE
  5
20A
331
1AF
  5
20B
331
1B0
  5
20C
331
1B1
  5
20D
331
1B2
  5
20E
331
1B3
  5
20F
331
1B4
  5
210
331
1B5
  5
211
331
1B6
  5
212
331
1B7
  5
213
331
1B8
  5
214
331
1B9
  5
215
331
1BA
  5
216
331
1BB
  5
217
331
1BC
  5
218
331
1BD
  5
219
331
1BE
  5
21A
331
1BF
  5
21B
331
1C0
  5
21C
331
1C1
  5
21D
331
1C2
  5
21E
331
1C3
  5
21F
331
1C4
  5
220
331
1C5
  5
221
331
1C6
  5
222
331
1C7
  5
223
331
1C8
  5
224
331
1C9
  5
225
331
1CA
  5
226
331
1CB
  5
227
331
1CC
  5
228
331
1CD
  5
229
331
1CE
  5
22A
331
1CF
  5
22B
331
1D0
  5
22C
331
1D1
  5
22D
331
1D2
  5
22E
331
1D3
  5
22F
331
1D4
  5
230
331
1D5
  5
231
331
1D6
  5
232
331
1D7
  5
233
331
1D8
  5
234
331
1D9
  5
235
331
1DA
  5
236
331
1DB
  5
237
331
1DC
  5
238
331
1DD
  5
239
331
1DE
  5
23A
331
1DF
  5
23B
331
1E0
  5
23C
331
1E1
  5
23D
331
1E2
  5
23E
331
1E3
  5
23F
331
1E4
  5
240
331
1E5
  5
241
331
1E6
  5
242
331
1E7
  5
243
331
1E8
  5
244
331
1E9
  5
245
331
1EA
  5
246
331
1EB
  5
247
331
1EC
  5
248
331
1ED
  5
249
331
1EE
  5
24A
331
1EF
  5
24B
331
1F0
  5
24C
331
1F1
  5
24D
331
1F2
  5
24E
331
1F3
  5
24F
331
1F4
  5
250
331
1F5
  5
251
331
1F6
  5
252
331
1F7
  5
253
331
1F8
  5
254
331
1F9
  5
255
331
1FA
  5
256
331
1FB
  5
257
331
1FC
  5
258
331
1FD
  5
259
331
1FE
  5
25A
331
1FF
  5
25B
331
200
  5
25C
331
201
  5
25D
331
202
  5
25E
331
203
  5
25F
331
204
  5
260
331
205
  5
261
331
206
  5
262
331
207
  5
263
331
208
  5
264
331
209
  5
265
331
20A
  5
266
331
20B
  5
267
331
20C
  5
268
331
20D
  5
269
331
20E
  5
26A
331
20F
  5
26B
331
210
  5
26C
331
211
  5
26D
331
212
  5
26E
331
213
  5
26F
331
214
  5
270
331
215
  5
271
331
216
  5
272
331
217
  5
273
331
218
  5
274
331
219
  5
275
331
21A
  5
276
331
21B
  5
277
331
21C
  5
278
331
21D
  5
279
331
21E
  5
27A
331
21F
  5
27B
331
220
  5
27C
331
221
  5
27D
331
222
  5
27E
331
223
  5
27F
331
224
  5
280
331
225
  5
281
331
226
  5
282
331
227
  5
283
331
228
  5
284
331
229
  5
285
331
22A
  5
286
331
22B
  5
287
331
22C
  5
288
331
22D
  5
289
331
22E
  5
28A
331
22F
  5
28B
331
230
  5
28C
331
231
  5
28D
331
232
  5
28E
331
233
  5
28F
331
234
  5
290
331
235
  5
291
331
236
  5
292
331
237
  5
293
331
238
  5
294
331
239
  5
29F
331
23A
  5
2A0
331
23B
  5
2A1
331
23C
  5
2A2
331
23D
  5
2A3
331
23E
  5
2A4
331
23F
  5
2A5
331
240
  5
2A6
331
241
  5
2A7
331
242
  5
2A8
331
243
  5
2A9
331
244
  5
2AA
331
245
  5
2AB
331
246
  5
2AC
331
247
  5
2AD
331
248
  5
2AE
331
249
  5
2AF
331
24A
  5
2B0
331
24B
  5
2B1
331
24C
  5
2B2
331
24D
  5
2B3
331
24E
  5
2B4
331
24F
  5
2B5
331
250
  5
2B6
331
251
  5
2B7
331
252
  5
2B8
331
253
  5
2B9
331
254
  5
2BA
331
255
  5
2BB
331
256
  5
2BC
331
257
  5
2BD
331
258
  5
2BE
331
259
  5
2BF
331
25A
  5
2C0
331
25B
  5
2C1
331
25C
  5
2C2
331
25D
  5
2C3
331
25E
  5
2C4
331
25F
  5
2C5
331
260
  5
2C6
331
261
  5
2C7
331
262
  5
2C8
331
263
  5
2C9
331
264
  5
2CA
331
265
  5
2CB
331
266
  5
2CC
331
267
  5
2CD
331
268
  5
2CE
331
269
  5
2CF
331
26A
  5
2D0
331
26B
  5
2D1
331
26C
  5
2D2
331
26D
  5
2D3
331
26E
  5
2D4
331
26F
  5
2D5
331
270
  5
2D6
331
271
  5
2D7
331
272
  5
2D8
331
273
  5
2DB
331
274
  5
2DC
331
275
  5
2DD
331
276
  5
2E3
331
277
  5
2F2
331
278
  5
2F9
331
279
  5
30F
331
27A
  5
313
331
27B
  5
31C
331
27C
  5
31F
331
27D
  5
325
331
27E
  5
328
331
27F
  5
32D
331
280
  5
32E
331
281
  5
331
331
282
  5
332
331
283
  5
333
331
284
  5
334
331
285
  5
335
331
286
  5
336
331
287
  5
337
331
288
  5
3DA
331
289
  5
3D6
331
28A
  5
338
331
28B
  5
339
331
28C
  5
33A
331
28D
  5
33B
331
28E
  5
9E
331
28F
  5
9F
331
290
  5
A0
331
291
  5
A1
331
292
  5
A2
331
293
  5
A3
331
294
  5
A4
331
29F
  5
A5
331
2A0
  5
A6
331
2A1
  5
A7
331
2A2
  5
33C
331
2A3
  5
A8
331
2A4
  5
A9
331
2A5
  5
AA
331
2A6
  5
AB
331
2A7
  5
33D
331
2A8
  5
AC
331
2A9
  5
AD
331
2AA
  5
AE
331
2AB
  5
AF
331
2AC
  5
33E
331
2AD
  5
B0
331
2AE
  5
B1
331
2AF
  5
B2
331
2B0
  5
B3
331
2B1
  5
33F
331
2B2
  5
B4
331
2B3
  5
B5
331
2B4
  5
B6
331
2B5
  5
B7
331
2B6
  5
B8
331
2B7
  5
340
331
2B8
  5
B9
331
2B9
  5
BA
331
2BA
  5
BB
331
2BB
  5
BC
331
2BC
  5
341
331
2BD
  5
BD
331
2BE
  5
BE
331
2BF
  5
BF
331
2C0
  5
342
331
2C1
  5
C0
331
2C2
  5
C1
331
2C3
  5
C2
331
2C4
  5
C3
331
2C5
  5
C4
331
2C6
  5
343
331
2C7
  5
344
331
2C8
  5
345
331
2C9
  5
346
331
2CA
  5
347
331
2CB
  5
348
331
2CC
  5
349
331
2CD
  5
34A
331
2CE
  5
34B
331
2CF
  5
34C
331
2D0
  5
34D
331
2D1
  5
34E
331
2D2
  5
34F
331
2D3
  5
350
331
2D4
  5
351
331
2D5
  5
352
331
2D6
  5
353
331
2D7
  5
C5
331
2D8
  5
C6
331
2DB
  5
C7
331
2DC
  5
C8
331
2DD
  5
C9
331
2E3
  5
CA
331
2F2
  5
CB
331
2F9
  5
CC
331
30F
  5
CD
331
313
  5
CE
331
31C
  5
CF
331
31F
  5
D0
331
325
  5
D1
331
328
  5
D2
331
32D
  5
D3
331
32E
  5
D4
331
331
  5
D5
331
332
  5
D6
331
333
  5
D7
331
334
  5
D8
331
335
  5
D9
331
336
  5
DA
331
337
  5
DB
331
338
  5
DC
331
339
  5
DD
331
33A
  5
DE
331
33B
  5
DF
331
33C
  5
E0
331
33D
  5
E1
331
33E
  5
E2
331
33F
  5
E3
331
340
  5
E4
331
341
  5
E5
331
342
  5
E6
331
343
  5
E7
331
344
  5
E8
331
345
  5
E9
331
346
  5
EA
331
347
  5
354
331
348
  5
355
331
349
  5
356
331
34A
  5
357
331
34B
  5
358
331
34C
  5
359
331
34D
  5
35A
331
34E
  5
35B
331
34F
  5
35C
331
350
  5
35D
331
351
  5
35E
331
352
  5
EB
331
353
  5
35F
331
354
  5
360
331
355
  5
EC
331
356
  5
ED
331
357
  5
EE
331
358
  5
EF
331
359
  5
F0
331
35A
  5
F1
331
35B
  5
F2
331
35C
  5
F3
331
35D
  5
F4
331
35E
  5
F5
331
35F
  5
F6
331
360
  5
F7
331
361
  5
F8
331
362
  5
361
331
363
  5
362
331
364
  5
363
331
365
  5
379
331
366
  5
364
331
367
  5
365
331
368
  5
37A
331
36A
  5
366
331
36D
  5
367
331
36E
  5
37B
331
36F
  5
368
331
370
  5
36A
331
371
  5
36D
331
372
  5
36E
331
373
  5
36F
331
374
  5
370
331
375
  5
371
331
376
  5
372
331
377
  5
373
331
378
  5
374
331
379
  5
375
331
37A
  5
376
331
37B
  5
F9
331
37C
  5
FA
331
37D
  5
FB
331
37E
  5
FC
331
37F
  5
FD
331
380
  5
377
331
381
  5
378
331
3D3
  5
37C
331
3D4
  5
37D
331
3D6
  5
37E
331
3DA
  5
37F
  0
LAYOUT
  5
3F9
102
{ACAD_REACTORS
330
3F5
330
3F5
102
}
102
{ACAD_XDICTIONARY
360
3FA
102
}
330
3F5
100
AcDbPlotSettings
  1

  2
none_device
  4
Letter_(8.50_x_11.00_Inches)
  6

 40
6.35
 41
6.35
 42
6.350006
 43
6.350006
 44
215.899994
 45
279.399994
 46
0.0
 47
0.0
 48
0.0
 49
0.0
140
0.0
141
0.0
142
1.0
143
1.0
 70
   688
 72
     0
 73
     1
 74
     5
  7

 75
    16
 76
     0
 77
     2
 78
   300
147
1.0
148
0.0
149
0.0
100
AcDbLayout
  1
Layout1
 70
     1
 71
     1
 10
-0.25
 20
-0.25
 11
10.75
 21
8.25
 12
0.0
 22
0.0
 32
0.0
 14
1.049744
 24
0.799667
 34
-0.001526
 15
9.450623
 25
7.200577
 35
0.0
146
0.0
 13
0.0
 23
0.0
 33
0.0
 16
1.0
 26
0.0
 36
0.0
 17
0.0
 27
1.0
 37
0.0
 76
     0
330
3F6
1001
ACAD_PSEXT
1000
None
1000
None
1000
Not applicable
1000
The layout will not be plotted unless a new plotter configuration name is selected.
1070
     0
  0
LAYOUT
  5
3F4
102
{ACAD_REACTORS
330
3F5
330
3F5
102
}
330
3F5
100
AcDbPlotSettings
  1

  2
none_device
  4
ANSI_A_(8.50_x_11.00_Inches)
  6

 40
6.35
 41
19.049999
 42
6.350006
 43
19.049988
 44
215.899994
 45
279.399994
 46
0.0
 47
0.0
 48
0.0
 49
0.0
140
0.0
141
0.0
142
1.0
143
2.584895
 70
 11952
 72
     0
 73
     1
 74
     0
  7

 75
     0
 76
     0
 77
     2
 78
   300
147
0.386863
148
0.0
149
0.0
100
AcDbLayout
  1
Model
 70
     1
 71
     0
 10
0.0
 20
0.0
 11
12.0
 21
9.0
 12
0.0
 22
0.0
 32
0.0
 14
0.0
 24
0.0
 34
0.0
 15
0.0
 25
0.0
 35
0.0
146
0.0
 13
0.0
 23
0.0
 33
0.0
 16
1.0
 26
0.0
 36
0.0
 17
0.0
 27
1.0
 37
0.0
 76
     0
330
3F1
331
49
  0
MLINESTYLE
  5
3EE
102
{ACAD_REACTORS
330
3EF
102
}
330
3EF
100
AcDbMlineStyle
  2
STANDARD
 70
     0
  3

 62
   256
 51
90.0
 52
90.0
 71
     2
 49
0.5
 62
   256
  6
BYLAYER
 49
-0.5
 62
   256
  6
BYLAYER
  0
ACDBPLACEHOLDER
  5
3E3
102
{ACAD_REACTORS
330
3E4
102
}
330
3E4
  0
XRECORD
  5
3CC
102
{ACAD_REACTORS
330
409
102
}
330
409
100
AcDbXrecord
280
     1
310
3E4F020000004D6F64656C6572000000000000000000000000000000000000000000000000000000000000000000000000000000000000000000000000000000000000000000000000000000000000000000000000000000000000000000000000000000000000000000000000000000000000000000000000000000000000
310
00000000000000000000000000000000000000000000000000000000000000000000000000000000000000000000000000000000000000000000000000000000000000000000000000000000000000000000000000000000000000000000000000000000000000000000000000000000000000000000000000000000000000
310
00
310
00000000000000000000000000000000000000000000000000000000000000000000000000000000000000000000000000000000000000000000000000000000000000000000000000000000000000000000000000000000000000000000000000000000000000000000000000000000000000000000000000000000000000
310
00000000000000000000000000000000000000000000000000000000000000000000000000000000000000000000000000000000000000000000000000000000000000000000000000000000000000000000000000000000000000000000000000000000000000000000000000000000000000000000000000000000000000
310
00
310
00000000000000000000000000000000000000000000000000000000000000000000000000000000000000000000000000000000000000000000000000000000000000000000000000000000000000000000000000000000000000000000000000000000000000000000000000000000000000000000000000000000000000
310
00000000000000000000000000000000000000000000000000000000000000000000000000000000000000000000000000000000000000000000000000000000000000000000000000000000000000000000000000000000000000000000000000000000000000000000000000000000000000000000000000000000000000
310
00
310
00000000000000000000000000000000000000000000000000000000000000000000000000000000000000000000000000000000000000000000000000000000000000000000000000000000000000000000000000000000000000000000000000000000000000000000000000000000000000000000000000000000000000
310
00000000000000000000000000000000000000000000000000000000000000000000000000000000000000000000000000000000000000000000000000000000000000000000000000000000000000000000000000000000000000000000000000000000000000000000000000000000000000000000000000000000000000
310
00
310
00000000000000000000000000000000000000000000000000000000000000000000000000000000000000000000000000000000000000000000000000000000000000000000000000000000000000000000000000000000000000000000000000000000000000000000000000000000000000000000000000000000000000
310
00000000000000000000000000000000000000000000000000000000000000000000000000000000000000000000000000000000000000000000000000000000000000000000000000000000000000000000000000000000000000000000000000000000000000000000000000000000000000000000000000000000000000
310
00
310
00000000000000000000000000000000000000000000000000000000000000000000000000000000000000000000000000000000000000000000000000000000000000000000000000000000000000000000000000000000000000000000000000000000000000000000000000000000000000000000000000000000000000
310
00000000000000000000000000000000000000000000000000000000000000000000000000000000000000000000000000000000000000000000000000000000000000000000000000000000000000000000000000000000000000000000000000000000000000000000000000000000000000000000000000000000000000
310
00
310
00000000000000000000000000000000000000000000000000000000000000000000000000000000000000000000000000000000000000000000000000000000000000000000000000000000000000000000000000000000000000000000000000000000000000000000000000000000000000000000000000000000000000
310
00000000000000000000000000000000000000000000000000000000000000000000000000000000000000000000000000000000000000000000000000000000000000000000000000000000000000000000000000000000000000000000000000000000000000000000000000000000000000000000000000000000000000
310
00
310
00000000000000000000000000000000000000000000000000000000000000000000000000000000000000000000000000000000000000000000000000000000000000000000000000000000000000000000000000000000000000000000000000000000000000000000000000000000000000000000000000000000000000
310
00000000000000000000000000000000000000000000000000000000000000000000000000000000000000000000000000000000000000000000000000000000000000000000000000000000000000000000000000000000000000000000000000000000000000000000000000000000000000000000000000000000000000
310
00
310
00000000000000000000000000000000000000000000000000000000000000000000000000000000000000000000000000000000000000000000000000000000000000000000000000000000000000000000000000000000000000000000000000000000000000000000000000000000000000000000000000000000000000
310
00000000000000000000000000000000000000000000000000000000000000000000000000000000000000000000000000000000000000000000000000000000000000000000000000000000000000000000000000000000000000000000000000000000000000000000000000000000000000000000000000000000000000
310
00
310
00000000000000000000000000000000000000000000000000000000000000000000000000000000000000000000000000000000000000000000000000000000000000000000000000000000000000000000000000000000000000000000000000000000000000000000000000000000000000000000000000000000000000
310
00000000000000000000000000000000000000000000000000000000000000000000000000000000000000000000000000000000000000000000000000000000000000000000000000000000000000000000000000000000000000000000000000000000000000000000000000000000000000000000000000000000000000
310
00
310
00000000000000000000000000000000000000000000000000000000000000000000000000000000000000000000000000000000000000000000000000000000000000000000000000000000000000000000000000000000000000000000000000000000000000000000000000000000000000000000000000000000000000
310
00000000000000000000000000000000000000000000000000000000000000000000000000000000000000000000000000000000000000000000000000000000000000000000000000000000000000000000000000000000000000000000000000000000000000000000000000000000000000000000000000000000000000
310
00
310
00000000000000000000000000000000000000000000000000000000000000000000000000000000000000000000000000000000000000000000000000000000000000000000000000000000000000000000000000000000000000000000000000000000000000000000000000000000000000000000000000000000000000
310
00000000000000000000000000000000000000000000000000000000000000000000000000000000000000000000000000000000000000000000000000000000000000000000000000000000000000000000000000000000000000000000000000000000000000000000000000000000000000000000000000000000000000
310
00
310
00000000000000000000000000000000000000000000000000000000000000000000000000000000000000000000000000000000000000000000000000000000000000000000000000000000000000000000000000000000000000000000000000000000000000000000000000000000000000000000000000000000000000
310
00000000000000000000000000000000000000000000000000000000000000000000000000000000000000000000000000000000000000000000000000000000000000000000000000000000000000000000000000000000000000000000000000000000000000000000000000000000000000000000000000000000000000
310
00
310
00000000000000000000000000000000000000000000000000000000000000000000000000000000000000000000000000000000000000000000000000000000000000000000000000000000000000000000000000000000000000000000000000000000000000000000000000000000000000
  0
XRECORD
  5
3DC
102
{ACAD_REACTORS
330
409
102
}
330
409
100
AcDbXrecord
280
     1
310
3E4F020000004D6F64656C6572000000000000000000000000000000000000000000000000000000000000000000000000000000000000000000000000000000000000000000000000000000000000000000000000000000000000000000000000000000000000000000000000000000000000000000000000000000000000
310
00000000000000000000000000000000000000000000000000000000000000000000000000000000000000000000000000000000000000000000000000000000000000000000000000000000000000000000000000000000000000000000000000000000000000000000000000000000000000000000000000000000000000
310
00
310
00000000000000000000000000000000000000000000000000000000000000000000000000000000000000000000000000000000000000000000000000000000000000000000000000000000000000000000000000000000000000000000000000000000000000000000000000000000000000000000000000000000000000
310
00000000000000000000000000000000000000000000000000000000000000000000000000000000000000000000000000000000000000000000000000000000000000000000000000000000000000000000000000000000000000000000000000000000000000000000000000000000000000000000000000000000000000
310
00
310
00000000000000000000000000000000000000000000000000000000000000000000000000000000000000000000000000000000000000000000000000000000000000000000000000000000000000000000000000000000000000000000000000000000000000000000000000000000000000000000000000000000000000
310
00000000000000000000000000000000000000000000000000000000000000000000000000000000000000000000000000000000000000000000000000000000000000000000000000000000000000000000000000000000000000000000000000000000000000000000000000000000000000000000000000000000000000
310
00
310
00000000000000000000000000000000000000000000000000000000000000000000000000000000000000000000000000000000000000000000000000000000000000000000000000000000000000000000000000000000000000000000000000000000000000000000000000000000000000000000000000000000000000
310
00000000000000000000000000000000000000000000000000000000000000000000000000000000000000000000000000000000000000000000000000000000000000000000000000000000000000000000000000000000000000000000000000000000000000000000000000000000000000000000000000000000000000
310
00
310
00000000000000000000000000000000000000000000000000000000000000000000000000000000000000000000000000000000000000000000000000000000000000000000000000000000000000000000000000000000000000000000000000000000000000000000000000000000000000000000000000000000000000
310
00000000000000000000000000000000000000000000000000000000000000000000000000000000000000000000000000000000000000000000000000000000000000000000000000000000000000000000000000000000000000000000000000000000000000000000000000000000000000000000000000000000000000
310
00
310
00000000000000000000000000000000000000000000000000000000000000000000000000000000000000000000000000000000000000000000000000000000000000000000000000000000000000000000000000000000000000000000000000000000000000000000000000000000000000000000000000000000000000
310
00000000000000000000000000000000000000000000000000000000000000000000000000000000000000000000000000000000000000000000000000000000000000000000000000000000000000000000000000000000000000000000000000000000000000000000000000000000000000000000000000000000000000
310
00
310
00000000000000000000000000000000000000000000000000000000000000000000000000000000000000000000000000000000000000000000000000000000000000000000000000000000000000000000000000000000000000000000000000000000000000000000000000000000000000000000000000000000000000
310
00000000000000000000000000000000000000000000000000000000000000000000000000000000000000000000000000000000000000000000000000000000000000000000000000000000000000000000000000000000000000000000000000000000000000000000000000000000000000000000000000000000000000
310
00
310
00000000000000000000000000000000000000000000000000000000000000000000000000000000000000000000000000000000000000000000000000000000000000000000000000000000000000000000000000000000000000000000000000000000000000000000000000000000000000000000000000000000000000
310
00000000000000000000000000000000000000000000000000000000000000000000000000000000000000000000000000000000000000000000000000000000000000000000000000000000000000000000000000000000000000000000000000000000000000000000000000000000000000000000000000000000000000
310
00
310
00000000000000000000000000000000000000000000000000000000000000000000000000000000000000000000000000000000000000000000000000000000000000000000000000000000000000000000000000000000000000000000000000000000000000000000000000000000000000000000000000000000000000
310
00000000000000000000000000000000000000000000000000000000000000000000000000000000000000000000000000000000000000000000000000000000000000000000000000000000000000000000000000000000000000000000000000000000000000000000000000000000000000000000000000000000000000
310
00
310
00000000000000000000000000000000000000000000000000000000000000000000000000000000000000000000000000000000000000000000000000000000000000000000000000000000000000000000000000000000000000000000000000000000000000000000000000000000000000000000000000000000000000
310
00000000000000000000000000000000000000000000000000000000000000000000000000000000000000000000000000000000000000000000000000000000000000000000000000000000000000000000000000000000000000000000000000000000000000000000000000000000000000000000000000000000000000
310
00
310
00000000000000000000000000000000000000000000000000000000000000000000000000000000000000000000000000000000000000000000000000000000000000000000000000000000000000000000000000000000000000000000000000000000000000000000000000000000000000000000000000000000000000
310
00000000000000000000000000000000000000000000000000000000000000000000000000000000000000000000000000000000000000000000000000000000000000000000000000000000000000000000000000000000000000000000000000000000000000000000000000000000000000000000000000000000000000
310
00
310
00000000000000000000000000000000000000000000000000000000000000000000000000000000000000000000000000000000000000000000000000000000000000000000000000000000000000000000000000000000000000000000000000000000000000000000000000000000000000000000000000000000000000
310
00000000000000000000000000000000000000000000000000000000000000000000000000000000000000000000000000000000000000000000000000000000000000000000000000000000000000000000000000000000000000000000000000000000000000000000000000000000000000000000000000000000000000
310
00
310
00000000000000000000000000000000000000000000000000000000000000000000000000000000000000000000000000000000000000000000000000000000000000000000000000000000000000000000000000000000000000000000000000000000000000000000000000000000000000000000000000000000000000
310
00000000000000000000000000000000000000000000000000000000000000000000000000000000000000000000000000000000000000000000000000000000000000000000000000000000000000000000000000000000000000000000000000000000000000000000000000000000000000000000000000000000000000
310
00
310
00000000000000000000000000000000000000000000000000000000000000000000000000000000000000000000000000000000000000000000000000000000000000000000000000000000000000000000000000000000000000000000000000000000000000000000000000000000000000
  0
XRECORD
  5
3DD
102
{ACAD_REACTORS
330
409
102
}
330
409
100
AcDbXrecord
280
     1
310
3E4F020000004D6F64656C6572000000000000000000000000000000000000000000000000000000000000000000000000000000000000000000000000000000000000000000000000000000000000000000000000000000000000000000000000000000000000000000000000000000000000000000000000000000000000
310
00000000000000000000000000000000000000000000000000000000000000000000000000000000000000000000000000000000000000000000000000000000000000000000000000000000000000000000000000000000000000000000000000000000000000000000000000000000000000000000000000000000000000
310
00
310
00000000000000000000000000000000000000000000000000000000000000000000000000000000000000000000000000000000000000000000000000000000000000000000000000000000000000000000000000000000000000000000000000000000000000000000000000000000000000000000000000000000000000
310
00000000000000000000000000000000000000000000000000000000000000000000000000000000000000000000000000000000000000000000000000000000000000000000000000000000000000000000000000000000000000000000000000000000000000000000000000000000000000000000000000000000000000
310
00
310
00000000000000000000000000000000000000000000000000000000000000000000000000000000000000000000000000000000000000000000000000000000000000000000000000000000000000000000000000000000000000000000000000000000000000000000000000000000000000000000000000000000000000
310
00000000000000000000000000000000000000000000000000000000000000000000000000000000000000000000000000000000000000000000000000000000000000000000000000000000000000000000000000000000000000000000000000000000000000000000000000000000000000000000000000000000000000
310
00
310
00000000000000000000000000000000000000000000000000000000000000000000000000000000000000000000000000000000000000000000000000000000000000000000000000000000000000000000000000000000000000000000000000000000000000000000000000000000000000000000000000000000000000
310
00000000000000000000000000000000000000000000000000000000000000000000000000000000000000000000000000000000000000000000000000000000000000000000000000000000000000000000000000000000000000000000000000000000000000000000000000000000000000000000000000000000000000
310
00
310
00000000000000000000000000000000000000000000000000000000000000000000000000000000000000000000000000000000000000000000000000000000000000000000000000000000000000000000000000000000000000000000000000000000000000000000000000000000000000000000000000000000000000
310
00000000000000000000000000000000000000000000000000000000000000000000000000000000000000000000000000000000000000000000000000000000000000000000000000000000000000000000000000000000000000000000000000000000000000000000000000000000000000000000000000000000000000
310
00
310
00000000000000000000000000000000000000000000000000000000000000000000000000000000000000000000000000000000000000000000000000000000000000000000000000000000000000000000000000000000000000000000000000000000000000000000000000000000000000000000000000000000000000
310
00000000000000000000000000000000000000000000000000000000000000000000000000000000000000000000000000000000000000000000000000000000000000000000000000000000000000000000000000000000000000000000000000000000000000000000000000000000000000000000000000000000000000
310
00
310
00000000000000000000000000000000000000000000000000000000000000000000000000000000000000000000000000000000000000000000000000000000000000000000000000000000000000000000000000000000000000000000000000000000000000000000000000000000000000000000000000000000000000
310
00000000000000000000000000000000000000000000000000000000000000000000000000000000000000000000000000000000000000000000000000000000000000000000000000000000000000000000000000000000000000000000000000000000000000000000000000000000000000000000000000000000000000
310
00
310
00000000000000000000000000000000000000000000000000000000000000000000000000000000000000000000000000000000000000000000000000000000000000000000000000000000000000000000000000000000000000000000000000000000000000000000000000000000000000000000000000000000000000
310
00000000000000000000000000000000000000000000000000000000000000000000000000000000000000000000000000000000000000000000000000000000000000000000000000000000000000000000000000000000000000000000000000000000000000000000000000000000000000000000000000000000000000
310
00
310
00000000000000000000000000000000000000000000000000000000000000000000000000000000000000000000000000000000000000000000000000000000000000000000000000000000000000000000000000000000000000000000000000000000000000000000000000000000000000000000000000000000000000
310
00000000000000000000000000000000000000000000000000000000000000000000000000000000000000000000000000000000000000000000000000000000000000000000000000000000000000000000000000000000000000000000000000000000000000000000000000000000000000000000000000000000000000
310
00
310
00000000000000000000000000000000000000000000000000000000000000000000000000000000000000000000000000000000000000000000000000000000000000000000000000000000000000000000000000000000000000000000000000000000000000000000000000000000000000000000000000000000000000
310
00000000000000000000000000000000000000000000000000000000000000000000000000000000000000000000000000000000000000000000000000000000000000000000000000000000000000000000000000000000000000000000000000000000000000000000000000000000000000000000000000000000000000
310
00
310
00000000000000000000000000000000000000000000000000000000000000000000000000000000000000000000000000000000000000000000000000000000000000000000000000000000000000000000000000000000000000000000000000000000000000000000000000000000000000000000000000000000000000
310
00000000000000000000000000000000000000000000000000000000000000000000000000000000000000000000000000000000000000000000000000000000000000000000000000000000000000000000000000000000000000000000000000000000000000000000000000000000000000000000000000000000000000
310
00
310
00000000000000000000000000000000000000000000000000000000000000000000000000000000000000000000000000000000000000000000000000000000000000000000000000000000000000000000000000000000000000000000000000000000000000000000000000000000000000000000000000000000000000
310
00000000000000000000000000000000000000000000000000000000000000000000000000000000000000000000000000000000000000000000000000000000000000000000000000000000000000000000000000000000000000000000000000000000000000000000000000000000000000000000000000000000000000
310
00
310
00000000000000000000000000000000000000000000000000000000000000000000000000000000000000000000000000000000000000000000000000000000000000000000000000000000000000000000000000000000000000000000000000000000000000000000000000000000000000000000000000000000000000
310
00000000000000000000000000000000000000000000000000000000000000000000000000000000000000000000000000000000000000000000000000000000000000000000000000000000000000000000000000000000000000000000000000000000000000000000000000000000000000000000000000000000000000
310
00
310
00000000000000000000000000000000000000000000000000000000000000000000000000000000000000000000000000000000000000000000000000000000000000000000000000000000000000000000000000000000000000000000000000000000000000000000000000000000000000
  0
XRECORD
  5
3CB
102
{ACAD_REACTORS
330
409
102
}
330
409
100
AcDbXrecord
280
     1
310
DF56060034040701D0009A9999999999B93F000000000000000000000000000000000400000009000000000000000200000064000000640000000100000001000000190000007B14AE47E17A843F00000000004060409A9999999999B93F00000000004C2D41000000000070F7400000000000942141000000000000000000
310
0000000000000000000000000000000AD482040000000000000000000000000000F03F000000000000000000000000000030402D431CEBE2362A3F00000000000008400000000000000000009807C000000000000000007C1A61B9A711364020000000050000000A000000200000002000000020000000000000000000F03F
310
00
310
0000000000F03F000000000000F03F333333333333D33F333333333333D33F333333333333D33F000000000000F43F000000000000F43F000000000000F03F0200000064000000000000000000000000000840000000000000F83F00000000000000000000000000000000008056409A9999999999B93F0000000000000000
310
00000000000000000000000000000000000000000000000000000000000000000000000000000000000000000000000000000000000000000000000000000000000000000000000000000000000000000000000000000000000000000000000000000000000000000000000000000000000000000000000000000000000000
310
00
310
0000000000000000000000000000000000000000000000000000000000000000000000000000000000000000000000000000000000000000000000000000000000000000000000000000000000000000000000000000000000000000000000000000000000000000000000000000000000000000000000009A9999999999A9
310
3F9100000000000000000000000000000035A781D547960F40000000000000F03F000000000000F03F666666666666164000000000104068F200000000000000000000000000000000000000000000000000000000000000000000000000000000000000000000000000000000000000000000000000000000000000000000
310
00
310
00000000000000000000000000000000000000000000000000000000000000000000000000000000000000000000000000000000000000000000000000000000000000000000000000000000000000000000000000000000000000000000000000000000000000000000000000000000000000000000000000000000000000
310
000000000000000000000000000000000000000000000000000000000000000000000000000000000000000000000000000000000000000000000000FF000000000000000000000000000000000000000000000000000000000000000000000000000000000000000000000000000000000000000000000000000000000000
310
00
310
0000000000000000000000000000000000000000000000000000000000000000000000000000000000000000000000000000000000000000000000000000000000000000
  0
DICTIONARY
  5
3FA
330
3F9
100
AcDbDictionary
280
     1
281
     1
  3
ADSK_XREC_LAYOUTTHUMBNAIL
360
3FB
  0
XRECORD
  5
3FB
102
{ACAD_REACTORS
330
3FA
102
}
330
3FA
100
AcDbXrecord
280
     1
310
28000000B40000008B0000000100080000000000BC61000000000000000000000001000000000000FFFFFF0000000000FFFFFF000000000000000000000000000000000000000000000000000000000000000000330000006600000099000000CC000000FF00000000330000333300006633000099330000CC330000FF3300
310
0000660000336600006666000099660000CC660000FF66000000990000339900006699000099990000CC990000FF99000000CC000033CC000066CC000099CC0000CCCC0000FFCC000000FF000033FF000066FF000099FF0000CCFF0000FFFF000000003300330033006600330099003300CC003300FF003300003333003333
310
33006633330099333300CC333300FF33330000663300336633006666330099663300CC663300FF66330000993300339933006699330099993300CC993300FF99330000CC330033CC330066CC330099CC3300CCCC3300FFCC330000FF330033FF330066FF330099FF3300CCFF3300FFFF330000006600330066006600660099
310
006600CC006600FF00660000336600333366006633660099336600CC336600FF33660000666600336666006666660099666600CC666600FF66660000996600339966006699660099996600CC996600FF99660000CC660033CC660066CC660099CC6600CCCC6600FFCC660000FF660033FF660066FF660099FF6600CCFF6600
310
FFFF660000009900330099006600990099009900CC009900FF00990000339900333399006633990099339900CC339900FF33990000669900336699006666990099669900CC669900FF66990000999900339999006699990099999900CC999900FF99990000CC990033CC990066CC990099CC9900CCCC9900FFCC990000FF99
310
0033FF990066FF990099FF9900CCFF9900FFFF99000000CC003300CC006600CC009900CC00CC00CC00FF00CC000033CC003333CC006633CC009933CC00CC33CC00FF33CC000066CC003366CC006666CC009966CC00CC66CC00FF66CC000099CC003399CC006699CC009999CC00CC99CC00FF99CC0000CCCC0033CCCC0066CC
310
CC0099CCCC00CCCCCC00FFCCCC0000FFCC0033FFCC0066FFCC0099FFCC00CCFFCC00FFFFCC000000FF003300FF006600FF009900FF00CC00FF00FF00FF000033FF003333FF006633FF009933FF00CC33FF00FF33FF000066FF003366FF006666FF009966FF00CC66FF00FF66FF000099FF003399FF006699FF009999FF00CC
310
99FF00FF99FF0000CCFF0033CCFF0066CCFF0099CCFF00CCCCFF00FFCCFF0000FFFF0033FFFF0066FFFF0099FFFF00CCFFFF00FFFFFF00000000000D0D0D001A1A1A00282828003535350043434300505050005D5D5D006B6B6B00787878008686860093939300A1A1A100AEAEAE00BBBBBB00C9C9C900D6D6D600E4E4E400
310
F1F1F100FFFFFF0000000000000000000000000000000000000000000000000000000000000000000000000000000000E2E2E2E2E2E2E2E2E2E2E2E2E2E2E2E2E2E2E2E2E2E2E2E2E2E2E2E2E2E2E2E2E2E2E2E2E2E2E2E2E2E2E2E2E2E2E2E2E2E2E2E2E2E2E2E2E2E2E2E2E2E2E2E2E2E2E2E2E2E2E2E2E2E2E2E2E2E2E2
310
E2E2E2E2E2E2E2E2E2E2E2E2E2E2E2E2E2E2E2E2E2E2E2E2E2E2E2E2E2E2E2E2E2E2E2E2E2E2E2E2E2E2E2E2E2E2E2E2E2E2E2E2E2E2E2E2E2E2E2E2E2E2E2E2E2E2E2E2E2E2E2E2E2E2E2E2E2E2E2E2E2E2E2E2E2E2E2E2E2E2E2E2E2E2E2E2E2E2E2E2EFF5F5F5F5F5F5F5F5F5F5F5F5F5F5F5F5F5F5F5F5F5F5F5F5F5F5
310
F5F5F5F5F5F5F5F5F5F5F5F5F5F5F5F5F5F5F5F5F5F5F5F5F5F5F5F5F5F5F5F5F5F5F5F5F5F5F5F5F5F5F5F5F5F5F5F5F5F5F5F5F5F5F5F5F5F5F5F5F5F5F5F5F5F5F5F5F5F5F5F5F5F5F5F5F5F5F5F5F5F5F5F5F5F5F5F5F5F5F5F5F5F5F5F5F5F5F5F5F5F5F5F5F5F5F5F5F5F5F5F5F5F5F5F5F5F5F5F5F5F5F5F5F5F5F5
310
F5F5F5F5F5F5F5F5F5F5F5F5F5F5F5F5F5F5F5F5F5F5F5F5E2E2EFF5F5F5F5F5F5F5F5F5F5F5F5F5F5F5F5F5F5F5F5F5F5F5F5F5F5F5F5F5F5F5F5F5F5F5F5F5F5F5F5F5F5F5F5F5F5F5F5F5F5F5F5F5F5F5F5F5F5F5F5F5F5F5F5F5F5F5F5F5F5F5F5F5F5F5F5F5F5F5F5F5F5F5F5F5F5F5F5F5F5F5F5F5F5F5F5F5F5F5F5
310
F5F5F5F5F5F5F5F5F5F5F5F5F5F5F5F5F5F5F5F5F5F5F5F5F5F5F5F5F5F5F5F5F5F5F5F5F5F5F5F5F5F5F5F5F5F5F5F5F5F5F5F5F5F5F5F5F5F5F5F5F5F5F5F5F5F5F5F5F5F5F5F5F5F5F5F5F5E2E2EFF5F5F5F5F5F5F5F5F5F5F5F5F5F5F5F5F5F5F5F5F5F5F5F5F5F5F5F5F5F5F5F5F5F5F5F5F5F5F5F5F5F5F5F5F5F5F5
310
F5F5F5F5F5F5F5F5F5F5F5F5F5F5F5F5F5F5F5F5F5F5F5F5F5F5F5F5F5F5F5F5F5F5F5F5F5F5F5F5F5F5F5F5F5F5F5F5F5F5F5F5F5F5F5F5F5F5F5F5F5F5F5F5F5F5F5F5F5F5F5F5F5F5F5F5F5F5F5F5F5F5F5F5F5F5F5F5F5F5F5F5F5F5F5F5F5F5F5F5F5F5F5F5F5F5F5F5F5F5F5F5F5F5F5F5F5F5F5F5F5F5F5F5F5F5F5
310
F5F5F5E2E2EFF5F5F5E2E2E2E2E2E2E2E2F5F5F5F5F5F5F5F5F5E2E2E2E2E2E2E2E2E2E2E2E2E2E2E2E2F5F5F5F5F5F5F5F5E2E2E2E2E2E2E2E2E2E2E2E2E2E2E2E2F5F5F5F5F5F5F5F5F5E2E2E2E2E2E2E2E2E2E2E2E2E2E2E2F5F5F5F5F5F5F5F5F5E2E2E2E2E2E2E2E2E2E2E2E2E2E2E2F5F5F5F5F5F5F5F5F5E2E2E2E2
310
E2E2E2E2E2E2E2E2E2E2E2E2F5F5F5F5F5F5F5F5E2E2E2E2E2E2E2E2E2E2E2E2E2E2E2E2F5F5F5F5F5F5F5F5F5E2E2E2E2E2E2E2E2F5F5F5E2E2EFF5F5F5E2F5F5F5F5F5F5F5F5F5F5F5F5F5F5F5F5F5F5F5F5F5F5F5F5F5F5F5F5F5F5F5F5F5F5F5F5F5F5F5F5F5F5F5F5F5F5F5F5F5F5F5F5F5F5F5F5F5F5F5F5F5F5F5F5
310
F5F5F5F5F5F5F5F5F5F5F5F5F5F5F5F5F5F5F5F5F5F5F5F5F5F5F5F5F5F5F5F5F5F5F5F5F5F5F5F5F5F5F5F5F5F5F5F5F5F5F5F5F5F5F5F5F5F5F5F5F5F5F5F5F5F5F5F5F5F5F5F5F5F5F5F5F5F5F5F5F5F5F5F5F5F5F5F5F5F5F5F5F5F5F5F5F5F5F5F5F5F5F5F5F5E2F5F5F5E2E2EFF5F5F5E2F5F5F5F5F5F5F5F5F5F5F5
310
F5F5F5F5F5F5F5F5F5F5F5F5F5F5F5F5F5F5F5F5F5F5F5F5F5F5F5F5F5F5F5F5F5F5F5F5F5F5F5F5F5F5F5F5F5F5F5F5F5F5F5F5F5F5F5F5F5F5F5F5F5F5F5F5F5F5F5F5F5F5F5F5F5F5F5F5F5F5F5F5F5F5F5F5F5F5F5F5F5F5F5F5F5F5F5F5F5F5F5F5F5F5F5F5F5F5F5F5F5F5F5F5F5F5F5F5F5F5F5F5F5F5F5F5F5F5F5
310
F5F5F5F5F5F5F5F5F5F5F5F5F5F5F5F5F5F5F5F5F5F5F5F5F5F5F5F5F5F5F5E2F5F5F5E2E2EFF5F5F5E2F5F5F5F5F5F5F5F5F5F5F5F5F5F5F5F5F5F5F5F5F5F5F5F5F5F5F5F5F5F5F5F5F5F5F5F5F5F5F5F5F5F5F5F5F5F5F5F5F5F5F5F5F5F5F5F5F5F5F5F5F5F5F5F5F5F5F5F5F5F5F5F5F5F5F5F5F5F5F5F5F5F5F5F5F5
310
F5F5F5F5F5F5F5F5F5F5F5F5F5F5F5F5F5F5F5F5F5F5F5F5F5F5F5F5F5F5F5F5F5F5F5F5F5F5F5F5F5F5F5F5F5F5F5F5F5F5F5F5F5F5F5F5F5F5F5F5F5F5F5F5F5F5F5F5F5F5F5F5F5F5F5F5F5F5F5F5F5F5F5F5E2F5F5F5E2E2EFF5F5F5E2F5F5F5F5F5F5F5F5F5F5F5F5F5F5F5F5F5F5F5F5F5F5F5F5F5F5F5F5F5F5F5F5
310
F5F5F5F5F5F5F5F5F5F5F5F5F5F5F5F5F5F5F5F5F5F5F5F5F5F5F5F5F5F5F5F5F5F5F5F5F5F5F5F5F5F5F5F5F5F5F5F5F5F5F5F5F5F5F5F5F5F5F5F5F5F5F5F5F5F5F5F5F5F5F5F5F5F5F5F5F5F5F5F5F5F5F5F5F5F5F5F5F5F5F5F5F5F5F5F5F5F5F5F5F5F5F5F5F5F5F5F5F5F5F5F5F5F5F5F5F5F5F5F5F5F5F5F5F5F5F5
310
F5F5F5F5F5F5F5F5F5F5E2F5F5F5E2E2EFF5F5F5E2F5F5F5F5F5F5F5F5F5F5F5F5F5F5F5F5F5F5F5F5F5F5F5F5F5F5F5F5F5F5F5F5F5F5F5F5F5F5F5F5F5F5F5F5F5F5F5F5F5F5F5F5F5F5F5F5F5F5F5F5F5F5F5F5F5F5F5F5F5F5F5F5F5F5F5F5F5F5F5F5F5F5F5F5F5F5F5F5F5F5F5F5F5F5F5F5F5F5F5F5F5F5F5F5F5F5
310
F5F5F5F5F5F5F5F5F5F5F5F5F5F5F5F5F5F5F5F5F5F5F5F5F5F5F5F5F5F5F5F5F5F5F5F5F5F5F5F5F5F5F5F5F5F5F5F5F5F5F5F5F5F5F5F5F5F5F5F5F5F5F5E2F5F5F5E2E2EFF5F5F5E2F5F5F5F5F5F5F5F5F5F5F5F5F5F5F5F5F5F5F5F5F5F5F5F5F5F5F5F5F5F5F5F5F5F5F5F5F5F5F5F5F5F5F5F5F5F5F5F5F5F5F5F5F5
310
F5F5F5F5F5F5F5F5F5F5F5F5F5F5F5F5F5F5F5F5F5F5F5F5F5F5F5F5F5F5F5F5F5F5F5F5F5F5F5F5F5F5F5F5F5F5F5F5F5F5F5F5F5F5F5F5F5F5F5F5F5F5F5F5F5F5F5F5F5F5F5F5F5F5F5F5F5F5F5F5F5F5F5F5F5F5F5F5F5F5F5F5F5F5F5F5F5F5F5F5F5F5F5F5F5F5F5F5F5F5F5F5F5F5F5F5E2F5F5F5E2E2EFF5F5F5E2
310
F5F5F5F5F5F5F5F5F5F5F5F5F5F5F5F5F5F5F5F5F5F5F5F5F5F5F5F5F5F5F5F5F5F5F5F5F5F5F5F5F5F5F5F5F5F5F5F5F5F5F5F5F5F5F5F5F5F5F5F5F5F5F5F5F5F5F5F5F5F5F5F5F5F5F5F5F5F5F5F5F5F5F5F5F5F5F5F5F5F5F5F5F5F5F5F5F5F5F5F5F5F5F5F5F5F5F5F5F5F5F5F5F5F5F5F5F5F5F5F5F5F5F5F5F5F5F5
310
F5F5F5F5F5F5F5F5F5F5F5F5F5F5F5F5F5F5F5F5F5F5F5F5F5F5F5F5F5F5F5F5F5F5F5F5F5F5F5F5F5F5E2F5F5F5E2E2EFF5F5F5E2F5F5F5F5F5F5F5F5F5F5F5F5F5F5F5F5F5F5F5F5F5F5F5F5F5F5F5F5F5F5F5F5F5F5F5F5F5F5F5F5F5F5F5F5F5F5F5F5F5F5F5F5F5F5F5F5F5F5F5F5F5F5F5F5F5F5F5F5F5F5F5F5F5F5
310
F5F5F5F5F5F5F5F5F5F5F5F5F5F5F5F5F5F5F5F5F5F5F5F5F5F5F5F5F5F5F5F5F5F5F5F5F5F5F5F5F5F5F5F5F5F5F5F5F5F5F5F5F5F5F5F5F5F5F5F5F5F5F5F5F5F5F5F5F5F5F5F5F5F5F5F5F5F5F5F5F5F5F5F5F5F5F5F5F5F5F5F5F5F5F5E2F5F5F5E2E2EFF5F5F5F5F5F5F5F5F5F5F5F5F5F5F5F5F5F5F5F5F5F5F5F5F5
310
F5F5F5F5F5F5F5F5F5F5F5F5F5F5F5F5F5F5F5F5F5F5F5F5F5F5F5F5F5F5F5F5F5F5F5F5F5F5F5F5F5F5F5F5F5F5F5F5F5F5F5F5F5F5F5F5F5F5F5F5F5F5F5F5F5F5F5F5F5F5F5F5F5F5F5F5F5F5F5F5F5F5F5F5F5F5F5F5F5F5F5F5F5F5F5F5F5F5F5F5F5F5F5F5F5F5F5F5F5F5F5F5F5F5F5F5F5F5F5F5F5F5F5F5F5F5F5
310
F5F5F5F5F5F5F5F5F5F5F5F5F5F5F5F5F5F5F5F5F5F5F5F5F5E2E2EFF5F5F5F5F5F5F5F5F5F5F5F5F5F5F5F5F5F5F5F5F5F5F5F5F5F5F5F5F5F5F5F5F5F5F5F5F5F5F5F5F5F5F5F5F5F5F5F5F5F5F5F5F5F5F5F5F5F5F5F5F5F5F5F5F5F5F5F5F5F5F5F5F5F5F5F5F5F5F5F5F5F5F5F5F5F5F5F5F5F5F5F5F5F5F5F5F5F5F5
310
F5F5F5F5F5F5F5F5F5F5F5F5F5F5F5F5F5F5F5F5F5F5F5F5F5F5F5F5F5F5F5F5F5F5F5F5F5F5F5F5F5F5F5F5F5F5F5F5F5F5F5F5F5F5F5F5F5F5F5F5F5F5F5F5F5F5F5F5F5F5F5F5F5F5F5F5F5F5E2E2EFF5F5F5F5F5F5F5F5F5F5F5F5F5F5F5F5F5F5F5F5F5F5F5F5F5F5F5F5F5F5F5F5F5F5F5F5F5F5F5F5F5F5F5F5F5F5
310
F5F5F5F5F5F5F5F5F5F5F5F5F5F5F5F5F5F5F5F5F5F5F5F5F5F5F5F5F5F5F5F5F5F5F5F5F5F5F5F5F5F5F5F5F5F5F5F5F5F5F5F5F5F5F5F5F5F5F5F5F5F5F5F5F5F5F5F5F5F5F5F5F5F5F5F5F5F5F5F5F5F5F5F5F5F5F5F5F5F5F5F5F5F5F5F5F5F5F5F5F5F5F5F5F5F5F5F5F5F5F5F5F5F5F5F5F5F5F5F5F5F5F5F5F5F5F5
310
F5F5F5F5E2E2EFF5F5F5F5F5F5F5F5F5F5F5F5F5F5F5F5F5F5F5F5F5F5F5F5F5F5F5F5F5F5F5F5F5F5F5F5F5F5F5F5F5F5F5F5F5F5F5F5F5F5F5F5F5F5F5F5F5F5F5F5F5F5F5F5F5F5F5F5F5F5F5F5F5F5F5F5F5F5F5F5F5F5F5F5F5F5F5F5F5F5F5F5F5F5F5F5F5F5F5F5F5F5F5F5F5F5F5F5F5F5F5F5F5F5F5F5F5F5F5F5
310
F5F5F5F5F5F5F5F5F5F5F5F5F5F5F5F5F5F5F5F5F5F5F5F5F5F5F5F5F5F5F5F5F5F5F5F5F5F5F5F5F5F5F5F5F5F5F5F5F5F5F5F5F5F5F5F5F5E2E2EFF5F5F5F5F5F5F5F5F5F5F5F5F5F5F5F5F5F5F5F5E2E2E2E2E2E2E2E2E2E2E2E2E2E2E2E2E2E2E2E2E2E2E2E2E2E2E2E2E2E2E2E2E2E2E2E2E2E2E2E2E2E2E2E2E2E2E2
310
E2E2E2E2E2E2E2E2E2E2E2E2E2E2E2E2E2E2E2E2E2E2E2E2E2E2E2E2E2E2E2E2E2E2E2E2E2E2E2E2E2E2E2E2E2E2E2E2E2E2E2E2E2E2E2E2E2E2E2E2E2E2E2E2E2E2E2E2E2E2E2E2E2E2E2E2E2E2E2E2E2E2E2E2E2E2E2E2E2E2F5F5F5F5F5F5F5F5F5F5F5F5F5F5F5F5F5F5F5F5E2E2EFF5F5F5F5F5F5F5F5F5F5F5F5F5F5
310
F5F5F5F5F5F5E2F5F5F5F5F5F5F5F5F5F5F5F5F5F5F5F5F5F5F5F5F5F5F5F5F5F5F5F5F5F5F5F5F5F5F5F5F5F5F5F5F5F5F5F5F5F5F5F5F5F5F5F5F5F5F5F5F5F5F5F5F5F5F5F5F5F5F5F5F5F5F5F5F5F5F5F5F5F5F5F5F5F5F5F5F5F5F5F5F5F5F5F5F5F5F5F5F5F5F5F5F5F5F5F5F5F5F5F5F5F5F5F5F5F5F5F5F5F5F5F5
310
F5F5F5F5F5F5F5F5F5F5F5F5F5F5F5E2F5F5F5F5F5F5F5F5F5F5F5F5F5F5F5F5F5F5F5F5E2E2EFF5F5F5F5F5F5F5F5F5F5F5F5F5F5F5F5F5F5F5F5E2F5F5F5F5F5F5F5F5F5F5F5F5F5F5F5F5F5F5F5F5F5F5F5F5F5F5F5F5F5F5F5F5F5F5F5F5F5F5F5F5F5F5F5F5F5F5F5F5F5F5F5F5F5F5F5F5F5F5F5F5F5F5F5F5F5F5F5
310
F5F5F5F5F5F5F5F5F5F5F5F5F5F5F5F5F5F5F5F5F5F5F5F5F5F5F5F5F5F5F5F5F5F5F5F5F5F5F5F5F5F5F5F5F5F5F5F5F5F5F5F5F5F5F5F5F5F5F5F5F5F5F5F5F5F5F5F5E2F5F5F5F5F5F5F5F5F5F5F5F5F5F5F5F5F5F5F5F5E2E2EFF5F5F5F5F5F5F5F5F5F5F5F5F5F5F5F5F5F5F5F5E2F5F5F5F5F5F5F5F5F5F5F5F5F5F5
310
F5F5F5F5F5F5F5F5F5F5F5F5F5F5F5F5F5F5F5F5F5F5F5F5F5F5F5F5F5F5F5F5F5F5F5F5F5F5F5F5F5F5F5F5F5F5F5F5F5F5F5F5F5F5F5F5F5F5F5F5F5F5F5F5F5F5F5F5F5F5F5F5F5F5F5F5F5F5F5F5F5F5F5F5F5F5F5F5F5F5F5F5F5F5F5F5F5F5F5F5F5F5F5F5F5F5F5F5F5F5F5F5F5F5F5F5F5F5F5F5F5E2F5F5F5F5F5
310
F5F5F5F5F5F5F5F5F5F5F5F5F5F5F5E2E2EFF5F5F5F5F5F5F5F5F5F5F5F5F5F5F5F5F5F5F5F5E2F5F5F5F5F5F5F5F5F5F5F5F5F5F5F5F5F5F5F5F5F5F5F5F5F5F5F5F5F5F5F5F5F5F5F5F5F5F5F5F5F5F5F5F5F5F5F5F5F5F5F5F5F5F5F5F5F5F5F5F5F5F5F5F5F5F5F5F5F5F5F5F5F5F5F5F5F5F5F5F5F5F5F5F5F5F5F5F5
310
F5F5F5F5F5F5F5F5F5F5F5F5F5F5F5F5F5F5F5F5F5F5F5F5F5F5F5F5F5F5F5F5F5F5F5F5F5F5F5F5F5F5F5F5F5F5F5E2F5F5F5F5F5F5F5F5F5F5F5F5F5F5F5F5F5F5F5F5E2E2EFF5F5F5E2F5F5F5F5F5F5F5F5F5F5F5F5F5F5F5F5E2F5F5F5F5F5F5F5F5F5F5F5F5F5F5F5F5F5F5F5F5F5F5F5F5F5F5F5F5F5F5F5F5F5F5F5
310
F5F5F5F5F5F5F5F5F5F5F5F5F5F5F5F5F5F5F5F5F5F5F5F5F5F5F5F5F5F5F5F5F5F5F5F5F5F5F5F5F5F5F5F5F5F5F5F5F5F5F5F5F5F5F5F5F5F5F5F5F5F5F5F5F5F5F5F5F5F5F5F5F5F5F5F5F5F5F5F5F5F5F5F5F5F5F5F5F5F5F5F5F5F5F5F5F5F5F5F5E2F5F5F5F5F5F5F5F5F5F5F5F5F5F5F5F5E2F5F5F5E2E2EFF5F5F5
310
E2F5F5F5F5F5F5F5F5F5F5F5F5F5F5F5F5E2F5F5F5F5F5F5F5F5F5F5F5F5F5F5F5F5F5F5F5F5F5F5F5F5F5F5F5F5F5F5F5F5F5F5F5F5F5F5F5F5F5F5F5F5F5F5F5F5F5F5F5F5F5F5F5F5F5F5F5F5F5F5F5F5F5F5F5F5F5F5F5F5F5F5F5F5F5F5F5F5F5F5F5F5F5F5F5F5F5F5F5F5F5F5F5F5F5F5F5F5F5F5F5F5F5F5F5F5F5
310
F5F5F5F5F5F5F5F5F5F5F5F5F5F5F5F5F5F5F5F5F5F5F5F5F5F5E2F5F5F5F5F5F5F5F5F5F5F5F5F5F5F5F5E2F5F5F5E2E2EFF5F5F5E2F5F5F5F5F5F5F5F5F5F5F5F5F5F5F5F5E2F5F5F5F5F5F5F5F5F5F5F5F5F5F5F5F5F5F5F5F5F5F5F5F5F5F5F5F5F5F5F5F5F5F5F5F5F5F5F5F5F5F5F5F5F5F5F5F5F5F5F5F5F5F5F5F5
310
F5F5F5F5F5F5F5F5F5F5F5F5F5F5F5F5F5F5F5F5F5F5F5F5F5F5F5F5F5F5F5F5F5F5F5F5F5F5F5F5F5F5F5F5F5F5F5F5F5F5F5F5F5F5F5F5F5F5F5F5F5F5F5F5F5F5F5F5F5F5F5F5F5F5F5F5F5F5F5E2F5F5F5F5F5F5F5F5F5F5F5F5F5F5F5F5E2F5F5F5E2E2EFF5F5F5E2F5F5F5F5F5F5F5F5F5F5F5F5F5F5F5F5E2F5F5F5
310
F5F5F5F5F5F5F5F5F5F5F5F5F5F5F5F5F5F5F5F5F5F5F5F5F5F5F5F5F5F5F5F5F5F5F5F5F5F5F5F5F5F5F5F5F5F5F5F5F5F5F5F5F5F5F5F5F5F5F5F5F5F5F5F5F5F5F5F5F5F5F5F5F5F5F5F5F5F5F5F5F5F5F5F5F5F5F5F5F5F5F5F5F5F5F5F5F5F5F5F5F5F5F5F5F5F5F5F5F5F5F5F5F5F5F5F5F5F5F5F5F5F5F5F5F5F5F5
310
F5F5F5F5F5E2F5F5F5F5F5F5F5F5F5F5F5F5F5F5F5F5E2F5F5F5E2E2EFF5F5F5E2F5F5F5F5F5F5F5F5F5F5F5F5F5F5F5F5E2F5F5F5F5F5F5F5F5F5F5F5F5F5F5F5F5F5F5F5F5F5F5F5F5F5F5F5F5F5F5F5F5F5F5F5F5F5F5F5F5F5F5F5F5F5F5F5F5F5F5F5F5F5F5F5F5F5F5F5F5F5F5F5F5F5F5F5F5F5F5F5F5F5F5F5F5F5
310
F5F5F5F5F5F5F5F5F5F5F5F5F5F5F5F5F5F5F5F5F5F5F5F5F5F5F5F5F5F5F5F5F5F5F5F5F5F5F5F5F5F5F5F5F5F5F5F5F5F5F5F5F5F5F5F5F5F5E2F5F5F5F5F5F5F5F5F5F5F5F5F5F5F5F5E2F5F5F5E2E2EFF5F5F5E2F5F5F5F5F5F5F5F5F5F5F5F5F5F5F5F5E2F5F5F5F5F5F5F5F5F5F5F5F5F5F5F5F5F5F5F5F5F5F5F5F5
310
F5F5F5F5F5F5F5F5F5F5F5F5F5F5F5F5F5F5F5F5F5F5F5F5F5F5F5F5F5F5F5F5F5F5F5F5F5F5F5F5F5F5F5F5F5F5F5F5F5F5F5F5F5F5F5F5F5F5F5F5F5F5F5F5F5F5F5F5F5F5F5F5F5F5F5F5F5F5F5F5F5F5F5F5F5F5F5F5F5F5F5F5F5F5F5F5F5F5F5F5F5F5F5F5F5F5F5F5F5F5F5E2F5F5F5F5F5F5F5F5F5F5F5F5F5F5F5
310
F5E2F5F5F5E2E2EFF5F5F5E2F5F5F5F5F5F5F5F5F5F5F5F5F5F5F5F5E2F5F5F5F5F5F5F5F5F5F5F5F5F5F5F5F5F5F5F5F5F5F5F5F5F5F5F5F5F5F5F5F5F5F5F5F5F5F5F5F5F5F5F5F5F5F5F5F5F5F5F5F5F5F5F5F5F5F5F5F5F5F5F5F5F5F5F5F5F5F5F5F5F5F5F5F5F5F5F5F5F5F5F5F5F5F5F5F5F5F5F5F5F5F5F5F5F5F5
310
F5F5F5F5F5F5F5F5F5F5F5F5F5F5F5F5F5F5F5F5F5F5F5F5F5F5F5F5F5F5F5F5F5F5F5F5F5E2F5F5F5F5F5F5F5F5F5F5F5F5F5F5F5F5E2F5F5F5E2E2EFF5F5F5E2F5F5F5F5F5F5F5F5F5F5F5F5F5F5F5F5E2F5F5F5F5F5F5F5F5F5F5F5F5F5F5F5F5F5F5F5F5F5F5F5F5F5F5F5F5F5F5F5F5F5F5F5F5F5F5F5F5F5F5F5F5F5
310
F5F5F5F5F5F5F5F5F5F5F5F5F5F5F5F5F5F5F5F5F5F5F5F5F5F5F5F5F5F5F5F5F5F5F5F5F5F5F5F5F5F5F5F5F5F5F5F5F5F5F5F5F5F5F5F5F5F5F5F5F5F5F5F5F5F5F5F5F5F5F5F5F5F5F5F5F5F5F5F5F5F5F5F5F5F5F5F5F5F5E2F5F5F5F5F5F5F5F5F5F5F5F5F5F5F5F5E2F5F5F5E2E2EFF5F5F5E2F5F5F5F5F5F5F5F5F5
310
F5F5F5F5F5F5F5E2F5F5F5F5F5F5F5F5F5F5F5F5F5F5F5F5F5F5F5F5F5F5F5F5F5F5F5F5F5F5F5F5F5F5F5F5F5F5F5F5F5F5F5F5F5F5F5F5F5F5F5F5F5F5F5F5F5F5F5F5F5F5F5F5F5F5F5F5F5F5F5F5F5F5F5F5F5F5F5F5F5F5F5F5F5F5F5F5F5F5F5F5F5F5F5F5F5F5F5F5F5F5F5F5F5F5F5F5F5F5F5F5F5F5F5F5F5F5F5
310
F5F5F5F5F5F5F5F5F5F5F5F5F5F5F5F5E2F5F5F5F5F5F5F5F5F5F5F5F5F5F5F5F5E2F5F5F5E2E2EFF5F5F5E2F5F5F5F5F5F5F5F5F5F5F5F5F5F5F5F5E2F5F5F5F5F5F5F5F5F5F5F5F5F5F5F5F5F5F5F5F5F5F5F5F5F5F5F5F5F5F5F5F5F5F5F5F5F5F5F5F5F5F5F5F5F5F5F5F5F5F5F5F5F5F5F5F5F5F5F5F5F5F5F5F5F5F5
310
F5F5F5F5F5F5F5F5F5F5F5F5F5F5F5F5F5F5F5F5F5F5F5F5F5F5F5F5F5F5F5F5F5F5F5F5F5F5F5F5F5F5F5F5F5F5F5F5F5F5F5F5F5F5F5F5F5F5F5F5F5F5F5F5F5F5F5F5F5E2F5F5F5F5F5F5F5F5F5F5F5F5F5F5F5F5E2F5F5F5E2E2EFF5F5F5E2F5F5F5F5F5F5F5F5F5F5F5F5F5F5F5F5E2F5F5F5F5F5F5F5F5F5F5F5F5F5
310
F5F5F5F5F5F5F5F5F5F5F5F5F5F5F5F5F5F5F5F5F5F5F5F5F5F5F5F5F5F5F5F5F5F5F5F5F5F5F5F5F5F5F5F5F5F5F5F5F5F5F5F5F5F5F5F5F5F5F5F5F5F5F5F5F5F5F5F5F5F5F5F5F5F5F5F5F5F5F5F5F5F5F5F5F5F5F5F5F5F5F5F5F5F5F5F5F5F5F5F5F5F5F5F5F5F5F5F5F5F5F5F5F5F5F5F5F5F5F5F5F5F5E2F5F5F5F5
310
F5F5F5F5F5F5F5F5F5F5F5F5E2F5F5F5E2E2EFF5F5F5E2F5F5F5F5F5F5F5F5F5F5F5F5F5F5F5F5E2F5F5F5F5F5F5F5F5F5F5F5F5F5F5F5F5F5F5F5F5F5F5F5F5F5F5F5F5F5F5F5F5F5F5F5F5F5F5F5F5F5F5F5F5F5F5F5F5F5F5F5F5F5F5F5F5F5F5F5F5F5F5F5F5F5F5F5F5F5F5F5F5F5F5F5F5F5F5F5F5F5F5F5F5F5F5F5
310
F5F5F5F5F5F5F5F5F5F5F5F5F5F5F5F5F5F5F5F5F5F5F5F5F5F5F5F5F5F5F5F5F5F5F5F5F5F5F5F5F5F5F5F5F5F5F5F5E2F5F5F5F5F5F5F5F5F5F5F5F5F5F5F5F5E2F5F5F5E2E2EFF5F5F5E2F5F5F5F5F5F5F5F5F5F5F5F5F5F5F5F5E2F5F5F5F5F5F5F5F5F5F5F5F5F5F5F5F5F5F5F5F5F5F5F5F5F5F5F5F5F5F5F5F5F5F5
310
F5F5F5F5F5F5F5F5F5F5F5F5F5F5F5F5F5F5F5F5F5F5F5F5F5F5F5F5F5F5F5F5F5F5F5F5F5F5F5F5F5F5F5F5F5F5F5F5F5F5F5F5F5F5F5F5F5F5F5F5F5F5F5F5F5F5F5F5F5F5F5F5F5F5F5F5F5F5F5F5F5F5F5F5F5F5F5F5F5F5F5F5F5F5F5F5F5F5F5F5F5E2F5F5F5F5F5F5F5F5F5F5F5F5F5F5F5F5E2F5F5F5E2E2EFF5F5
310
F5E2F5F5F5F5F5F5F5F5F5F5F5F5F5F5F5F5E2F5F5F5F5F5F5F5F5F5F5F5F5F5F5F5F5F5F5F5F5F5F5F5F5F5F5F5F5F5F5F5F5F5F5F5F5F5F5F5F5F5F5F5F5F5F5F5F5F5F5F5F5F5F5F5F5F5F5F5F5F5F5F5F5F5F5F5F5F5F5F5F5F5F5F5F5F5F5F5F5F5F5F5F5F5F5F5F5F5F5F5F5F5F5F5F5F5F5F5F5F5F5F5F5F5F5F5F5
310
F5F5F5F5F5F5F5F5F5F5F5F5F5F5F5F5F5F5F5F5F5F5F5F5F5F5F5E2F5F5F5F5F5F5F5F5F5F5F5F5F5F5F5F5E2F5F5F5E2E2EFF5F5F5E2F5F5F5F5F5F5F5F5F5F5F5F5F5F5F5F5E2F5F5F5F5F5F5F5F5F5F5F5F5F5F5F5F5F5F5F5F5F5F5F5F5F5F5F5F5F5F5F5F5F5F5F5F5F5F5F5F5F5F5F5F5F5F5F5F5F5F5F5F5F5F5F5
310
F5F5F5F5F5F5F5F5F5F5F5F5F5F5F5F5F5F5F5F5F5F5F5F5F5F5F5F5F5F5F5F5F5F5F5F5F5F5F5F5F5F5F5F5F5F5F5F5F5F5F5F5F5F5F5F5F5F5F5F5F5F5F5F5F5F5F5F5F5F5F5F5F5F5F5F5F5F5F5F5E2F5F5F5F5F5F5F5F5F5F5F5F5F5F5F5F5E2F5F5F5E2E2EFF5F5F5E2F5F5F5F5F5F5F5F5F5F5F5F5F5F5F5F5E2F5F5
310
F5F5F5F5F5F5F5F5F5F5F5F5F5F5F5F5F5F5F5F5F5F5F5F5F5F5F5F5F5F5F5F5F5F5F5F5F5F5F5F5F5F5F5F5F5F5F5F5F5F5F5F5F5F5F5F5F5F5F5F5F5F5F5F5F5F5F5F5F5F5F5F5F5F5F5F5F5F5F5F5F5F5F5F5F5F5F5F5F5F5F5F5F5F5F5F5F5F5F5F5F5F5F5F5F5F5F5F5F5F5F5F5F5F5F5F5F5F5F5F5F5F5F5F5F5F5F5
310
F5F5F5F5F5F5E2F5F5F5F5F5F5F5F5F5F5F5F5F5F5F5F5E2F5F5F5E2E2EFF5F5F5E2F5F5F5F5F5F5F5F5F5F5F5F5F5F5F5F5E2F5F5F5F5F5F5F5F5F5F5F5F5F5F5F5F5F5F5F5F5F5F5F5F5F5F5F5F5F5F5F5F5F5F5F5F5F5F5F5F5F5F5F5F5F5F5F5F5F5F5F5F5F5F5F5F5F5F5F5F5F5F5F5F5F5F5F5F5F5F5F5F5F5F5F5F5
310
F5F5F5F5F5F5F5F5F5F5F5F5F5F5F5F5F5F5F5F5F5F5F5F5F5F5F5F5F5F5F5F5F5F5F5F5F5F5F5F5F5F5F5F5F5F5F5F5F5F5F5F5F5F5F5F5F5F5F5E2F5F5F5F5F5F5F5F5F5F5F5F5F5F5F5F5E2F5F5F5E2E2EFF5F5F5F5F5F5F5F5F5F5F5F5F5F5F5F5F5F5F5F5E2F5F5F5F5F5F5F5F5F5F5F5F5F5F5F5F5F5F5F5F5F5F5F5
310
F5F5F5F5F5F5F5F5F5F5F5F5F5F5F5F5F5F5F5F5F5F5F5F5F5F5F5F5F5F5F5F5F5F5F5F5F5F5F5F5F5F5F5F5F5F5F5F5F5F5F5F5F5F5F5F5F5F5F5F5F5F5F5F5F5F5F5F5F5F5F5F5F5F5F5F5F5F5F5F5F5F5F5F5F5F5F5F5F5F5F5F5F5F5F5F5F5F5F5F5F5F5F5F5F5F5F5F5F5F5F5F5E2F5F5F5F5F5F5F5F5F5F5F5F5F5F5
310
F5F5F5F5F5F5E2E2EFF5F5F5F5F5F5F5F5F5F5F5F5F5F5F5F5F5F5F5F5E2F5F5F5F5F5F5F5F5F5F5F5F5F5F5F5F5F5F5F5F5F5F5F5F5F5F5F5F5F5F5F5F5F5F5F5F5F5F5F5F5F5F5F5F5F5F5F5F5F5F5F5F5F5F5F5F5F5F5F5F5F5F5F5F5F5F5F5F5F5F5F5F5F5F5F5F5F5F5F5F5F5F5F5F5F5F5F5F5F5F5F5F5F5F5F5F5F5
310
F5F5F5F5F5F5F5F5F5F5F5F5F5F5F5F5F5F5F5F5F5F5F5F5F5F5F5F5F5F5F5F5F5F5F5F5F5F5E2F5F5F5F5F5F5F5F5F5F5F5F5F5F5F5F5F5F5F5F5E2E2EFF5F5F5F5F5F5F5F5F5F5F5F5F5F5F5F5F5F5F5F5E2F5F5F5F5F5F5F5F5F5F5F5F5F5F5F5F5F5F5F5F5F5F5F5F5F5F5F5F5F5F5F5F5F5F5F5F5F5F5F5F5F5F5F5F5
310
F5F5F5F5F5F5F5F5F5F5F5F5F5F5F5F5F5F5F5F5F5F5F5F5F5F5F5F5F5F5F5F5F5F5F5F5F5F5F5F5F5F5F5F5F5F5F5F5F5F5F5F5F5F5F5F5F5F5F5F5F5F5F5F5F5F5F5F5F5F5F5F5F5F5F5F5F5F5F5F5F5F5F5F5F5F5F5F5F5F5F5E2F5F5F5F5F5F5F5F5F5F5F5F5F5F5F5F5F5F5F5F5E2E2EFF5F5F5F5F5F5F5F5F5F5F5F5
310
F5F5F5F5F5F5F5F5E2F5F5F5F5F5F5F5F5F5F5F5F5F5F5F5F5F5F5F5F5F5F5F5F5F5F5F5F5F5F5F5F5F5F5F5F5F5F5F5F5F5F5F5F5F5F5F5F5F5F5F5F5F5F5F5F5F5F5F5F5F5F5F5F5F5F5F5F5F5F5F5F5F5F5F5F5F5F5F5F5F5F5F5F5F5F5F5F5F5F5F5F5F5F5F5F5F5F5F5F5F5F5F5F5F5F5F5F5F5F5F5F5F5F5F5F5F5F5
310
F5F5F5F5F5F5F5F5F5F5F5F5F5F5F5F5F5E2F5F5F5F5F5F5F5F5F5F5F5F5F5F5F5F5F5F5F5F5E2E2EFF5F5F5F5F5F5F5F5F5F5F5F5F5F5F5F5F5F5F5F5E2F5F5F5F5F5F5F5F5F5F5F5F5F5F5F5F5F5F5F5F5F5F5F5F5F5F5F5F5F5F5F5F5F5F5F5F5F5F5F5F5F5F5F5F5F5F5F5F5F5F5F5F5F5F5F5F5F5F5F5F5F5F5F5F5F5
310
F5F5F5F5F5F5F5F5F5F5F5F5F5F5F5F5F5F5F5F5F5F5F5F5F5F5F5F5F5F5F5F5F5F5F5F5F5F5F5F5F5F5F5F5F5F5F5F5F5F5F5F5F5F5F5F5F5F5F5F5F5F5F5F5F5F5F5F5F5F5E2F5F5F5F5F5F5F5F5F5F5F5F5F5F5F5F5F5F5F5F5E2E2EFF5F5F5F5F5F5F5F5F5F5F5F5F5F5F5F5F5F5F5F5E2F5F5F5F5F5F5F5F5F5F5F5F5
310
F5F5F5F5F5F5F5F5F5F5F5F5F5F5F5F5F5F5F5F5F5F5F5F5F5F5F5F5F5F5F5F5F5F5F5F5F5F5F5F5F5F5F5F5F5F5F5F5F5F5F5F5F5F5F5F5F5F5F5F5F5F5F5F5F5F5F5F5F5F5F5F5F5F5F5F5F5F5F5F5F5F5F5F5F5F5F5F5F5F5F5F5F5F5F5F5F5F5F5F5F5F5F5F5F5F5F5F5F5F5F5F5F5F5F5F5F5F5F5F5F5F5F5E2F5F5F5
310
F5F5F5F5F5F5F5F5F5F5F5F5F5F5F5F5F5E2E2EFF5F5F5F5F5F5F5F5F5F5F5F5F5F5F5F5F5F5F5F5E2F5F5F5F5F5F5F5F5F5F5F5F5F5F5F5F5F5F5F5F5F5F5F5F5F5F5F5F5F5F5F5F5F5F5F5F5F5F5F5F5F5F5F5F5F5F5F5F5F5F5F5F5F5F5F5F5F5F5F5F5F5F5F5F5F5F5F5F5F5F5F5F5F5F5F5F5F5F5F5F5F5F5F5F5F5F5
310
F5F5F5F5F5F5F5F5F5F5F5F5F5F5F5F5F5F5F5F5F5F5F5F5F5F5F5F5F5F5F5F5F5F5F5F5F5F5F5F5F5F5F5F5F5F5F5F5F5E2F5F5F5F5F5F5F5F5F5F5F5F5F5F5F5F5F5F5F5F5E2E2EFF5F5F5F5F5F5F5F5F5F5F5F5F5F5F5F5F5F5F5F5E2F5F5F5F5F5F5F5F5F5F5F5F5F5F5F5F5F5F5F5F5F5F5F5F5F5F5F5F5F5F5F5F5F5
310
F5F5F5F5F5F5F5F5F5F5F5F5F5F5F5F5F5F5F5F5F5F5F5F5F5F5F5F5F5F5F5F5F5F5F5F5F5F5F5F5F5F5F5F5F5F5F5F5F5F5F5F5F5F5F5F5F5F5F5F5F5F5F5F5F5F5F5F5F5F5F5F5F5F5F5F5F5F5F5F5F5F5F5F5F5F5F5F5F5F5F5F5F5F5F5F5F5F5F5F5F5F5E2F5F5F5F5F5F5F5F5F5F5F5F5F5F5F5F5F5F5F5F5E2E2EFF5
310
F5F5F5F5F5F5F5F5F5F5F5F5F5F5F5F5F5F5F5E2F5F5F5F5F5F5F5F5F5F5F5F5F5F5F5F5F5F5F5F5F5F5F5F5F5F5F5F5F5F5F5F5F5F5F5F5F5F5F5F5F5F5F5F5F5F5F5F5F5F5F5F5F5F5F5F5F5F5F5F5F5F5F5F5F5F5F5F5F5F5F5F5F5F5F5F5F5F5F5F5F5F5F5F5F5F5F5F5F5F5F5F5F5F5F5F5F5F5F5F5F5F5F5F5F5F5F5
310
F5F5F5F5F5F5F5F5F5F5F5F5F5F5F5F5F5F5F5F5F5F5F5F5F5F5F5F5E2F5F5F5F5F5F5F5F5F5F5F5F5F5F5F5F5F5F5F5F5E2E2EFF5F5F5E2F5F5F5F5F5F5F5F5F5F5F5F5F5F5F5F5E2F5F5F5F5F5F5F5F5F5F5F5F5F5F5F5F5F5F5F5F5F5F5F5F5F5F5F5F5F5F5F5F5F5F5F5F5F5F5F5F5F5F5F5F5F5F5F5F5F5F5F5F5F5F5
310
F5F5F5F5F5F5F5F5F5F5F5F5F5F5F5F5F5F5F5F5F5F5F5F5F5F5F5F5F5F5F5F5F5F5F5F5F5F5F5F5F5F5F5F5F5F5F5F5F5F5F5F5F5F5F5F5F5F5F5F5F5F5F5F5F5F5F5F5F5F5F5F5F5F5F5F5F5F5F5F5F5E2F5F5F5F5F5F5F5F5F5F5F5F5F5F5F5F5E2F5F5F5E2E2EFF5F5F5E2F5F5F5F5F5F5F5F5F5F5F5F5F5F5F5F5E2F5
310
F5F5F5F5F5F5F5F5F5F5F5F5F5F5F5F5F5F5F5F5F5F5F5F5F5F5F5F5F5F5F5F5F5F5F5F5F5F5F5F5F5F5F5F5F5F5F5F5F5F5F5F5F5F5F5F5F5F5F5F5F5F5F5F5F5F5F5F5F5F5F5F5F5F5F5F5F5F5F5F5F5F5F5F5F5F5F5F5F5F5F5F5F5F5F5F5F5F5F5F5F5F5F5F5F5F5F5F5F5F5F5F5F5F5F5F5F5F5F5F5F5F5F5F5F5F5F5
310
F5F5F5F5F5F5F5E2F5F5F5F5F5F5F5F5F5F5F5F5F5F5F5F5E2F5F5F5E2E2EFF5F5F5E2F5F5F5F5F5F5F5F5F5F5F5F5F5F5F5F5E2F5F5F5F5F5F5F5F5F5F5F5F5F5F5F5F5F5F5F5F5F5F5F5F5F5F5F5F5F5F5F5F5F5F5F5F5F5F5F5F5F5F5F5F5F5F5F5F5F5F5F5F5F5F5F5F5F5F5F5F5F5F5F5F5F5F5F5F5F5F5F5F5F5F5F5
310
F5F5F5F5F5F5F5F5F5F5F5F5F5F5F5F5F5F5F5F5F5F5F5F5F5F5F5F5F5F5F5F5F5F5F5F5F5F5F5F5F5F5F5F5F5F5F5F5F5F5F5F5F5F5F5F5F5F5F5F5E2F5F5F5F5F5F5F5F5F5F5F5F5F5F5F5F5E2F5F5F5E2E2EFF5F5F5E2F5F5F5F5F5F5F5F5F5F5F5F5F5F5F5F5E2F5F5F5F5F5F5F5F5F5F5F5F5F5F5F5F5F5F5F5F5F5F5
310
F5F5F5F5F5F5F5F5F5F5F5F5F5F5F5F5F5F5F5F5F5F5F5F5F5F5F5F5F5F5F5F5F5F5F5F5F5F5F5F5F5F5F5F5F5F5F5F5F5F5F5F5F5F5F5F5F5F5F5F5F5F5F5F5F5F5F5F5F5F5F5F5F5F5F5F5F5F5F5F5F5F5F5F5F5F5F5F5F5F5F5F5F5F5F5F5F5F5F5F5F5F5F5F5F5F5F5F5F5F5F5F5F5E2F5F5F5F5F5F5F5F5F5F5F5F5F5
310
F5F5F5E2F5F5F5E2E2EFF5F5F5E2F5F5F5F5F5F5F5F5F5F5F5F5F5F5F5F5E2F5F5F5F5F5F5F5F5F5F5F5F5F5F5F5F5F5F5F5F5F5F5F5F5F5F5F5F5F5F5F5F5F5F5F5F5F5F5F5F5F5F5F5F5F5F5F5F5F5F5F5F5F5F5F5F5F5F5F5F5F5F5F5F5F5F5F5F5F5F5F5F5F5F5F5F5F5F5F5F5F5F5F5F5F5F5F5F5F5F5F5F5F5F5F5F5
310
F5F5F5F5F5F5F5F5F5F5F5F5F5F5F5F5F5F5F5F5F5F5F5F5F5F5F5F5F5F5F5F5F5F5F5F5F5F5F5E2F5F5F5F5F5F5F5F5F5F5F5F5F5F5F5F5E2F5F5F5E2E2EFF5F5F5E2F5F5F5F5F5F5F5F5F5F5F5F5F5F5F5F5E2F5F5F5F5F5F5F5F5F5F5F5F5F5F5F5F5F5F5F5F5F5F5F5F5F5F5F5F5F5F5F5F5F5F5F5F5F5F5F5F5F5F5F5
310
F5F5F5F5F5F5F5F5F5F5F5F5F5F5F5F5F5F5F5F5F5F5F5F5F5F5F5F5F5F5F5F5F5F5F5F5F5F5F5F5F5F5F5F5F5F5F5F5F5F5F5F5F5F5F5F5F5F5F5F5F5F5F5F5F5F5F5F5F5F5F5F5F5F5F5F5F5F5F5F5F5F5F5F5F5F5F5F5F5F5F5F5E2F5F5F5F5F5F5F5F5F5F5F5F5F5F5F5F5E2F5F5F5E2E2EFF5F5F5E2F5F5F5F5F5F5F5
310
F5F5F5F5F5F5F5F5F5E2F5F5F5F5F5F5F5F5F5F5F5F5F5F5F5F5F5F5F5F5F5F5F5F5F5F5F5F5F5F5F5F5F5F5F5F5F5F5F5F5F5F5F5F5F5F5F5F5F5F5F5F5F5F5F5F5F5F5F5F5F5F5F5F5F5F5F5F5F5F5F5F5F5F5F5F5F5F5F5F5F5F5F5F5F5F5F5F5F5F5F5F5F5F5F5F5F5F5F5F5F5F5F5F5F5F5F5F5F5F5F5F5F5F5F5F5F5
310
F5F5F5F5F5F5F5F5F5F5F5F5F5F5F5F5F5F5E2F5F5F5F5F5F5F5F5F5F5F5F5F5F5F5F5E2F5F5F5E2E2EFF5F5F5E2F5F5F5F5F5F5F5F5F5F5F5F5F5F5F5F5E2F5F5F5F5F5F5F5F5F5F5F5F5F5F5F5F5F5F5F5F5F5F5F5F5F5F5F5F5F5F5F5F5F5F5F5F5F5F5F5F5F5F5F5F5F5F5F5F5F5F5F5F5F5F5F5F5F5F5F5F5F5F5F5F5
310
F5F5F5F5F5F5F5F5F5F5F5F5F5F5F5F5F5F5F5F5F5F5F5F5F5F5F5F5F5F5F5F5F5F5F5F5F5F5F5F5F5F5F5F5F5F5F5F5F5F5F5F5F5F5F5F5F5F5F5F5F5F5F5F5F5F5F5F5F5F5F5E2F5F5F5F5F5F5F5F5F5F5F5F5F5F5F5F5E2F5F5F5E2E2EFF5F5F5E2F5F5F5F5F5F5F5F5F5F5F5F5F5F5F5F5E2F5F5F5F5F5F5F5F5F5F5F5
310
F5F5F5F5F5F5F5F5F5F5F5F5F5F5F5F5F5F5F5F5F5F5F5F5F5F5F5F5F5F5F5F5F5F5F5F5F5F5F5F5F5F5F5F5F5F5F5F5F5F5F5F5F5F5F5F5F5F5F5F5F5F5F5F5F5F5F5F5F5F5F5F5F5F5F5F5F5F5F5F5F5F5F5F5F5F5F5F5F5F5F5F5F5F5F5F5F5F5F5F5F5F5F5F5F5F5F5F5F5F5F5F5F5F5F5F5F5F5F5F5F5F5F5F5E2F5F5
310
F5F5F5F5F5F5F5F5F5F5F5F5F5F5E2F5F5F5E2E2EFF5F5F5E2F5F5F5F5F5F5F5F5F5F5F5F5F5F5F5F5E2F5F5F5F5F5F5F5F5F5F5F5F5F5F5F5F5F5F5F5F5F5F5F5F5F5F5F5F5F5F5F5F5F5F5F5F5F5F5F5F5F5F5F5F5F5F5F5F5F5F5F5F5F5F5F5F5F5F5F5F5F5F5F5F5F5F5F5F5F5F5F5F5F5F5F5F5F5F5F5F5F5F5F5F5F5
310
F5F5F5F5F5F5F5F5F5F5F5F5F5F5F5F5F5F5F5F5F5F5F5F5F5F5F5F5F5F5F5F5F5F5F5F5F5F5F5F5F5F5F5F5F5F5F5F5F5F5E2F5F5F5F5F5F5F5F5F5F5F5F5F5F5F5F5E2F5F5F5E2E2EFF5F5F5E2F5F5F5F5F5F5F5F5F5F5F5F5F5F5F5F5E2F5F5F5F5F5F5F5F5F5F5F5F5F5F5F5F5F5F5F5F5F5F5F5F5F5F5F5F5F5F5F5F5
310
F5F5F5F5F5F5F5F5F5F5F5F5F5F5F5F5F5F5F5F5F5F5F5F5F5F5F5F5F5F5F5F5F5F5F5F5F5F5F5F5F5F5F5F5F5F5F5F5F5F5F5F5F5F5F5F5F5F5F5F5F5F5F5F5F5F5F5F5F5F5F5F5F5F5F5F5F5F5F5F5F5F5F5F5F5F5F5F5F5F5F5F5F5F5F5F5F5F5F5F5F5F5F5E2F5F5F5F5F5F5F5F5F5F5F5F5F5F5F5F5E2F5F5F5E2E2EF
310
F5F5F5E2F5F5F5F5F5F5F5F5F5F5F5F5F5F5F5F5E2F5F5F5F5F5F5F5F5F5F5F5F5F5F5F5F5F5F5F5F5F5F5F5F5F5F5F5F5F5F5F5F5F5F5F5F5F5F5F5F5F5F5F5F5F5F5F5F5F5F5F5F5F5F5F5F5F5F5F5F5F5F5F5F5F5F5F5F5F5F5F5F5F5F5F5F5F5F5F5F5F5F5F5F5F5F5F5F5F5F5F5F5F5F5F5F5F5F5F5F5F5F5F5F5F5F5
310
F5F5F5F5F5F5F5F5F5F5F5F5F5F5F5F5F5F5F5F5F5F5F5F5F5F5F5F5F5E2F5F5F5F5F5F5F5F5F5F5F5F5F5F5F5F5E2F5F5F5E2E2EFF5F5F5E2F5F5F5F5F5F5F5F5F5F5F5F5F5F5F5F5E2F5F5F5F5F5F5F5F5F5F5F5F5F5F5F5F5F5F5F5F5F5F5F5F5F5F5F5F5F5F5F5F5F5F5F5F5F5F5F5F5F5F5F5F5F5F5F5F5F5F5F5F5F5
310
F5F5F5F5F5F5F5F5F5F5F5F5F5F5F5F5F5F5F5F5F5F5F5F5F5F5F5F5F5F5F5F5F5F5F5F5F5F5F5F5F5F5F5F5F5F5F5F5F5F5F5F5F5F5F5F5F5F5F5F5F5F5F5F5F5F5F5F5F5F5F5F5F5F5F5F5F5F5F5F5F5F5E2F5F5F5F5F5F5F5F5F5F5F5F5F5F5F5F5E2F5F5F5E2E2EFF5F5F5E2F5F5F5F5F5F5F5F5F5F5F5F5F5F5F5F5E2
310
F5F5F5F5F5F5F5F5F5F5F5F5F5F5F5F5F5F5F5F5F5F5F5F5F5F5F5F5F5F5F5F5F5F5F5F5F5F5F5F5F5F5F5F5F5F5F5F5F5F5F5F5F5F5F5F5F5F5F5F5F5F5F5F5F5F5F5F5F5F5F5F5F5F5F5F5F5F5F5F5F5F5F5F5F5F5F5F5F5F5F5F5F5F5F5F5F5F5F5F5F5F5F5F5F5F5F5F5F5F5F5F5F5F5F5F5F5F5F5F5F5F5F5F5F5F5F5
310
F5F5F5F5F5F5F5F5E2F5F5F5F5F5F5F5F5F5F5F5F5F5F5F5F5E2F5F5F5E2E2EFF5F5F5E2F5F5F5F5F5F5F5F5F5F5F5F5F5F5F5F5E2F5F5F5F5F5F5F5F5F5F5F5F5F5F5F5F5F5F5F5F5F5F5F5F5F5F5F5F5F5F5F5F5F5F5F5F5F5F5F5F5F5F5F5F5F5F5F5F5F5F5F5F5F5F5F5F5F5F5F5F5F5F5F5F5F5F5F5F5F5F5F5F5F5F5
310
F5F5F5F5F5F5F5F5F5F5F5F5F5F5F5F5F5F5F5F5F5F5F5F5F5F5F5F5F5F5F5F5F5F5F5F5F5F5F5F5F5F5F5F5F5F5F5F5F5F5F5F5F5F5F5F5F5F5F5F5F5E2F5F5F5F5F5F5F5F5F5F5F5F5F5F5F5F5E2F5F5F5E2E2EFF5F5F5E2F5F5F5F5F5F5F5F5F5F5F5F5F5F5F5F5E2F5F5F5F5F5F5F5F5F5F5F5F5F5F5F5F5F5F5F5F5F5
310
F5F5F5F5F5F5F5F5F5F5F5F5F5F5F5F5F5F5F5F5F5F5F5F5F5F5F5F5F5F5F5F5F5F5F5F5F5F5F5F5F5F5F5F5F5F5F5F5F5F5F5F5F5F5F5F5F5F5F5F5F5F5F5F5F5F5F5F5F5F5F5F5F5F5F5F5F5F5F5F5F5F5F5F5F5F5F5F5F5F5F5F5F5F5F5F5F5F5F5F5F5F5F5F5F5F5F5F5F5F5F5F5F5F5E2F5F5F5F5F5F5F5F5F5F5F5F5
310
F5F5F5F5E2F5F5F5E2E2EFF5F5F5E2F5F5F5F5F5F5F5F5F5F5F5F5F5F5F5F5E2F5F5F5F5F5F5F5F5F5F5F5F5F5F5F5F5F5F5F5F5F5F5F5F5F5F5F5F5F5F5F5F5F5F5F5F5F5F5F5F5F5F5F5F5F5F5F5F5F5F5F5F5F5F5F5F5F5F5F5F5F5F5F5F5F5F5F5F5F5F5F5F5F5F5F5F5F5F5F5F5F5F5F5F5F5F5F5F5F5F5F5F5F5F5F5
310
F5F5F5F5F5F5F5F5F5F5F5F5F5F5F5F5F5F5F5F5F5F5F5F5F5F5F5F5F5F5F5F5F5F5F5F5F5F5F5F5E2F5F5F5F5F5F5F5F5F5F5F5F5F5F5F5F5E2F5F5F5E2E2EFF5F5F5F5F5F5F5F5F5F5F5F5F5F5F5F5F5F5F5F5E2F5F5F5F5F5F5F5F5F5F5F5F5F5F5F5F5F5F5F5F5F5F5F5F5F5F5F5F5F5F5F5F5F5F5F5F5F5F5F5F5F5F5
310
F5F5F5F5F5F5F5F5F5F5F5F5F5F5F5F5F5F5F5F5F5F5F5F5F5F5F5F5F5F5F5F5F5F5F5F5F5F5F5F5F5F5F5F5F5F5F5F5F5F5F5F5F5F5F5F5F5F5F5F5F5F5F5F5F5F5F5F5F5F5F5F5F5F5F5F5F5F5F5F5F5F5F5F5F5F5F5F5F5F5F5F5F5E2F5F5F5F5F5F5F5F5F5F5F5F5F5F5F5F5F5F5F5F5E2E2EFF5F5F5F5F5F5F5F5F5F5
310
F5F5F5F5F5F5F5F5F5F5E2F5F5F5F5F5F5F5F5F5F5F5F5F5F5F5F5F5F5F5F5F5F5F5F5F5F5F5F5F5F5F5F5F5F5F5F5F5F5F5F5F5F5F5F5F5F5F5F5F5F5F5F5F5F5F5F5F5F5F5F5F5F5F5F5F5F5F5F5F5F5F5F5F5F5F5F5F5F5F5F5F5F5F5F5F5F5F5F5F5F5F5F5F5F5F5F5F5F5F5F5F5F5F5F5F5F5F5F5F5F5F5F5F5F5F5F5
310
F5F5F5F5F5F5F5F5F5F5F5F5F5F5F5F5F5F5F5E2F5F5F5F5F5F5F5F5F5F5F5F5F5F5F5F5F5F5F5F5E2E2EFF5F5F5F5F5F5F5F5F5F5F5F5F5F5F5F5F5F5F5F5E2F5F5F5F5F5F5F5F5F5F5F5F5F5F5F5F5F5F5F5F5F5F5F5F5F5F5F5F5F5F5F5F5F5F5F5F5F5F5F5F5F5F5F5F5F5F5F5F5F5F5F5F5F5F5F5F5F5F5F5F5F5F5F5
310
F5F5F5F5F5F5F5F5F5F5F5F5F5F5F5F5F5F5F5F5F5F5F5F5F5F5F5F5F5F5F5F5F5F5F5F5F5F5F5F5F5F5F5F5F5F5F5F5F5F5F5F5F5F5F5F5F5F5F5F5F5F5F5F5F5F5F5F5F5F5F5F5E2F5F5F5F5F5F5F5F5F5F5F5F5F5F5F5F5F5F5F5F5E2E2EFF5F5F5F5F5F5F5F5F5F5F5F5F5F5F5F5F5F5F5F5E2F5F5F5F5F5F5F5F5F5F5
310
F5F5F5F5F5F5F5F5F5F5F5F5F5F5F5F5F5F5F5F5F5F5F5F5F5F5F5F5F5F5F5F5F5F5F5F5F5F5F5F5F5F5F5F5F5F5F5F5F5F5F5F5F5F5F5F5F5F5F5F5F5F5F5F5F5F5F5F5F5F5F5F5F5F5F5F5F5F5F5F5F5F5F5F5F5F5F5F5F5F5F5F5F5F5F5F5F5F5F5F5F5F5F5F5F5F5F5F5F5F5F5F5F5F5F5F5F5F5F5F5F5F5F5F5F5E2F5
310
F5F5F5F5F5F5F5F5F5F5F5F5F5F5F5F5F5F5F5E2E2EFF5F5F5F5F5F5F5F5F5F5F5F5F5F5F5F5F5F5F5F5E2F5F5F5F5F5F5F5F5F5F5F5F5F5F5F5F5F5F5F5F5F5F5F5F5F5F5F5F5F5F5F5F5F5F5F5F5F5F5F5F5F5F5F5F5F5F5F5F5F5F5F5F5F5F5F5F5F5F5F5F5F5F5F5F5F5F5F5F5F5F5F5F5F5F5F5F5F5F5F5F5F5F5F5F5
310
F5F5F5F5F5F5F5F5F5F5F5F5F5F5F5F5F5F5F5F5F5F5F5F5F5F5F5F5F5F5F5F5F5F5F5F5F5F5F5F5F5F5F5F5F5F5F5F5F5F5F5E2F5F5F5F5F5F5F5F5F5F5F5F5F5F5F5F5F5F5F5F5E2E2EFF5F5F5F5F5F5F5F5F5F5F5F5F5F5F5F5F5F5F5F5E2F5F5F5F5F5F5F5F5F5F5F5F5F5F5F5F5F5F5F5F5F5F5F5F5F5F5F5F5F5F5F5
310
F5F5F5F5F5F5F5F5F5F5F5F5F5F5F5F5F5F5F5F5F5F5F5F5F5F5F5F5F5F5F5F5F5F5F5F5F5F5F5F5F5F5F5F5F5F5F5F5F5F5F5F5F5F5F5F5F5F5F5F5F5F5F5F5F5F5F5F5F5F5F5F5F5F5F5F5F5F5F5F5F5F5F5F5F5F5F5F5F5F5F5F5F5F5F5F5F5F5F5F5F5F5F5F5E2F5F5F5F5F5F5F5F5F5F5F5F5F5F5F5F5F5F5F5F5E2E2
310
EFF5F5F5F5F5F5F5F5F5F5F5F5F5F5F5F5F5F5F5F5E2F5F5F5F5F5F5F5F5F5F5F5F5F5F5F5F5F5F5F5F5F5F5F5F5F5F5F5F5F5F5F5F5F5F5F5F5F5F5F5F5F5F5F5F5F5F5F5F5F5F5F5F5F5F5F5F5F5F5F5F5F5F5F5F5F5F5F5F5F5F5F5F5F5F5F5F5F5F5F5F5F5F5F5F5F5F5F5F5F5F5F5F5F5F5F5F5F5F5F5F5F5F5F5F5F5
310
F5F5F5F5F5F5F5F5F5F5F5F5F5F5F5F5F5F5F5F5F5F5F5F5F5F5F5F5F5F5E2F5F5F5F5F5F5F5F5F5F5F5F5F5F5F5F5F5F5F5F5E2E2EFF5F5F5F5F5F5F5F5F5F5F5F5F5F5F5F5F5F5F5F5E2F5F5F5F5F5F5F5F5F5F5F5F5F5F5F5F5F5F5F5F5F5F5F5F5F5F5F5F5F5F5F5F5F5F5F5F5F5F5F5F5F5F5F5F5F5F5F5F5F5F5F5F5
310
F5F5F5F5F5F5F5F5F5F5F5F5F5F5F5F5F5F5F5F5F5F5F5F5F5F5F5F5F5F5F5F5F5F5F5F5F5F5F5F5F5F5F5F5F5F5F5F5F5F5F5F5F5F5F5F5F5F5F5F5F5F5F5F5F5F5F5F5F5F5F5F5F5F5F5F5F5F5F5F5F5F5F5E2F5F5F5F5F5F5F5F5F5F5F5F5F5F5F5F5F5F5F5F5E2E2EFF5F5F5F5F5F5F5F5F5F5F5F5F5F5F5F5F5F5F5F5
310
E2F5F5F5F5F5F5F5F5F5F5F5F5F5F5F5F5F5F5F5F5F5F5F5F5F5F5F5F5F5F5F5F5F5F5F5F5F5F5F5F5F5F5F5F5F5F5F5F5F5F5F5F5F5F5F5F5F5F5F5F5F5F5F5F5F5F5F5F5F5F5F5F5F5F5F5F5F5F5F5F5F5F5F5F5F5F5F5F5F5F5F5F5F5F5F5F5F5F5F5F5F5F5F5F5F5F5F5F5F5F5F5F5F5F5F5F5F5F5F5F5F5F5F5F5F5F5
310
F5F5F5F5F5F5F5F5F5E2F5F5F5F5F5F5F5F5F5F5F5F5F5F5F5F5F5F5F5F5E2E2EFF5F5F5E2F5F5F5F5F5F5F5F5F5F5F5F5F5F5F5F5E2F5F5F5F5F5F5F5F5F5F5F5F5F5F5F5F5F5F5F5F5F5F5F5F5F5F5F5F5F5F5F5F5F5F5F5F5F5F5F5F5F5F5F5F5F5F5F5F5F5F5F5F5F5F5F5F5F5F5F5F5F5F5F5F5F5F5F5F5F5F5F5F5F5
310
F5F5F5F5F5F5F5F5F5F5F5F5F5F5F5F5F5F5F5F5F5F5F5F5F5F5F5F5F5F5F5F5F5F5F5F5F5F5F5F5F5F5F5F5F5F5F5F5F5F5F5F5F5F5F5F5F5F5F5F5F5F5E2F5F5F5F5F5F5F5F5F5F5F5F5F5F5F5F5E2F5F5F5E2E2EFF5F5F5E2F5F5F5F5F5F5F5F5F5F5F5F5F5F5F5F5E2F5F5F5F5F5F5F5F5F5F5F5F5F5F5F5F5F5F5F5F5
310
F5F5F5F5F5F5F5F5F5F5F5F5F5F5F5F5F5F5F5F5F5F5F5F5F5F5F5F5F5F5F5F5F5F5F5F5F5F5F5F5F5F5F5F5F5F5F5F5F5F5F5F5F5F5F5F5F5F5F5F5F5F5F5F5F5F5F5F5F5F5F5F5F5F5F5F5F5F5F5F5F5F5F5F5F5F5F5F5F5F5F5F5F5F5F5F5F5F5F5F5F5F5F5F5F5F5F5F5F5F5F5F5F5F5F5E2F5F5F5F5F5F5F5F5F5F5F5
310
F5F5F5F5F5E2F5F5F5E2E2EFF5F5F5E2F5F5F5F5F5F5F5F5F5F5F5F5F5F5F5F5E2F5F5F5F5F5F5F5F5F5F5F5F5F5F5F5F5F5F5F5F5F5F5F5F5F5F5F5F5F5F5F5F5F5F5F5F5F5F5F5F5F5F5F5F5F5F5F5F5F5F5F5F5F5F5F5F5F5F5F5F5F5F5F5F5F5F5F5F5F5F5F5F5F5F5F5F5F5F5F5F5F5F5F5F5F5F5F5F5F5F5F5F5F5F5
310
F5F5F5F5F5F5F5F5F5F5F5F5F5F5F5F5F5F5F5F5F5F5F5F5F5F5F5F5F5F5F5F5F5F5F5F5F5F5F5F5F5E2F5F5F5F5F5F5F5F5F5F5F5F5F5F5F5F5E2F5F5F5E2E2EFF5F5F5E2F5F5F5F5F5F5F5F5F5F5F5F5F5F5F5F5E2F5F5F5F5F5F5F5F5F5F5F5F5F5F5F5F5F5F5F5F5F5F5F5F5F5F5F5F5F5F5F5F5F5F5F5F5F5F5F5F5F5
310
F5F5F5F5F5F5F5F5F5F5F5F5F5F5F5F5F5F5F5F5F5F5F5F5F5F5F5F5F5F5F5F5F5F5F5F5F5F5F5F5F5F5F5F5F5F5F5F5F5F5F5F5F5F5F5F5F5F5F5F5F5F5F5F5F5F5F5F5F5F5F5F5F5F5F5F5F5F5F5F5F5F5F5F5F5F5F5F5F5F5F5F5F5F5E2F5F5F5F5F5F5F5F5F5F5F5F5F5F5F5F5E2F5F5F5E2E2EFF5F5F5E2F5F5F5F5F5
310
F5F5F5F5F5F5F5F5F5F5F5E2F5F5F5F5F5F5F5F5F5F5F5F5F5F5F5F5F5F5F5F5F5F5F5F5F5F5F5F5F5F5F5F5F5F5F5F5F5F5F5F5F5F5F5F5F5F5F5F5F5F5F5F5F5F5F5F5F5F5F5F5F5F5F5F5F5F5F5F5F5F5F5F5F5F5F5F5F5F5F5F5F5F5F5F5F5F5F5F5F5F5F5F5F5F5F5F5F5F5F5F5F5F5F5F5F5F5F5F5F5F5F5F5F5F5F5
310
F5F5F5F5F5F5F5F5F5F5F5F5F5F5F5F5F5F5F5F5E2F5F5F5F5F5F5F5F5F5F5F5F5F5F5F5F5E2F5F5F5E2E2EFF5F5F5E2F5F5F5F5F5F5F5F5F5F5F5F5F5F5F5F5E2F5F5F5F5F5F5F5F5F5F5F5F5F5F5F5F5F5F5F5F5F5F5F5F5F5F5F5F5F5F5F5F5F5F5F5F5F5F5F5F5F5F5F5F5F5F5F5F5F5F5F5F5F5F5F5F5F5F5F5F5F5F5
310
F5F5F5F5F5F5F5F5F5F5F5F5F5F5F5F5F5F5F5F5F5F5F5F5F5F5F5F5F5F5F5F5F5F5F5F5F5F5F5F5F5F5F5F5F5F5F5F5F5F5F5F5F5F5F5F5F5F5F5F5F5F5F5F5F5F5F5F5F5F5F5F5F5E2F5F5F5F5F5F5F5F5F5F5F5F5F5F5F5F5E2F5F5F5E2E2EFF5F5F5E2F5F5F5F5F5F5F5F5F5F5F5F5F5F5F5F5E2F5F5F5F5F5F5F5F5F5
310
F5F5F5F5F5F5F5F5F5F5F5F5F5F5F5F5F5F5F5F5F5F5F5F5F5F5F5F5F5F5F5F5F5F5F5F5F5F5F5F5F5F5F5F5F5F5F5F5F5F5F5F5F5F5F5F5F5F5F5F5F5F5F5F5F5F5F5F5F5F5F5F5F5F5F5F5F5F5F5F5F5F5F5F5F5F5F5F5F5F5F5F5F5F5F5F5F5F5F5F5F5F5F5F5F5F5F5F5F5F5F5F5F5F5F5F5F5F5F5F5F5F5F5F5F5F5E2
310
F5F5F5F5F5F5F5F5F5F5F5F5F5F5F5F5E2F5F5F5E2E2EFF5F5F5E2F5F5F5F5F5F5F5F5F5F5F5F5F5F5F5F5E2F5F5F5F5F5F5F5F5F5F5F5F5F5F5F5F5F5F5F5F5F5F5F5F5F5F5F5F5F5F5F5F5F5F5F5F5F5F5F5F5F5F5F5F5F5F5F5F5F5F5F5F5F5F5F5F5F5F5F5F5F5F5F5F5F5F5F5F5F5F5F5F5F5F5F5F5F5F5F5F5F5F5F5
310
F5F5F5F5F5F5F5F5F5F5F5F5F5F5F5F5F5F5F5F5F5F5F5F5F5F5F5F5F5F5F5F5F5F5F5F5F5F5F5F5F5F5F5F5F5F5F5F5F5F5F5F5E2F5F5F5F5F5F5F5F5F5F5F5F5F5F5F5F5E2F5F5F5E2E2EFF5F5F5E2F5F5F5F5F5F5F5F5F5F5F5F5F5F5F5F5E2F5F5F5F5F5F5F5F5F5F5F5F5F5F5F5F5F5F5F5F5F5F5F5F5F5F5F5F5F5F5
310
F5F5F5F5F5F5F5F5F5F5F5F5F5F5F5F5F5F5F5F5F5F5F5F5F5F5F5F5F5F5F5F5F5F5F5F5F5F5F5F5F5F5F5F5F5F5F5F5F5F5F5F5F5F5F5F5F5F5F5F5F5F5F5F5F5F5F5F5F5F5F5F5F5F5F5F5F5F5F5F5F5F5F5F5F5F5F5F5F5F5F5F5F5F5F5F5F5F5F5F5F5F5F5F5F5E2F5F5F5F5F5F5F5F5F5F5F5F5F5F5F5F5E2F5F5F5E2
310
E2EFF5F5F5E2F5F5F5F5F5F5F5F5F5F5F5F5F5F5F5F5E2F5F5F5F5F5F5F5F5F5F5F5F5F5F5F5F5F5F5F5F5F5F5F5F5F5F5F5F5F5F5F5F5F5F5F5F5F5F5F5F5F5F5F5F5F5F5F5F5F5F5F5F5F5F5F5F5F5F5F5F5F5F5F5F5F5F5F5F5F5F5F5F5F5F5F5F5F5F5F5F5F5F5F5F5F5F5F5F5F5F5F5F5F5F5F5F5F5F5F5F5F5F5F5F5
310
F5F5F5F5F5F5F5F5F5F5F5F5F5F5F5F5F5F5F5F5F5F5F5F5F5F5F5F5F5F5F5E2F5F5F5F5F5F5F5F5F5F5F5F5F5F5F5F5E2F5F5F5E2E2EFF5F5F5E2F5F5F5F5F5F5F5F5F5F5F5F5F5F5F5F5E2F5F5F5F5F5F5F5F5F5F5F5F5F5F5F5F5F5F5F5F5F5F5F5F5F5F5F5F5F5F5F5F5F5F5F5F5F5F5F5F5F5F5F5F5F5F5F5F5F5F5F5
310
F5F5F5F5F5F5F5F5F5F5F5F5F5F5F5F5F5F5F5F5F5F5F5F5F5F5F5F5F5F5F5F5F5F5F5F5F5F5F5F5F5F5F5F5F5F5F5F5F5F5F5F5F5F5F5F5F5F5F5F5F5F5F5F5F5F5F5F5F5F5F5F5F5F5F5F5F5F5F5F5F5F5F5F5E2F5F5F5F5F5F5F5F5F5F5F5F5F5F5F5F5E2F5F5F5E2E2EFF5F5F5E2F5F5F5F5F5F5F5F5F5F5F5F5F5F5F5
310
F5E2F5F5F5F5F5F5F5F5F5F5F5F5F5F5F5F5F5F5F5F5F5F5F5F5F5F5F5F5F5F5F5F5F5F5F5F5F5F5F5F5F5F5F5F5F5F5F5F5F5F5F5F5F5F5F5F5F5F5F5F5F5F5F5F5F5F5F5F5F5F5F5F5F5F5F5F5F5F5F5F5F5F5F5F5F5F5F5F5F5F5F5F5F5F5F5F5F5F5F5F5F5F5F5F5F5F5F5F5F5F5F5F5F5F5F5F5F5F5F5F5F5F5F5F5F5
310
F5F5F5F5F5F5F5F5F5F5E2F5F5F5F5F5F5F5F5F5F5F5F5F5F5F5F5E2F5F5F5E2E2EFF5F5F5E2F5F5F5F5F5F5F5F5F5F5F5F5F5F5F5F5E2F5F5F5F5F5F5F5F5F5F5F5F5F5F5F5F5F5F5F5F5F5F5F5F5F5F5F5F5F5F5F5F5F5F5F5F5F5F5F5F5F5F5F5F5F5F5F5F5F5F5F5F5F5F5F5F5F5F5F5F5F5F5F5F5F5F5F5F5F5F5F5F5
310
F5F5F5F5F5F5F5F5F5F5F5F5F5F5F5F5F5F5F5F5F5F5F5F5F5F5F5F5F5F5F5F5F5F5F5F5F5F5F5F5F5F5F5F5F5F5F5F5F5F5F5F5F5F5F5F5F5F5F5F5F5F5F5E2F5F5F5F5F5F5F5F5F5F5F5F5F5F5F5F5E2F5F5F5E2E2EFF5F5F5E2F5F5F5F5F5F5F5F5F5F5F5F5F5F5F5F5E2F5F5F5F5F5F5F5F5F5F5F5F5F5F5F5F5F5F5F5
310
F5F5F5F5F5F5F5F5F5F5F5F5F5F5F5F5F5F5F5F5F5F5F5F5F5F5F5F5F5F5F5F5F5F5F5F5F5F5F5F5F5F5F5F5F5F5F5F5F5F5F5F5F5F5F5F5F5F5F5F5F5F5F5F5F5F5F5F5F5F5F5F5F5F5F5F5F5F5F5F5F5F5F5F5F5F5F5F5F5F5F5F5F5F5F5F5F5F5F5F5F5F5F5F5F5F5F5F5F5F5F5F5F5F5F5F5E2F5F5F5F5F5F5F5F5F5F5
310
F5F5F5F5F5F5E2F5F5F5E2E2EFF5F5F5E2F5F5F5F5F5F5F5F5F5F5F5F5F5F5F5F5E2F5F5F5F5F5F5F5F5F5F5F5F5F5F5F5F5F5F5F5F5F5F5F5F5F5F5F5F5F5F5F5F5F5F5F5F5F5F5F5F5F5F5F5F5F5F5F5F5F5F5F5F5F5F5F5F5F5F5F5F5F5F5F5F5F5F5F5F5F5F5F5F5F5F5F5F5F5F5F5F5F5F5F5F5F5F5F5F5F5F5F5F5F5
310
F5F5F5F5F5F5F5F5F5F5F5F5F5F5F5F5F5F5F5F5F5F5F5F5F5F5F5F5F5F5F5F5F5F5F5F5F5F5F5F5F5F5E2F5F5F5F5F5F5F5F5F5F5F5F5F5F5F5F5E2F5F5F5E2E2EFF5F5F5E2F5F5F5F5F5F5F5F5F5F5F5F5F5F5F5F5E2F5F5F5F5F5F5F5F5F5F5F5F5F5F5F5F5F5F5F5F5F5F5F5F5F5F5F5F5F5F5F5F5F5F5F5F5F5F5F5F5
310
F5F5F5F5F5F5F5F5F5F5F5F5F5F5F5F5F5F5F5F5F5F5F5F5F5F5F5F5F5F5F5F5F5F5F5F5F5F5F5F5F5F5F5F5F5F5F5F5F5F5F5F5F5F5F5F5F5F5F5F5F5F5F5F5F5F5F5F5F5F5F5F5F5F5F5F5F5F5F5F5F5F5F5F5F5F5F5F5F5F5F5F5F5F5F5E2F5F5F5F5F5F5F5F5F5F5F5F5F5F5F5F5E2F5F5F5E2E2EFF5F5F5E2F5F5F5F5
310
F5F5F5F5F5F5F5F5F5F5F5F5E2F5F5F5F5F5F5F5F5F5F5F5F5F5F5F5F5F5F5F5F5F5F5F5F5F5F5F5F5F5F5F5F5F5F5F5F5F5F5F5F5F5F5F5F5F5F5F5F5F5F5F5F5F5F5F5F5F5F5F5F5F5F5F5F5F5F5F5F5F5F5F5F5F5F5F5F5F5F5F5F5F5F5F5F5F5F5F5F5F5F5F5F5F5F5F5F5F5F5F5F5F5F5F5F5F5F5F5F5F5F5F5F5F5F5
310
F5F5F5F5F5F5F5F5F5F5F5F5F5F5F5F5F5F5F5F5F5E2F5F5F5F5F5F5F5F5F5F5F5F5F5F5F5F5E2F5F5F5E2E2EFF5F5F5F5F5F5F5F5F5F5F5F5F5F5F5F5F5F5F5F5E2F5F5F5F5F5F5F5F5F5F5F5F5F5F5F5F5F5F5F5F5F5F5F5F5F5F5F5F5F5F5F5F5F5F5F5F5F5F5F5F5F5F5F5F5F5F5F5F5F5F5F5F5F5F5F5F5F5F5F5F5F5
310
F5F5F5F5F5F5F5F5F5F5F5F5F5F5F5F5F5F5F5F5F5F5F5F5F5F5F5F5F5F5F5F5F5F5F5F5F5F5F5F5F5F5F5F5F5F5F5F5F5F5F5F5F5F5F5F5F5F5F5F5F5F5F5F5F5F5F5F5F5F5F5F5F5F5E2F5F5F5F5F5F5F5F5F5F5F5F5F5F5F5F5F5F5F5F5E2E2EFF5F5F5F5F5F5F5F5F5F5F5F5F5F5F5F5F5F5F5F5E2F5F5F5F5F5F5F5F5
310
F5F5F5F5F5F5F5F5F5F5F5F5F5F5F5F5F5F5F5F5F5F5F5F5F5F5F5F5F5F5F5F5F5F5F5F5F5F5F5F5F5F5F5F5F5F5F5F5F5F5F5F5F5F5F5F5F5F5F5F5F5F5F5F5F5F5F5F5F5F5F5F5F5F5F5F5F5F5F5F5F5F5F5F5F5F5F5F5F5F5F5F5F5F5F5F5F5F5F5F5F5F5F5F5F5F5F5F5F5F5F5F5F5F5F5F5F5F5F5F5F5F5F5F5F5F5F5
310
E2F5F5F5F5F5F5F5F5F5F5F5F5F5F5F5F5F5F5F5F5E2E2EFF5F5F5F5F5F5F5F5F5F5F5F5F5F5F5F5F5F5F5F5E2F5F5F5F5F5F5F5F5F5F5F5F5F5F5F5F5F5F5F5F5F5F5F5F5F5F5F5F5F5F5F5F5F5F5F5F5F5F5F5F5F5F5F5F5F5F5F5F5F5F5F5F5F5F5F5F5F5F5F5F5F5F5F5F5F5F5F5F5F5F5F5F5F5F5F5F5F5F5F5F5F5F5
310
F5F5F5F5F5F5F5F5F5F5F5F5F5F5F5F5F5F5F5F5F5F5F5F5F5F5F5F5F5F5F5F5F5F5F5F5F5F5F5F5F5F5F5F5F5F5F5F5F5F5F5F5F5E2F5F5F5F5F5F5F5F5F5F5F5F5F5F5F5F5F5F5F5F5E2E2EFF5F5F5F5F5F5F5F5F5F5F5F5F5F5F5F5F5F5F5F5E2F5F5F5F5F5F5F5F5F5F5F5F5F5F5F5F5F5F5F5F5F5F5F5F5F5F5F5F5F5
310
F5F5F5F5F5F5F5F5F5F5F5F5F5F5F5F5F5F5F5F5F5F5F5F5F5F5F5F5F5F5F5F5F5F5F5F5F5F5F5F5F5F5F5F5F5F5F5F5F5F5F5F5F5F5F5F5F5F5F5F5F5F5F5F5F5F5F5F5F5F5F5F5F5F5F5F5F5F5F5F5F5F5F5F5F5F5F5F5F5F5F5F5F5F5F5F5F5F5F5F5F5F5F5F5F5F5E2F5F5F5F5F5F5F5F5F5F5F5F5F5F5F5F5F5F5F5F5
310
E2E2EFF5F5F5F5F5F5F5F5F5F5F5F5F5F5F5F5F5F5F5F5E2F5F5F5F5F5F5F5F5F5F5F5F5F5F5F5F5F5F5F5F5F5F5F5F5F5F5F5F5F5F5F5F5F5F5F5F5F5F5F5F5F5F5F5F5F5F5F5F5F5F5F5F5F5F5F5F5F5F5F5F5F5F5F5F5F5F5F5F5F5F5F5F5F5F5F5F5F5F5F5F5F5F5F5F5F5F5F5F5F5F5F5F5F5F5F5F5F5F5F5F5F5F5F5
310
F5F5F5F5F5F5F5F5F5F5F5F5F5F5F5F5F5F5F5F5F5F5F5F5F5F5F5F5F5F5F5F5E2F5F5F5F5F5F5F5F5F5F5F5F5F5F5F5F5F5F5F5F5E2E2EFF5F5F5F5F5F5F5F5F5F5F5F5F5F5F5F5F5F5F5F5E2F5F5F5F5F5F5F5F5F5F5F5F5F5F5F5F5F5F5F5F5F5F5F5F5F5F5F5F5F5F5F5F5F5F5F5F5F5F5F5F5F5F5F5F5F5F5F5F5F5F5
310
F5F5F5F5F5F5F5F5F5F5F5F5F5F5F5F5F5F5F5F5F5F5F5F5F5F5F5F5F5F5F5F5F5F5F5F5F5F5F5F5F5F5F5F5F5F5F5F5F5F5F5F5F5F5F5F5F5F5F5F5F5F5F5F5F5F5F5F5F5F5F5F5F5F5F5F5F5F5F5F5F5F5F5F5F5E2F5F5F5F5F5F5F5F5F5F5F5F5F5F5F5F5F5F5F5F5E2E2EFF5F5F5F5F5F5F5F5F5F5F5F5F5F5F5F5F5F5
310
F5F5E2F5F5F5F5F5F5F5F5F5F5F5F5F5F5F5F5F5F5F5F5F5F5F5F5F5F5F5F5F5F5F5F5F5F5F5F5F5F5F5F5F5F5F5F5F5F5F5F5F5F5F5F5F5F5F5F5F5F5F5F5F5F5F5F5F5F5F5F5F5F5F5F5F5F5F5F5F5F5F5F5F5F5F5F5F5F5F5F5F5F5F5F5F5F5F5F5F5F5F5F5F5F5F5F5F5F5F5F5F5F5F5F5F5F5F5F5F5F5F5F5F5F5F5F5
310
F5F5F5F5F5F5F5F5F5F5F5E2F5F5F5F5F5F5F5F5F5F5F5F5F5F5F5F5F5F5F5F5E2E2EFF5F5F5F5F5F5F5F5F5F5F5F5F5F5F5F5F5F5F5F5E2F5F5F5F5F5F5F5F5F5F5F5F5F5F5F5F5F5F5F5F5F5F5F5F5F5F5F5F5F5F5F5F5F5F5F5F5F5F5F5F5F5F5F5F5F5F5F5F5F5F5F5F5F5F5F5F5F5F5F5F5F5F5F5F5F5F5F5F5F5F5F5
310
F5F5F5F5F5F5F5F5F5F5F5F5F5F5F5F5F5F5F5F5F5F5F5F5F5F5F5F5F5F5F5F5F5F5F5F5F5F5F5F5F5F5F5F5F5F5F5F5F5F5F5F5F5F5F5F5F5F5F5F5F5F5F5F5E2F5F5F5F5F5F5F5F5F5F5F5F5F5F5F5F5F5F5F5F5E2E2EFF5F5F5F5F5F5F5F5F5F5F5F5F5F5F5F5F5F5F5F5E2F5F5F5F5F5F5F5F5F5F5F5F5F5F5F5F5F5F5
310
F5F5F5F5F5F5F5F5F5F5F5F5F5F5F5F5F5F5F5F5F5F5F5F5F5F5F5F5F5F5F5F5F5F5F5F5F5F5F5F5F5F5F5F5F5F5F5F5F5F5F5F5F5F5F5F5F5F5F5F5F5F5F5F5F5F5F5F5F5F5F5F5F5F5F5F5F5F5F5F5F5F5F5F5F5F5F5F5F5F5F5F5F5F5F5F5F5F5F5F5F5F5F5F5F5F5F5F5F5F5F5F5F5F5F5F5F5E2F5F5F5F5F5F5F5F5F5
310
F5F5F5F5F5F5F5F5F5F5F5E2E2EFF5F5F5E2F5F5F5F5F5F5F5F5F5F5F5F5F5F5F5F5E2F5F5F5F5F5F5F5F5F5F5F5F5F5F5F5F5F5F5F5F5F5F5F5F5F5F5F5F5F5F5F5F5F5F5F5F5F5F5F5F5F5F5F5F5F5F5F5F5F5F5F5F5F5F5F5F5F5F5F5F5F5F5F5F5F5F5F5F5F5F5F5F5F5F5F5F5F5F5F5F5F5F5F5F5F5F5F5F5F5F5F5F5
310
F5F5F5F5F5F5F5F5F5F5F5F5F5F5F5F5F5F5F5F5F5F5F5F5F5F5F5F5F5F5F5F5F5F5F5F5F5F5F5F5F5F5F5E2F5F5F5F5F5F5F5F5F5F5F5F5F5F5F5F5E2F5F5F5E2E2EFF5F5F5E2F5F5F5F5F5F5F5F5F5F5F5F5F5F5F5F5E2F5F5F5F5F5F5F5F5F5F5F5F5F5F5F5F5F5F5F5F5F5F5F5F5F5F5F5F5F5F5F5F5F5F5F5F5F5F5F5
310
F5F5F5F5F5F5F5F5F5F5F5F5F5F5F5F5F5F5F5F5F5F5F5F5F5F5F5F5F5F5F5F5F5F5F5F5F5F5F5F5F5F5F5F5F5F5F5F5F5F5F5F5F5F5F5F5F5F5F5F5F5F5F5F5F5F5F5F5F5F5F5F5F5F5F5F5F5F5F5F5F5F5F5F5F5F5F5F5F5F5F5F5F5F5F5F5E2F5F5F5F5F5F5F5F5F5F5F5F5F5F5F5F5E2F5F5F5E2E2EFF5F5F5E2F5F5F5
310
F5F5F5F5F5F5F5F5F5F5F5F5F5E2F5F5F5F5F5F5F5F5F5F5F5F5F5F5F5F5F5F5F5F5F5F5F5F5F5F5F5F5F5F5F5F5F5F5F5F5F5F5F5F5F5F5F5F5F5F5F5F5F5F5F5F5F5F5F5F5F5F5F5F5F5F5F5F5F5F5F5F5F5F5F5F5F5F5F5F5F5F5F5F5F5F5F5F5F5F5F5F5F5F5F5F5F5F5F5F5F5F5F5F5F5F5F5F5F5F5F5F5F5F5F5F5F5
310
F5F5F5F5F5F5F5F5F5F5F5F5F5F5F5F5F5F5F5F5F5F5E2F5F5F5F5F5F5F5F5F5F5F5F5F5F5F5F5E2F5F5F5E2E2EFF5F5F5E2F5F5F5F5F5F5F5F5F5F5F5F5F5F5F5F5E2F5F5F5F5F5F5F5F5F5F5F5F5F5F5F5F5F5F5F5F5F5F5F5F5F5F5F5F5F5F5F5F5F5F5F5F5F5F5F5F5F5F5F5F5F5F5F5F5F5F5F5F5F5F5F5F5F5F5F5F5
310
F5F5F5F5F5F5F5F5F5F5F5F5F5F5F5F5F5F5F5F5F5F5F5F5F5F5F5F5F5F5F5F5F5F5F5F5F5F5F5F5F5F5F5F5F5F5F5F5F5F5F5F5F5F5F5F5F5F5F5F5F5F5F5F5F5F5F5F5F5F5F5F5F5F5F5E2F5F5F5F5F5F5F5F5F5F5F5F5F5F5F5F5E2F5F5F5E2E2EFF5F5F5E2F5F5F5F5F5F5F5F5F5F5F5F5F5F5F5F5E2F5F5F5F5F5F5F5
310
F5F5F5F5F5F5F5F5F5F5F5F5F5F5F5F5F5F5F5F5F5F5F5F5F5F5F5F5F5F5F5F5F5F5F5F5F5F5F5F5F5F5F5F5F5F5F5F5F5F5F5F5F5F5F5F5F5F5F5F5F5F5F5F5F5F5F5F5F5F5F5F5F5F5F5F5F5F5F5F5F5F5F5F5F5F5F5F5F5F5F5F5F5F5F5F5F5F5F5F5F5F5F5F5F5F5F5F5F5F5F5F5F5F5F5F5F5F5F5F5F5F5F5F5F5F5F5
310
F5E2F5F5F5F5F5F5F5F5F5F5F5F5F5F5F5F5E2F5F5F5E2E2EFF5F5F5E2F5F5F5F5F5F5F5F5F5F5F5F5F5F5F5F5E2F5F5F5F5F5F5F5F5F5F5F5F5F5F5F5F5F5F5F5F5F5F5F5F5F5F5F5F5F5F5F5F5F5F5F5F5F5F5F5F5F5F5F5F5F5F5F5F5F5F5F5F5F5F5F5F5F5F5F5F5F5F5F5F5F5F5F5F5F5F5F5F5F5F5F5F5F5F5F5F5F5
310
F5F5F5F5F5F5F5F5F5F5F5F5F5F5F5F5F5F5F5F5F5F5F5F5F5F5F5F5F5F5F5F5F5F5F5F5F5F5F5F5F5F5F5F5F5F5F5F5F5F5F5F5F5F5E2F5F5F5F5F5F5F5F5F5F5F5F5F5F5F5F5E2F5F5F5E2E2EFF5F5F5E2F5F5F5F5F5F5F5F5F5F5F5F5F5F5F5F5E2F5F5F5F5F5F5F5F5F5F5F5F5F5F5F5F5F5F5F5F5F5F5F5F5F5F5F5F5
310
F5F5F5F5F5F5F5F5F5F5F5F5F5F5F5F5F5F5F5F5F5F5F5F5F5F5F5F5F5F5F5F5F5F5F5F5F5F5F5F5F5F5F5F5F5F5F5F5F5F5F5F5F5F5F5F5F5F5F5F5F5F5F5F5F5F5F5F5F5F5F5F5F5F5F5F5F5F5F5F5F5F5F5F5F5F5F5F5F5F5F5F5F5F5F5F5F5F5F5F5F5F5F5F5F5F5F5E2F5F5F5F5F5F5F5F5F5F5F5F5F5F5F5F5E2F5F5
310
F5E2E2EFF5F5F5E2F5F5F5F5F5F5F5F5F5F5F5F5F5F5F5F5E2F5F5F5F5F5F5F5F5F5F5F5F5F5F5F5F5F5F5F5F5F5F5F5F5F5F5F5F5F5F5F5F5F5F5F5F5F5F5F5F5F5F5F5F5F5F5F5F5F5F5F5F5F5F5F5F5F5F5F5F5F5F5F5F5F5F5F5F5F5F5F5F5F5F5F5F5F5F5F5F5F5F5F5F5F5F5F5F5F5F5F5F5F5F5F5F5F5F5F5F5F5F5
310
F5F5F5F5F5F5F5F5F5F5F5F5F5F5F5F5F5F5F5F5F5F5F5F5F5F5F5F5F5F5F5F5F5E2F5F5F5F5F5F5F5F5F5F5F5F5F5F5F5F5E2F5F5F5E2E2EFF5F5F5E2F5F5F5F5F5F5F5F5F5F5F5F5F5F5F5F5E2F5F5F5F5F5F5F5F5F5F5F5F5F5F5F5F5F5F5F5F5F5F5F5F5F5F5F5F5F5F5F5F5F5F5F5F5F5F5F5F5F5F5F5F5F5F5F5F5F5
310
F5F5F5F5F5F5F5F5F5F5F5F5F5F5F5F5F5F5F5F5F5F5F5F5F5F5F5F5F5F5F5F5F5F5F5F5F5F5F5F5F5F5F5F5F5F5F5F5F5F5F5F5F5F5F5F5F5F5F5F5F5F5F5F5F5F5F5F5F5F5F5F5F5F5F5F5F5F5F5F5F5F5F5F5F5F5E2F5F5F5F5F5F5F5F5F5F5F5F5F5F5F5F5E2F5F5F5E2E2EFF5F5F5E2F5F5F5F5F5F5F5F5F5F5F5F5F5
310
F5F5F5E2F5F5F5F5F5F5F5F5F5F5F5F5F5F5F5F5F5F5F5F5F5F5F5F5F5F5F5F5F5F5F5F5F5F5F5F5F5F5F5F5F5F5F5F5F5F5F5F5F5F5F5F5F5F5F5F5F5F5F5F5F5F5F5F5F5F5F5F5F5F5F5F5F5F5F5F5F5F5F5F5F5F5F5F5F5F5F5F5F5F5F5F5F5F5F5F5F5F5F5F5F5F5F5F5F5F5F5F5F5F5F5F5F5F5F5F5F5F5F5F5F5F5F5
310
F5F5F5F5F5F5F5F5F5F5F5F5E2F5F5F5F5F5F5F5F5F5F5F5F5F5F5F5F5E2F5F5F5E2E2EFF5F5F5E2F5F5F5F5F5F5F5F5F5F5F5F5F5F5F5F5E2F5F5F5F5F5F5F5F5F5F5F5F5F5F5F5F5F5F5F5F5F5F5F5F5F5F5F5F5F5F5F5F5F5F5F5F5F5F5F5F5F5F5F5F5F5F5F5F5F5F5F5F5F5F5F5F5F5F5F5F5F5F5F5F5F5F5F5F5F5F5
310
F5F5F5F5F5F5F5F5F5F5F5F5F5F5F5F5F5F5F5F5F5F5F5F5F5F5F5F5F5F5F5F5F5F5F5F5F5F5F5F5F5F5F5F5F5F5F5F5F5F5F5F5F5F5F5F5F5F5F5F5F5F5F5F5F5E2F5F5F5F5F5F5F5F5F5F5F5F5F5F5F5F5E2F5F5F5E2E2EFF5F5F5E2F5F5F5F5F5F5F5F5F5F5F5F5F5F5F5F5E2F5F5F5F5F5F5F5F5F5F5F5F5F5F5F5F5F5
310
F5F5F5F5F5F5F5F5F5F5F5F5F5F5F5F5F5F5F5F5F5F5F5F5F5F5F5F5F5F5F5F5F5F5F5F5F5F5F5F5F5F5F5F5F5F5F5F5F5F5F5F5F5F5F5F5F5F5F5F5F5F5F5F5F5F5F5F5F5F5F5F5F5F5F5F5F5F5F5F5F5F5F5F5F5F5F5F5F5F5F5F5F5F5F5F5F5F5F5F5F5F5F5F5F5F5F5F5F5F5F5F5F5F5F5F5F5F5E2F5F5F5F5F5F5F5F5
310
F5F5F5F5F5F5F5F5E2F5F5F5E2E2EFF5F5F5E2F5F5F5F5F5F5F5F5F5F5F5F5F5F5F5F5E2F5F5F5F5F5F5F5F5F5F5F5F5F5F5F5F5F5F5F5F5F5F5F5F5F5F5F5F5F5F5F5F5F5F5F5F5F5F5F5F5F5F5F5F5F5F5F5F5F5F5F5F5F5F5F5F5F5F5F5F5F5F5F5F5F5F5F5F5F5F5F5F5F5F5F5F5F5F5F5F5F5F5F5F5F5F5F5F5F5F5F5
310
F5F5F5F5F5F5F5F5F5F5F5F5F5F5F5F5F5F5F5F5F5F5F5F5F5F5F5F5F5F5F5F5F5F5F5F5F5F5F5F5F5F5F5F5E2F5F5F5F5F5F5F5F5F5F5F5F5F5F5F5F5E2F5F5F5E2E2EFF5F5F5E2F5F5F5F5F5F5F5F5F5F5F5F5F5F5F5F5E2F5F5F5F5F5F5F5F5F5F5F5F5F5F5F5F5F5F5F5F5F5F5F5F5F5F5F5F5F5F5F5F5F5F5F5F5F5F5
310
F5F5F5F5F5F5F5F5F5F5F5F5F5F5F5F5F5F5F5F5F5F5F5F5F5F5F5F5F5F5F5F5F5F5F5F5F5F5F5F5F5F5F5F5F5F5F5F5F5F5F5F5F5F5F5F5F5F5F5F5F5F5F5F5F5F5F5F5F5F5F5F5F5F5F5F5F5F5F5F5F5F5F5F5F5F5F5F5F5F5F5F5F5F5F5F5F5E2F5F5F5F5F5F5F5F5F5F5F5F5F5F5F5F5E2F5F5F5E2E2EFF5F5F5E2F5F5
310
F5F5F5F5F5F5F5F5F5F5F5F5F5F5E2F5F5F5F5F5F5F5F5F5F5F5F5F5F5F5F5F5F5F5F5F5F5F5F5F5F5F5F5F5F5F5F5F5F5F5F5F5F5F5F5F5F5F5F5F5F5F5F5F5F5F5F5F5F5F5F5F5F5F5F5F5F5F5F5F5F5F5F5F5F5F5F5F5F5F5F5F5F5F5F5F5F5F5F5F5F5F5F5F5F5F5F5F5F5F5F5F5F5F5F5F5F5F5F5F5F5F5F5F5F5F5F5
310
F5F5F5F5F5F5F5F5F5F5F5F5F5F5F5F5F5F5F5F5F5F5F5E2F5F5F5F5F5F5F5F5F5F5F5F5F5F5F5F5E2F5F5F5E2E2EFF5F5F5E2F5F5F5F5F5F5F5F5F5F5F5F5F5F5F5F5E2F5F5F5F5F5F5F5F5F5F5F5F5F5F5F5F5F5F5F5F5F5F5F5F5F5F5F5F5F5F5F5F5F5F5F5F5F5F5F5F5F5F5F5F5F5F5F5F5F5F5F5F5F5F5F5F5F5F5F5
310
F5F5F5F5F5F5F5F5F5F5F5F5F5F5F5F5F5F5F5F5F5F5F5F5F5F5F5F5F5F5F5F5F5F5F5F5F5F5F5F5F5F5F5F5F5F5F5F5F5F5F5F5F5F5F5F5F5F5F5F5F5F5F5F5F5F5F5F5F5F5F5F5F5F5F5F5E2F5F5F5F5F5F5F5F5F5F5F5F5F5F5F5F5E2F5F5F5E2E2EFF5F5F5E2F5F5F5F5F5F5F5F5F5F5F5F5F5F5F5F5E2F5F5F5F5F5F5
310
F5F5F5F5F5F5F5F5F5F5F5F5F5F5F5F5F5F5F5F5F5F5F5F5F5F5F5F5F5F5F5F5F5F5F5F5F5F5F5F5F5F5F5F5F5F5F5F5F5F5F5F5F5F5F5F5F5F5F5F5F5F5F5F5F5F5F5F5F5F5F5F5F5F5F5F5F5F5F5F5F5F5F5F5F5F5F5F5F5F5F5F5F5F5F5F5F5F5F5F5F5F5F5F5F5F5F5F5F5F5F5F5F5F5F5F5F5F5F5F5F5F5F5F5F5F5F5
310
F5F5E2F5F5F5F5F5F5F5F5F5F5F5F5F5F5F5F5E2F5F5F5E2E2EFF5F5F5F5F5F5F5F5F5F5F5F5F5F5F5F5F5F5F5F5E2F5F5F5F5F5F5F5F5F5F5F5F5F5F5F5F5F5F5F5F5F5F5F5F5F5F5F5F5F5F5F5F5F5F5F5F5F5F5F5F5F5F5F5F5F5F5F5F5F5F5F5F5F5F5F5F5F5F5F5F5F5F5F5F5F5F5F5F5F5F5F5F5F5F5F5F5F5F5F5F5
310
F5F5F5F5F5F5F5F5F5F5F5F5F5F5F5F5F5F5F5F5F5F5F5F5F5F5F5F5F5F5F5F5F5F5F5F5F5F5F5F5F5F5F5F5F5F5F5F5F5F5F5F5F5F5F5E2F5F5F5F5F5F5F5F5F5F5F5F5F5F5F5F5F5F5F5F5E2E2EFF5F5F5F5F5F5F5F5F5F5F5F5F5F5F5F5F5F5F5F5E2F5F5F5F5F5F5F5F5F5F5F5F5F5F5F5F5F5F5F5F5F5F5F5F5F5F5F5
310
F5F5F5F5F5F5F5F5F5F5F5F5F5F5F5F5F5F5F5F5F5F5F5F5F5F5F5F5F5F5F5F5F5F5F5F5F5F5F5F5F5F5F5F5F5F5F5F5F5F5F5F5F5F5F5F5F5F5F5F5F5F5F5F5F5F5F5F5F5F5F5F5F5F5F5F5F5F5F5F5F5F5F5F5F5F5F5F5F5F5F5F5F5F5F5F5F5F5F5F5F5F5F5F5F5F5F5F5E2F5F5F5F5F5F5F5F5F5F5F5F5F5F5F5F5F5F5
310
F5F5E2E2EFF5F5F5F5F5F5F5F5F5F5F5F5F5F5F5F5F5F5F5F5E2F5F5F5F5F5F5F5F5F5F5F5F5F5F5F5F5F5F5F5F5F5F5F5F5F5F5F5F5F5F5F5F5F5F5F5F5F5F5F5F5F5F5F5F5F5F5F5F5F5F5F5F5F5F5F5F5F5F5F5F5F5F5F5F5F5F5F5F5F5F5F5F5F5F5F5F5F5F5F5F5F5F5F5F5F5F5F5F5F5F5F5F5F5F5F5F5F5F5F5F5F5
310
F5F5F5F5F5F5F5F5F5F5F5F5F5F5F5F5F5F5F5F5F5F5F5F5F5F5F5F5F5F5F5F5F5F5E2F5F5F5F5F5F5F5F5F5F5F5F5F5F5F5F5F5F5F5F5E2E2EFF5F5F5F5F5F5F5F5F5F5F5F5F5F5F5F5F5F5F5F5E2F5F5F5F5F5F5F5F5F5F5F5F5F5F5F5F5F5F5F5F5F5F5F5F5F5F5F5F5F5F5F5F5F5F5F5F5F5F5F5F5F5F5F5F5F5F5F5F5
310
F5F5F5F5F5F5F5F5F5F5F5F5F5F5F5F5F5F5F5F5F5F5F5F5F5F5F5F5F5F5F5F5F5F5F5F5F5F5F5F5F5F5F5F5F5F5F5F5F5F5F5F5F5F5F5F5F5F5F5F5F5F5F5F5F5F5F5F5F5F5F5F5F5F5F5F5F5F5F5F5F5F5F5F5F5F5F5E2F5F5F5F5F5F5F5F5F5F5F5F5F5F5F5F5F5F5F5F5E2E2EFF5F5F5F5F5F5F5F5F5F5F5F5F5F5F5F5
310
F5F5F5F5E2E2E2E2E2E2E2E2E2E2E2E2E2E2E2E2E2E2E2E2E2E2E2E2E2E2E2E2E2E2E2E2E2E2E2E2E2E2E2E2E2E2E2E2E2E2E2E2E2E2E2E2E2E2E2E2E2E2E2E2E2E2E2E2E2E2E2E2E2E2E2E2E2E2E2E2E2E2E2E2E2E2E2E2E2E2E2E2E2E2E2E2E2E2E2E2E2E2E2E2E2E2E2E2E2E2E2E2E2E2E2E2E2E2E2E2E2E2E2E2E2E2E2
310
E2E2E2E2E2E2E2E2E2E2E2E2E2E2F5F5F5F5F5F5F5F5F5F5F5F5F5F5F5F5F5F5F5F5E2E2EFF5F5F5F5F5F5F5F5F5F5F5F5F5F5F5F5F5F5F5F5F5F5F5F5F5F5F5F5F5F5F5F5F5F5F5F5F5F5F5F5F5F5F5F5F5F5F5F5F5F5F5F5F5F5F5F5F5F5F5F5F5F5F5F5F5F5F5F5F5F5F5F5F5F5F5F5F5F5F5F5F5F5F5F5F5F5F5F5F5F5
310
F5F5F5F5F5F5F5F5F5F5F5F5F5F5F5F5F5F5F5F5F5F5F5F5F5F5F5F5F5F5F5F5F5F5F5F5F5F5F5F5F5F5F5F5F5F5F5F5F5F5F5F5F5F5F5F5F5F5F5F5F5F5F5F5F5F5F5F5F5F5F5F5F5F5F5F5F5F5F5F5F5F5F5F5F5F5F5E2E2EFF5F5F5F5F5F5F5F5F5F5F5F5F5F5F5F5F5F5F5F5F5F5F5F5F5F5F5F5F5F5F5F5F5F5F5F5F5
310
F5F5F5F5F5F5F5F5F5F5F5F5F5F5F5F5F5F5F5F5F5F5F5F5F5F5F5F5F5F5F5F5F5F5F5F5F5F5F5F5F5F5F5F5F5F5F5F5F5F5F5F5F5F5F5F5F5F5F5F5F5F5F5F5F5F5F5F5F5F5F5F5F5F5F5F5F5F5F5F5F5F5F5F5F5F5F5F5F5F5F5F5F5F5F5F5F5F5F5F5F5F5F5F5F5F5F5F5F5F5F5F5F5F5F5F5F5F5F5F5F5F5F5F5F5F5F5
310
F5F5F5F5F5F5F5F5F5F5F5F5F5E2E2EFF5F5F5F5F5F5F5F5F5F5F5F5F5F5F5F5F5F5F5F5F5F5F5F5F5F5F5F5F5F5F5F5F5F5F5F5F5F5F5F5F5F5F5F5F5F5F5F5F5F5F5F5F5F5F5F5F5F5F5F5F5F5F5F5F5F5F5F5F5F5F5F5F5F5F5F5F5F5F5F5F5F5F5F5F5F5F5F5F5F5F5F5F5F5F5F5F5F5F5F5F5F5F5F5F5F5F5F5F5F5F5
310
F5F5F5F5F5F5F5F5F5F5F5F5F5F5F5F5F5F5F5F5F5F5F5F5F5F5F5F5F5F5F5F5F5F5F5F5F5F5F5F5F5F5F5F5F5F5F5F5F5F5F5F5F5F5F5F5F5F5F5F5F5F5F5F5F5F5E2E2EFF5F5F5F5F5F5F5F5F5F5F5F5F5F5F5F5F5F5F5F5F5F5F5F5F5F5F5F5F5F5F5F5F5F5F5F5F5F5F5F5F5F5F5F5F5F5F5F5F5F5F5F5F5F5F5F5F5F5
310
F5F5F5F5F5F5F5F5F5F5F5F5F5F5F5F5F5F5F5F5F5F5F5F5F5F5F5F5F5F5F5F5F5F5F5F5F5F5F5F5F5F5F5F5F5F5F5F5F5F5F5F5F5F5F5F5F5F5F5F5F5F5F5F5F5F5F5F5F5F5F5F5F5F5F5F5F5F5F5F5F5F5F5F5F5F5F5F5F5F5F5F5F5F5F5F5F5F5F5F5F5F5F5F5F5F5F5F5F5F5F5F5F5F5F5F5F5F5F5E2E2EFF5F5F5E2F5
310
F5F5F5F5F5F5F5F5F5F5F5F5F5F5F5F5F5F5F5F5F5F5F5F5F5F5F5F5F5F5F5F5F5F5F5F5F5F5F5F5F5F5F5F5F5F5F5F5F5F5F5F5F5F5F5F5F5F5F5F5F5F5F5F5F5F5F5F5F5F5F5F5F5F5F5F5F5F5F5F5F5F5F5F5F5F5F5F5F5F5F5F5F5F5F5F5F5F5F5F5F5F5F5F5F5F5F5F5F5F5F5F5F5F5F5F5F5F5F5F5F5F5F5F5F5F5F5
310
F5F5F5F5F5F5F5F5F5F5F5F5F5F5F5F5F5F5F5F5F5F5F5F5F5F5F5F5F5F5F5F5F5F5F5F5F5F5F5F5F5E2F5F5F5E2E2EFF5F5F5E2F5F5F5F5F5F5F5F5F5F5F5F5F5F5F5F5F5F5F5F5F5F5F5F5F5F5F5F5F5F5F5F5F5F5F5F5F5F5F5F5F5F5F5F5F5F5F5F5F5F5F5F5F5F5F5F5F5F5F5F5F5F5F5F5F5F5F5F5F5F5F5F5F5F5F5
310
F5F5F5F5F5F5F5F5F5F5F5F5F5F5F5F5F5F5F5F5F5F5F5F5F5F5F5F5F5F5F5F5F5F5F5F5F5F5F5F5F5F5F5F5F5F5F5F5F5F5F5F5F5F5F5F5F5F5F5F5F5F5F5F5F5F5F5F5F5F5F5F5F5F5F5F5F5F5F5F5F5F5F5F5F5F5F5F5F5F5F5F5F5F5E2F5F5F5E2E2EFF5F5F5E2F5F5F5F5F5F5F5F5F5F5F5F5F5F5F5F5F5F5F5F5F5F5
310
F5F5F5F5F5F5F5F5F5F5F5F5F5F5F5F5F5F5F5F5F5F5F5F5F5F5F5F5F5F5F5F5F5F5F5F5F5F5F5F5F5F5F5F5F5F5F5F5F5F5F5F5F5F5F5F5F5F5F5F5F5F5F5F5F5F5F5F5F5F5F5F5F5F5F5F5F5F5F5F5F5F5F5F5F5F5F5F5F5F5F5F5F5F5F5F5F5F5F5F5F5F5F5F5F5F5F5F5F5F5F5F5F5F5F5F5F5F5F5F5F5F5F5F5F5F5F5
310
F5F5F5F5F5F5F5F5F5F5F5F5F5F5F5F5F5F5F5F5E2F5F5F5E2E2EFF5F5F5E2F5F5F5F5F5F5F5F5F5F5F5F5F5F5F5F5F5F5F5F5F5F5F5F5F5F5F5F5F5F5F5F5F5F5F5F5F5F5F5F5F5F5F5F5F5F5F5F5F5F5F5F5F5F5F5F5F5F5F5F5F5F5F5F5F5F5F5F5F5F5F5F5F5F5F5F5F5F5F5F5F5F5F5F5F5F5F5F5F5F5F5F5F5F5F5F5
310
F5F5F5F5F5F5F5F5F5F5F5F5F5F5F5F5F5F5F5F5F5F5F5F5F5F5F5F5F5F5F5F5F5F5F5F5F5F5F5F5F5F5F5F5F5F5F5F5F5F5F5F5F5F5F5F5F5F5F5F5F5F5F5F5F5F5F5F5F5F5F5F5F5E2F5F5F5E2E2EFF5F5F5E2F5F5F5F5F5F5F5F5F5F5F5F5F5F5F5F5F5F5F5F5F5F5F5F5F5F5F5F5F5F5F5F5F5F5F5F5F5F5F5F5F5F5F5
310
F5F5F5F5F5F5F5F5F5F5F5F5F5F5F5F5F5F5F5F5F5F5F5F5F5F5F5F5F5F5F5F5F5F5F5F5F5F5F5F5F5F5F5F5F5F5F5F5F5F5F5F5F5F5F5F5F5F5F5F5F5F5F5F5F5F5F5F5F5F5F5F5F5F5F5F5F5F5F5F5F5F5F5F5F5F5F5F5F5F5F5F5F5F5F5F5F5F5F5F5F5F5F5F5F5F5F5F5F5F5F5F5F5F5F5F5F5F5F5F5F5F5F5F5F5F5E2
310
F5F5F5E2E2EFF5F5F5E2F5F5F5F5F5F5F5F5F5F5F5F5F5F5F5F5F5F5F5F5F5F5F5F5F5F5F5F5F5F5F5F5F5F5F5F5F5F5F5F5F5F5F5F5F5F5F5F5F5F5F5F5F5F5F5F5F5F5F5F5F5F5F5F5F5F5F5F5F5F5F5F5F5F5F5F5F5F5F5F5F5F5F5F5F5F5F5F5F5F5F5F5F5F5F5F5F5F5F5F5F5F5F5F5F5F5F5F5F5F5F5F5F5F5F5F5F5
310
F5F5F5F5F5F5F5F5F5F5F5F5F5F5F5F5F5F5F5F5F5F5F5F5F5F5F5F5F5F5F5F5F5F5F5F5F5F5F5F5F5F5F5F5F5F5F5F5F5F5F5F5E2F5F5F5E2E2EFF5F5F5E2F5F5F5F5F5F5F5F5F5F5F5F5F5F5F5F5F5F5F5F5F5F5F5F5F5F5F5F5F5F5F5F5F5F5F5F5F5F5F5F5F5F5F5F5F5F5F5F5F5F5F5F5F5F5F5F5F5F5F5F5F5F5F5F5
310
F5F5F5F5F5F5F5F5F5F5F5F5F5F5F5F5F5F5F5F5F5F5F5F5F5F5F5F5F5F5F5F5F5F5F5F5F5F5F5F5F5F5F5F5F5F5F5F5F5F5F5F5F5F5F5F5F5F5F5F5F5F5F5F5F5F5F5F5F5F5F5F5F5F5F5F5F5F5F5F5F5F5F5F5F5F5F5F5F5F5F5F5F5F5F5F5F5F5F5F5F5F5F5F5F5E2F5F5F5E2E2EFF5F5F5E2F5F5F5F5F5F5F5F5F5F5F5
310
F5F5F5F5F5F5F5F5F5F5F5F5F5F5F5F5F5F5F5F5F5F5F5F5F5F5F5F5F5F5F5F5F5F5F5F5F5F5F5F5F5F5F5F5F5F5F5F5F5F5F5F5F5F5F5F5F5F5F5F5F5F5F5F5F5F5F5F5F5F5F5F5F5F5F5F5F5F5F5F5F5F5F5F5F5F5F5F5F5F5F5F5F5F5F5F5F5F5F5F5F5F5F5F5F5F5F5F5F5F5F5F5F5F5F5F5F5F5F5F5F5F5F5F5F5F5F5
310
F5F5F5F5F5F5F5F5F5F5F5F5F5F5F5F5F5F5F5F5F5F5F5F5F5F5F5F5F5F5F5E2F5F5F5E2E2EFF5F5F5E2E2E2E2E2E2E2E2F5F5F5F5F5F5F5F5F5E2E2E2E2E2E2E2E2E2E2E2E2E2E2E2E2F5F5F5F5F5F5F5F5E2E2E2E2E2E2E2E2E2E2E2E2E2E2E2E2F5F5F5F5F5F5F5F5F5E2E2E2E2E2E2E2E2E2E2E2E2E2E2E2F5F5F5F5F5
310
F5F5F5F5E2E2E2E2E2E2E2E2E2E2E2E2E2E2E2F5F5F5F5F5F5F5F5F5E2E2E2E2E2E2E2E2E2E2E2E2E2E2E2E2F5F5F5F5F5F5F5F5E2E2E2E2E2E2E2E2E2E2E2E2E2E2E2E2F5F5F5F5F5F5F5F5F5E2E2E2E2E2E2E2E2F5F5F5E2E2EFF5F5F5F5F5F5F5F5F5F5F5F5F5F5F5F5F5F5F5F5F5F5F5F5F5F5F5F5F5F5F5F5F5F5F5F5
310
F5F5F5F5F5F5F5F5F5F5F5F5F5F5F5F5F5F5F5F5F5F5F5F5F5F5F5F5F5F5F5F5F5F5F5F5F5F5F5F5F5F5F5F5F5F5F5F5F5F5F5F5F5F5F5F5F5F5F5F5F5F5F5F5F5F5F5F5F5F5F5F5F5F5F5F5F5F5F5F5F5F5F5F5F5F5F5F5F5F5F5F5F5F5F5F5F5F5F5F5F5F5F5F5F5F5F5F5F5F5F5F5F5F5F5F5F5F5F5F5F5F5F5F5F5F5F5
310
F5F5F5F5F5F5F5F5F5F5F5F5F5F5E2E2EFF5F5F5F5F5F5F5F5F5F5F5F5F5F5F5F5F5F5F5F5F5F5F5F5F5F5F5F5F5F5F5F5F5F5F5F5F5F5F5F5F5F5F5F5F5F5F5F5F5F5F5F5F5F5F5F5F5F5F5F5F5F5F5F5F5F5F5F5F5F5F5F5F5F5F5F5F5F5F5F5F5F5F5F5F5F5F5F5F5F5F5F5F5F5F5F5F5F5F5F5F5F5F5F5F5F5F5F5F5F5
310
F5F5F5F5F5F5F5F5F5F5F5F5F5F5F5F5F5F5F5F5F5F5F5F5F5F5F5F5F5F5F5F5F5F5F5F5F5F5F5F5F5F5F5F5F5F5F5F5F5F5F5F5F5F5F5F5F5F5F5F5F5F5F5F5F5F5F5E2EFEFF5F5F5F5F5F5F5F5F5F5F5F5F5F5F5F5F5F5F5F5F5F5F5F5F5F5F5F5F5F5F5F5F5F5F5F5F5F5F5F5F5F5F5F5F5F5F5F5F5F5F5F5F5F5F5F5F5
310
F5F5F5F5F5F5F5F5F5F5F5F5F5F5F5F5F5F5F5F5F5F5F5F5F5F5F5F5F5F5F5F5F5F5F5F5F5F5F5F5F5F5F5F5F5F5F5F5F5F5F5F5F5F5F5F5F5F5F5F5F5F5F5F5F5F5F5F5F5F5F5F5F5F5F5F5F5F5F5F5F5F5F5F5F5F5F5F5F5F5F5F5F5F5F5F5F5F5F5F5F5F5F5F5F5F5F5F5F5F5F5F5F5F5F5F5F5F5F5F5E2EFEFE2E2E2E2
310
E2E2E2E2E2E2E2E2E2E2E2E2E2E2E2E2E2E2E2E2E2E2E2E2E2E2E2E2E2E2E2E2E2E2E2E2E2E2E2E2E2E2E2E2E2E2E2E2E2E2E2E2E2E2E2E2E2E2E2E2E2E2E2E2E2E2E2E2E2E2E2E2E2E2E2E2E2E2E2E2E2E2E2E2E2E2E2E2E2E2E2E2E2E2E2E2E2E2E2E2E2E2E2E2E2E2E2E2E2E2E2E2E2E2E2E2E2E2E2E2E2E2E2E2E2E2E2
310
E2E2E2E2E2E2E2E2E2E2E2E2E2E2E2E2E2E2E2E2E2E2E2E2E2E2E2E2E2E2E2E2E2E2E2E2E2E2E2E2E2E2E2E2E2E2E2EFEF
  0
ENDSEC
  0
EOF
