  0
SECTION
  2
HEADER
  9
$ACADVER
  1
AC1018
  9
$ACADMAINTVER
 70
     0
  9
$DWGCODEPAGE
  3
ANSI_1252
  9
$AUTHOR
  1
g6edxjah
  9
$LASTSAVEDBY
  1
g6edxjah
  9
$INSBASE
 10
0.0
 20
0.0
 30
0.0
  9
$EXTMIN
 10
31.36825
 20
-56.32001
 30
0.0
  9
$EXTMAX
 10
42.369125
 20
-47.819333
 30
0.0
  9
$LIMMIN
 10
9.063597
 20
-79.874762
  9
$LIMMAX
 10
64.673778
 20
-24.264582
  9
$ORTHOMODE
 70
     0
  9
$REGENMODE
 70
     1
  9
$FILLMODE
 70
     1
  9
$QTEXTMODE
 70
     0
  9
$MIRRTEXT
 70
     0
  9
$LTSCALE
 40
1.0
  9
$ATTMODE
 70
     1
  9
$TEXTSIZE
 40
0.12
  9
$TRACEWID
 40
0.05
  9
$TEXTSTYLE
  7
Standard
  9
$CLAYER
  8
Level 10
  9
$CELTYPE
  6
Continuous
  9
$CECOLOR
 62
     7
  9
$CELTSCALE
 40
1.0
  9
$DISPSILH
 70
     0
  9
$DIMSCALE
 40
1.0
  9
$DIMASZ
 40
0.12
  9
$DIMEXO
 40
0.06
  9
$DIMDLI
 40
0.0
  9
$DIMRND
 40
0.0
  9
$DIMDLE
 40
0.0
  9
$DIMEXE
 40
0.06
  9
$DIMTP
 40
0.0
  9
$DIMTM
 40
0.0
  9
$DIMTXT
 40
0.12
  9
$DIMCEN
 40
0.09
  9
$DIMTSZ
 40
0.0
  9
$DIMTOL
 70
     0
  9
$DIMLIM
 70
     0
  9
$DIMTIH
 70
     0
  9
$DIMTOH
 70
     0
  9
$DIMSE1
 70
     0
  9
$DIMSE2
 70
     0
  9
$DIMTAD
 70
     1
  9
$DIMZIN
 70
    11
  9
$DIMBLK
  1
TerminatorOpen_0.5
  9
$DIMASO
 70
     1
  9
$DIMSHO
 70
     1
  9
$DIMPOST
  1

  9
$DIMAPOST
  1

  9
$DIMALT
 70
     0
  9
$DIMALTD
 70
     4
  9
$DIMALTF
 40
25.4
  9
$DIMLFAC
 40
1.0
  9
$DIMTOFL
 70
     0
  9
$DIMTVP
 40
0.0
  9
$DIMTIX
 70
     0
  9
$DIMSOXD
 70
     0
  9
$DIMSAH
 70
     0
  9
$DIMBLK1
  1

  9
$DIMBLK2
  1

  9
$DIMSTYLE
  2
Standard
  9
$DIMCLRD
 70
     0
  9
$DIMCLRE
 70
     0
  9
$DIMCLRT
 70
     0
  9
$DIMTFAC
 40
1.0
  9
$DIMGAP
 40
0.06
  9
$DIMJUST
 70
     0
  9
$DIMSD1
 70
     0
  9
$DIMSD2
 70
     0
  9
$DIMTOLJ
 70
     0
  9
$DIMTZIN
 70
    11
  9
$DIMALTZ
 70
    15
  9
$DIMALTTZ
 70
    15
  9
$DIMUPT
 70
     0
  9
$DIMDEC
 70
     4
  9
$DIMTDEC
 70
     4
  9
$DIMALTU
 70
     2
  9
$DIMALTTD
 70
     4
  9
$DIMTXSTY
  7
Style-STANDARD
  9
$DIMAUNIT
 70
     0
  9
$DIMADEC
 70
     4
  9
$DIMALTRND
 40
0.0
  9
$DIMAZIN
 70
     3
  9
$DIMDSEP
 70
    46
  9
$DIMATFIT
 70
     1
  9
$DIMFRAC
 70
     0
  9
$DIMLDRBLK
  1
TerminatorOpen_0.5
  9
$DIMLUNIT
 70
     2
  9
$DIMLWD
 70
    -2
  9
$DIMLWE
 70
    -2
  9
$DIMTMOVE
 70
     0
  9
$LUNITS
 70
     2
  9
$LUPREC
 70
     4
  9
$SKETCHINC
 40
0.1
  9
$FILLETRAD
 40
0.0
  9
$AUNITS
 70
     0
  9
$AUPREC
 70
     4
  9
$MENU
  1
.
  9
$ELEVATION
 40
0.0
  9
$PELEVATION
 40
0.0
  9
$THICKNESS
 40
0.0
  9
$LIMCHECK
 70
     0
  9
$CHAMFERA
 40
0.0
  9
$CHAMFERB
 40
0.0
  9
$CHAMFERC
 40
0.0
  9
$CHAMFERD
 40
0.0
  9
$SKPOLY
 70
     0
  9
$TDCREATE
 40
2455364.423444178
  9
$TDUCREATE
 40
2455364.631777511
  9
$TDUPDATE
 40
2455364.423444178
  9
$TDUUPDATE
 40
2455364.631777511
  9
$TDINDWG
 40
0.0
  9
$TDUSRTIMER
 40
0.0006630093
  9
$USRTIMER
 70
     1
  9
$ANGBASE
 50
0.0
  9
$ANGDIR
 70
     0
  9
$PDMODE
 70
     0
  9
$PDSIZE
 40
0.0
  9
$PLINEWID
 40
0.0
  9
$SPLFRAME
 70
     0
  9
$SPLINETYPE
 70
     6
  9
$SPLINESEGS
 70
     8
  9
$HANDSEED
  5
4D9
  9
$SURFTAB1
 70
     6
  9
$SURFTAB2
 70
     6
  9
$SURFTYPE
 70
     6
  9
$SURFU
 70
     6
  9
$SURFV
 70
     6
  9
$UCSBASE
  2

  9
$UCSNAME
  2

  9
$UCSORG
 10
0.0
 20
0.0
 30
0.0
  9
$UCSXDIR
 10
1.0
 20
0.0
 30
0.0
  9
$UCSYDIR
 10
0.0
 20
1.0
 30
0.0
  9
$UCSORTHOREF
  2

  9
$UCSORTHOVIEW
 70
     0
  9
$UCSORGTOP
 10
0.0
 20
0.0
 30
0.0
  9
$UCSORGBOTTOM
 10
0.0
 20
0.0
 30
0.0
  9
$UCSORGLEFT
 10
0.0
 20
0.0
 30
0.0
  9
$UCSORGRIGHT
 10
0.0
 20
0.0
 30
0.0
  9
$UCSORGFRONT
 10
0.0
 20
0.0
 30
0.0
  9
$UCSORGBACK
 10
0.0
 20
0.0
 30
0.0
  9
$PUCSBASE
  2

  9
$PUCSNAME
  2

  9
$PUCSORG
 10
0.0
 20
0.0
 30
0.0
  9
$PUCSXDIR
 10
1.0
 20
0.0
 30
0.0
  9
$PUCSYDIR
 10
0.0
 20
1.0
 30
0.0
  9
$PUCSORTHOREF
  2

  9
$PUCSORTHOVIEW
 70
     0
  9
$PUCSORGTOP
 10
0.0
 20
0.0
 30
0.0
  9
$PUCSORGBOTTOM
 10
0.0
 20
0.0
 30
0.0
  9
$PUCSORGLEFT
 10
0.0
 20
0.0
 30
0.0
  9
$PUCSORGRIGHT
 10
0.0
 20
0.0
 30
0.0
  9
$PUCSORGFRONT
 10
0.0
 20
0.0
 30
0.0
  9
$PUCSORGBACK
 10
0.0
 20
0.0
 30
0.0
  9
$USERI1
 70
     0
  9
$USERI2
 70
     0
  9
$USERI3
 70
     0
  9
$USERI4
 70
     0
  9
$USERI5
 70
     0
  9
$USERR1
 40
0.0
  9
$USERR2
 40
0.0
  9
$USERR3
 40
0.0
  9
$USERR4
 40
0.0
  9
$USERR5
 40
0.0
  9
$WORLDVIEW
 70
     1
  9
$SHADEDGE
 70
     3
  9
$SHADEDIF
 70
    70
  9
$TILEMODE
 70
     1
  9
$MAXACTVP
 70
    64
  9
$PINSBASE
 10
0.0
 20
0.0
 30
0.0
  9
$PLIMCHECK
 70
     0
  9
$PEXTMIN
 10
1.049744
 20
0.799667
 30
-0.001526
  9
$PEXTMAX
 10
9.450623
 20
7.200577
 30
0.0
  9
$PLIMMIN
 10
-0.25
 20
-0.25
  9
$PLIMMAX
 10
10.75
 20
8.25
  9
$UNITMODE
 70
     0
  9
$VISRETAIN
 70
     1
  9
$PLINEGEN
 70
     0
  9
$PSLTSCALE
 70
     0
  9
$TREEDEPTH
 70
  3020
  9
$CMLSTYLE
  2
Standard
  9
$CMLJUST
 70
     0
  9
$CMLSCALE
 40
1.0
  9
$PROXYGRAPHICS
 70
     1
  9
$MEASUREMENT
 70
     0
  9
$CELWEIGHT
370
    53
  9
$ENDCAPS
280
     0
  9
$JOINSTYLE
280
     0
  9
$LWDISPLAY
290
     1
  9
$INSUNITS
 70
     2
  9
$HYPERLINKBASE
  1

  9
$STYLESHEET
  1

  9
$XEDIT
290
     1
  9
$CEPSNTYPE
380
     0
  9
$PSTYLEMODE
290
     1
  9
$FINGERPRINTGUID
  2
{02C0BBB5-38A7-4FBF-829E-00875EC88963}
  9
$VERSIONGUID
  2
{82C521FC-BF81-46B3-825E-420B6BD93A99}
  9
$EXTNAMES
290
     1
  9
$PSVPSCALE
 40
0.0
  9
$OLESTARTUP
290
     0
  9
$SORTENTS
280
   127
  9
$INDEXCTL
280
     0
  9
$HIDETEXT
280
     1
  9
$XCLIPFRAME
290
     0
  9
$HALOGAP
280
     0
  9
$OBSCOLOR
 70
   257
  9
$OBSLTYPE
280
     0
  9
$INTERSECTIONDISPLAY
280
     0
  9
$INTERSECTIONCOLOR
 70
   257
  9
$DIMASSOC
280
     1
  9
$PROJECTNAME
  1

  0
ENDSEC
  0
SECTION
  2
CLASSES
  0
CLASS
  1
ACDBDICTIONARYWDFLT
  2
AcDbDictionaryWithDefault
  3
ObjectDBX Classes
 90
        0
 91
        3
280
     0
281
     0
  0
CLASS
  1
SORTENTSTABLE
  2
AcDbSortentsTable
  3
ObjectDBX Classes
 90
        0
 91
        3
280
     0
281
     0
  0
ENDSEC
  0
SECTION
  2
TABLES
  0
TABLE
  2
VPORT
  5
4BA
330
0
100
AcDbSymbolTable
 70
     4
  0
VPORT
  5
49
330
4BA
100
AcDbSymbolTableRecord
100
AcDbViewportTableRecord
  2
*ACTIVE
 70
     0
 10
0.0
 20
0.0
 11
1.0
 21
1.0
 12
36.868687
 22
-52.069672
 13
0.0
 23
0.0
 14
0.083333
 24
0.083333
 15
0.083333
 25
0.083333
 16
0.0
 26
0.0
 36
1.0
 17
0.0
 27
0.0
 37
0.0
 40
8.840704
 41
1.884937
 42
50.0
 43
0.0
 44
0.0
 50
0.0
 51
0.0
 71
     0
 72
   100
 73
     1
 74
     2
 75
     0
 76
     0
 77
     0
 78
     1
281
     0
 65
     1
110
0.0
120
0.0
130
0.0
111
1.0
121
0.0
131
0.0
112
0.0
122
1.0
132
0.0
 79
     0
146
0.0
  0
ENDTAB
  0
TABLE
  2
LTYPE
  5
4A1
330
0
100
AcDbSymbolTable
 70
     3
  0
LTYPE
  5
4A2
330
4A1
100
AcDbSymbolTableRecord
100
AcDbLinetypeTableRecord
  2
ByBlock
 70
     0
  3

 72
    65
 73
     0
 40
0.0
  0
LTYPE
  5
4A3
330
4A1
100
AcDbSymbolTableRecord
100
AcDbLinetypeTableRecord
  2
ByLayer
 70
     0
  3

 72
    65
 73
     0
 40
0.0
  0
LTYPE
  5
4A0
330
4A1
100
AcDbSymbolTableRecord
100
AcDbLinetypeTableRecord
  2
Continuous
 70
     0
  3
Solid line
 72
    65
 73
     0
 40
0.0
  0
LTYPE
  5
4CE
330
4A1
100
AcDbSymbolTableRecord
100
AcDbLinetypeTableRecord
  2
DGN Style 2
 70
     0
  3
Dgn Style 2
 72
    65
 73
     2
 40
0.166642
 49
0.099985
 74
     0
 49
-0.066657
 74
     0
  0
LTYPE
  5
4CF
330
4A1
100
AcDbSymbolTableRecord
100
AcDbLinetypeTableRecord
  2
DGN Style 7
 70
     0
  3
Dgn Style 7
 72
    65
 73
     4
 40
0.333283
 49
0.149978
 74
     0
 49
-0.066657
 74
     0
 49
0.049993
 74
     0
 49
-0.066657
 74
     0
  0
ENDTAB
  0
TABLE
  2
LAYER
  5
49A
102
{ACAD_XDICTIONARY
360
49B
102
}
330
0
100
AcDbSymbolTable
 70
    64
  0
LAYER
  5
499
330
49A
100
AcDbSymbolTableRecord
100
AcDbLayerTableRecord
  2
0
 70
     0
 62
     7
  6
Continuous
370
    -3
390
49D
  0
LAYER
  5
7
330
49A
100
AcDbSymbolTableRecord
100
AcDbLayerTableRecord
  2
Level 1
 70
     0
 62
     7
  6
Continuous
370
     0
390
49D
  0
LAYER
  5
8
330
49A
100
AcDbSymbolTableRecord
100
AcDbLayerTableRecord
  2
2-30K
 70
     0
 62
     7
  6
Continuous
370
     0
390
49D
1001
AcAecLayerStandard
1000

1000
2-30K
  0
LAYER
  5
9
330
49A
100
AcDbSymbolTableRecord
100
AcDbLayerTableRecord
  2
DIM
 70
     0
 62
     7
  6
Continuous
370
     0
390
49D
1001
AcAecLayerStandard
1000

1000
DIM
  0
LAYER
  5
A
330
49A
100
AcDbSymbolTableRecord
100
AcDbLayerTableRecord
  2
LEGEND
 70
     0
 62
     7
  6
Continuous
370
     0
390
49D
1001
AcAecLayerStandard
1000

1000
LEGEND
  0
LAYER
  5
B
330
49A
100
AcDbSymbolTableRecord
100
AcDbLayerTableRecord
  2
HATCH
 70
     0
 62
     7
  6
Continuous
370
     0
390
49D
1001
AcAecLayerStandard
1000

1000
HATCH
  0
LAYER
  5
C
330
49A
100
AcDbSymbolTableRecord
100
AcDbLayerTableRecord
  2
TEXT
 70
     0
 62
     7
  6
Continuous
370
     0
390
49D
1001
AcAecLayerStandard
1000

1000
TEXT
  0
LAYER
  5
D
330
49A
100
AcDbSymbolTableRecord
100
AcDbLayerTableRecord
  2
TITLE
 70
     0
 62
     7
  6
Continuous
370
     0
390
49D
1001
AcAecLayerStandard
1000

1000
TITLE
  0
LAYER
  5
E
330
49A
100
AcDbSymbolTableRecord
100
AcDbLayerTableRecord
  2
Level 8
 70
     0
 62
     7
  6
Continuous
370
     0
390
49D
  0
LAYER
  5
F
330
49A
100
AcDbSymbolTableRecord
100
AcDbLayerTableRecord
  2
Level 9
 70
     0
 62
     7
  6
Continuous
370
     0
390
49D
  0
LAYER
  5
10
330
49A
100
AcDbSymbolTableRecord
100
AcDbLayerTableRecord
  2
Level 10
 70
     0
 62
     7
  6
Continuous
370
     0
390
49D
  0
LAYER
  5
11
330
49A
100
AcDbSymbolTableRecord
100
AcDbLayerTableRecord
  2
Level 11
 70
     0
 62
     7
  6
Continuous
370
     0
390
49D
  0
LAYER
  5
12
330
49A
100
AcDbSymbolTableRecord
100
AcDbLayerTableRecord
  2
Level 12
 70
     0
 62
     7
  6
Continuous
370
     0
390
49D
  0
LAYER
  5
13
330
49A
100
AcDbSymbolTableRecord
100
AcDbLayerTableRecord
  2
Level 13
 70
     0
 62
     7
  6
Continuous
370
     0
390
49D
  0
LAYER
  5
14
330
49A
100
AcDbSymbolTableRecord
100
AcDbLayerTableRecord
  2
Level 14
 70
     0
 62
     7
  6
Continuous
370
     0
390
49D
  0
LAYER
  5
15
330
49A
100
AcDbSymbolTableRecord
100
AcDbLayerTableRecord
  2
Level 15
 70
     0
 62
     7
  6
Continuous
370
     0
390
49D
  0
LAYER
  5
16
330
49A
100
AcDbSymbolTableRecord
100
AcDbLayerTableRecord
  2
Level 16
 70
     0
 62
     7
  6
Continuous
370
     0
390
49D
  0
LAYER
  5
17
330
49A
100
AcDbSymbolTableRecord
100
AcDbLayerTableRecord
  2
Level 17
 70
     0
 62
     7
  6
Continuous
370
     0
390
49D
  0
LAYER
  5
18
330
49A
100
AcDbSymbolTableRecord
100
AcDbLayerTableRecord
  2
Level 18
 70
     0
 62
     7
  6
Continuous
370
     0
390
49D
  0
LAYER
  5
19
330
49A
100
AcDbSymbolTableRecord
100
AcDbLayerTableRecord
  2
Level 19
 70
     0
 62
     7
  6
Continuous
370
     0
390
49D
  0
LAYER
  5
1A
330
49A
100
AcDbSymbolTableRecord
100
AcDbLayerTableRecord
  2
Level 20
 70
     0
 62
     7
  6
Continuous
370
     0
390
49D
  0
LAYER
  5
1B
330
49A
100
AcDbSymbolTableRecord
100
AcDbLayerTableRecord
  2
Level 21
 70
     0
 62
     7
  6
Continuous
370
     0
390
49D
  0
LAYER
  5
1C
330
49A
100
AcDbSymbolTableRecord
100
AcDbLayerTableRecord
  2
Level 22
 70
     0
 62
     7
  6
Continuous
370
     0
390
49D
  0
LAYER
  5
1D
330
49A
100
AcDbSymbolTableRecord
100
AcDbLayerTableRecord
  2
Level 23
 70
     0
 62
     7
  6
Continuous
370
     0
390
49D
  0
LAYER
  5
1E
330
49A
100
AcDbSymbolTableRecord
100
AcDbLayerTableRecord
  2
Level 24
 70
     0
 62
     7
  6
Continuous
370
     0
390
49D
  0
LAYER
  5
1F
330
49A
100
AcDbSymbolTableRecord
100
AcDbLayerTableRecord
  2
Level 25
 70
     0
 62
     7
  6
Continuous
370
     0
390
49D
  0
LAYER
  5
20
330
49A
100
AcDbSymbolTableRecord
100
AcDbLayerTableRecord
  2
Level 26
 70
     0
 62
     7
  6
Continuous
370
     0
390
49D
  0
LAYER
  5
21
330
49A
100
AcDbSymbolTableRecord
100
AcDbLayerTableRecord
  2
Level 27
 70
     0
 62
     7
  6
Continuous
370
     0
390
49D
  0
LAYER
  5
22
330
49A
100
AcDbSymbolTableRecord
100
AcDbLayerTableRecord
  2
Level 28
 70
     0
 62
     7
  6
Continuous
370
     0
390
49D
  0
LAYER
  5
23
330
49A
100
AcDbSymbolTableRecord
100
AcDbLayerTableRecord
  2
Level 29
 70
     0
 62
     7
  6
Continuous
370
     0
390
49D
  0
LAYER
  5
24
330
49A
100
AcDbSymbolTableRecord
100
AcDbLayerTableRecord
  2
Level 30
 70
     0
 62
     7
  6
Continuous
370
     0
390
49D
  0
LAYER
  5
25
330
49A
100
AcDbSymbolTableRecord
100
AcDbLayerTableRecord
  2
Level 31
 70
     0
 62
     7
  6
Continuous
370
     0
390
49D
  0
LAYER
  5
26
330
49A
100
AcDbSymbolTableRecord
100
AcDbLayerTableRecord
  2
Level 32
 70
     0
 62
     7
  6
Continuous
370
     0
390
49D
  0
LAYER
  5
27
330
49A
100
AcDbSymbolTableRecord
100
AcDbLayerTableRecord
  2
Level 33
 70
     0
 62
     7
  6
Continuous
370
     0
390
49D
  0
LAYER
  5
28
330
49A
100
AcDbSymbolTableRecord
100
AcDbLayerTableRecord
  2
Level 34
 70
     0
 62
     7
  6
Continuous
370
     0
390
49D
  0
LAYER
  5
29
330
49A
100
AcDbSymbolTableRecord
100
AcDbLayerTableRecord
  2
Level 35
 70
     0
 62
     7
  6
Continuous
370
     0
390
49D
  0
LAYER
  5
2A
330
49A
100
AcDbSymbolTableRecord
100
AcDbLayerTableRecord
  2
Level 36
 70
     0
 62
     7
  6
Continuous
370
     0
390
49D
  0
LAYER
  5
2B
330
49A
100
AcDbSymbolTableRecord
100
AcDbLayerTableRecord
  2
Level 37
 70
     0
 62
     7
  6
Continuous
370
     0
390
49D
  0
LAYER
  5
2C
330
49A
100
AcDbSymbolTableRecord
100
AcDbLayerTableRecord
  2
Level 38
 70
     0
 62
     7
  6
Continuous
370
     0
390
49D
  0
LAYER
  5
2D
330
49A
100
AcDbSymbolTableRecord
100
AcDbLayerTableRecord
  2
Level 39
 70
     0
 62
     7
  6
Continuous
370
     0
390
49D
  0
LAYER
  5
2E
330
49A
100
AcDbSymbolTableRecord
100
AcDbLayerTableRecord
  2
Level 40
 70
     0
 62
     7
  6
Continuous
370
     0
390
49D
  0
LAYER
  5
2F
330
49A
100
AcDbSymbolTableRecord
100
AcDbLayerTableRecord
  2
Level 41
 70
     0
 62
     7
  6
Continuous
370
     0
390
49D
  0
LAYER
  5
30
330
49A
100
AcDbSymbolTableRecord
100
AcDbLayerTableRecord
  2
Level 42
 70
     0
 62
     7
  6
Continuous
370
     0
390
49D
  0
LAYER
  5
31
330
49A
100
AcDbSymbolTableRecord
100
AcDbLayerTableRecord
  2
Level 43
 70
     0
 62
     7
  6
Continuous
370
     0
390
49D
  0
LAYER
  5
32
330
49A
100
AcDbSymbolTableRecord
100
AcDbLayerTableRecord
  2
Level 44
 70
     0
 62
     7
  6
Continuous
370
     0
390
49D
  0
LAYER
  5
33
330
49A
100
AcDbSymbolTableRecord
100
AcDbLayerTableRecord
  2
Level 45
 70
     0
 62
     7
  6
Continuous
370
     0
390
49D
  0
LAYER
  5
34
330
49A
100
AcDbSymbolTableRecord
100
AcDbLayerTableRecord
  2
Level 46
 70
     0
 62
     7
  6
Continuous
370
     0
390
49D
  0
LAYER
  5
35
330
49A
100
AcDbSymbolTableRecord
100
AcDbLayerTableRecord
  2
Level 47
 70
     0
 62
     7
  6
Continuous
370
     0
390
49D
  0
LAYER
  5
36
330
49A
100
AcDbSymbolTableRecord
100
AcDbLayerTableRecord
  2
Level 48
 70
     0
 62
     7
  6
Continuous
370
     0
390
49D
  0
LAYER
  5
37
330
49A
100
AcDbSymbolTableRecord
100
AcDbLayerTableRecord
  2
Level 49
 70
     0
 62
     7
  6
Continuous
370
     0
390
49D
  0
LAYER
  5
38
330
49A
100
AcDbSymbolTableRecord
100
AcDbLayerTableRecord
  2
Level 50
 70
     0
 62
     7
  6
Continuous
370
     0
390
49D
  0
LAYER
  5
39
330
49A
100
AcDbSymbolTableRecord
100
AcDbLayerTableRecord
  2
Level 51
 70
     0
 62
     7
  6
Continuous
370
     0
390
49D
  0
LAYER
  5
3A
330
49A
100
AcDbSymbolTableRecord
100
AcDbLayerTableRecord
  2
Level 52
 70
     0
 62
     7
  6
Continuous
370
     0
390
49D
  0
LAYER
  5
3B
330
49A
100
AcDbSymbolTableRecord
100
AcDbLayerTableRecord
  2
Level 53
 70
     0
 62
     7
  6
Continuous
370
     0
390
49D
  0
LAYER
  5
3C
330
49A
100
AcDbSymbolTableRecord
100
AcDbLayerTableRecord
  2
Level 54
 70
     0
 62
     7
  6
Continuous
370
     0
390
49D
  0
LAYER
  5
3D
330
49A
100
AcDbSymbolTableRecord
100
AcDbLayerTableRecord
  2
Level 55
 70
     0
 62
     7
  6
Continuous
370
     0
390
49D
  0
LAYER
  5
3E
330
49A
100
AcDbSymbolTableRecord
100
AcDbLayerTableRecord
  2
Level 56
 70
     0
 62
     7
  6
Continuous
370
     0
390
49D
  0
LAYER
  5
3F
330
49A
100
AcDbSymbolTableRecord
100
AcDbLayerTableRecord
  2
Level 57
 70
     0
 62
     7
  6
Continuous
370
     0
390
49D
  0
LAYER
  5
40
330
49A
100
AcDbSymbolTableRecord
100
AcDbLayerTableRecord
  2
Level 58
 70
     0
 62
     7
  6
Continuous
370
     0
390
49D
  0
LAYER
  5
41
330
49A
100
AcDbSymbolTableRecord
100
AcDbLayerTableRecord
  2
Level 59
 70
     0
 62
     7
  6
Continuous
370
     0
390
49D
  0
LAYER
  5
42
330
49A
100
AcDbSymbolTableRecord
100
AcDbLayerTableRecord
  2
Level 60
 70
     0
 62
     7
  6
Continuous
370
     0
390
49D
  0
LAYER
  5
43
330
49A
100
AcDbSymbolTableRecord
100
AcDbLayerTableRecord
  2
Level 61
 70
     0
 62
     7
  6
Continuous
370
     0
390
49D
  0
LAYER
  5
44
330
49A
100
AcDbSymbolTableRecord
100
AcDbLayerTableRecord
  2
Level 62
 70
     0
 62
     7
  6
Continuous
370
     0
390
49D
  0
LAYER
  5
45
330
49A
100
AcDbSymbolTableRecord
100
AcDbLayerTableRecord
  2
_0
 70
     0
 62
     7
  6
Continuous
370
     0
390
49D
1001
AcAecLayerStandard
1000

1000
0
  0
ENDTAB
  0
TABLE
  2
STYLE
  5
4A5
330
0
100
AcDbSymbolTable
 70
     3
  0
STYLE
  5
4A4
330
4A5
100
AcDbSymbolTableRecord
100
AcDbTextStyleTableRecord
  2
Standard
 70
     0
 40
0.0
 41
1.0
 50
0.0
 71
     0
 42
0.12
  3
txt
  4

  0
STYLE
  5
4C4
330
4A5
100
AcDbSymbolTableRecord
100
AcDbTextStyleTableRecord
  2
Style-STANDARD
 70
     0
 40
0.0
 41
1.0
 50
0.0
 71
     0
 42
0.2
  3
STANDARD.shx
  4

  0
STYLE
  5
4D3
330
4A5
100
AcDbSymbolTableRecord
100
AcDbTextStyleTableRecord
  2
Style-Arial
 70
     0
 40
0.0
 41
1.0
 50
0.0
 71
     0
 42
0.2
  3

  4

1001
ACAD
1000
Arial
1071
       39
  0
ENDTAB
  0
TABLE
  2
VIEW
  5
4B8
330
0
100
AcDbSymbolTable
 70
     0
  0
ENDTAB
  0
TABLE
  2
UCS
  5
4B9
330
0
100
AcDbSymbolTable
 70
     0
  0
ENDTAB
  0
TABLE
  2
APPID
  5
4B7
330
0
100
AcDbSymbolTable
 70
     3
  0
APPID
  5
4BF
330
4B7
100
AcDbSymbolTableRecord
100
AcDbRegAppTableRecord
  2
ACAD
 70
     0
  0
APPID
  5
4B6
330
4B7
100
AcDbSymbolTableRecord
100
AcDbRegAppTableRecord
  2
ACAD_PSEXT
 70
     0
  0
APPID
  5
4C1
330
4B7
100
AcDbSymbolTableRecord
100
AcDbRegAppTableRecord
  2
AcAecLayerStandard
 70
     0
  0
ENDTAB
  0
TABLE
  2
DIMSTYLE
  5
4A7
330
0
100
AcDbSymbolTable
 70
     1
100
AcDbDimStyleTable
  0
DIMSTYLE
105
4A6
330
4A7
100
AcDbSymbolTableRecord
100
AcDbDimStyleTableRecord
  2
Standard
 70
     0
340
4A4
  0
ENDTAB
  0
TABLE
  2
BLOCK_RECORD
  5
4AA
330
0
100
AcDbSymbolTable
 70
     2
  0
BLOCK_RECORD
  5
4AB
102
{ACAD_XDICTIONARY
360
4D4
102
}
330
4AA
100
AcDbSymbolTableRecord
100
AcDbBlockTableRecord
  2
*Model_Space
340
4AE
  0
BLOCK_RECORD
  5
4B0
330
4AA
100
AcDbSymbolTableRecord
100
AcDbBlockTableRecord
  2
*Paper_Space
340
4B3
  0
BLOCK_RECORD
  5
4C5
330
4AA
100
AcDbSymbolTableRecord
100
AcDbBlockTableRecord
  2
TerminatorOpen_0.5
340
0
  0
BLOCK_RECORD
  5
4D0
330
4AA
100
AcDbSymbolTableRecord
100
AcDbBlockTableRecord
  2
LARROW
340
0
102
{BLKREFS
331
437
102
}
  0
ENDTAB
  0
ENDSEC
  0
SECTION
  2
BLOCKS
  0
BLOCK
  5
4AC
330
4AB
100
AcDbEntity
  8
0
100
AcDbBlockBegin
  2
*Model_Space
 70
     0
 71
     0
 10
0.0
 20
0.0
 30
0.0
  3
*Model_Space
  1

  0
ENDBLK
  5
4AD
330
4AB
100
AcDbEntity
  8
0
100
AcDbBlockEnd
  0
BLOCK
  5
4B1
330
4B0
100
AcDbEntity
 67
     1
  8
0
100
AcDbBlockBegin
  2
*Paper_Space
 70
     0
 71
     0
 10
0.0
 20
0.0
 30
0.0
  3
*Paper_Space
  1

  0
ENDBLK
  5
4B2
330
4B0
100
AcDbEntity
 67
     1
  8
0
100
AcDbBlockEnd
  0
BLOCK
  5
4C9
330
4C5
100
AcDbEntity
  8
0
100
AcDbBlockBegin
  2
TerminatorOpen_0.5
 70
     0
 71
     0
 10
0.0
 20
0.0
 30
0.0
  3
TerminatorOpen_0.5
  1

  0
LINE
  5
4C6
330
4C5
100
AcDbEntity
  8
0
  6
ByBlock
 62
     0
370
    -2
100
AcDbLine
 10
0.0
 20
0.0
 30
0.0
 11
-1.0
 21
0.0
 31
0.0
  0
LINE
  5
4C7
330
4C5
100
AcDbEntity
  8
0
  6
ByBlock
 62
     0
370
    -2
100
AcDbLine
 10
0.0
 20
0.0
 30
0.0
 11
-1.0
 21
0.25
 31
0.0
  0
LINE
  5
4C8
330
4C5
100
AcDbEntity
  8
0
  6
ByBlock
 62
     0
370
    -2
100
AcDbLine
 10
0.0
 20
0.0
 30
0.0
 11
-1.0
 21
-0.25
 31
0.0
  0
ENDBLK
  5
4CA
330
4C5
100
AcDbEntity
  8
0
100
AcDbBlockEnd
  0
BLOCK
  5
4D1
330
4D0
100
AcDbEntity
  8
0
100
AcDbBlockBegin
  2
LARROW
 70
     0
 71
     0
 10
0.0
 20
0.0
 30
0.0
  3
LARROW
  1

  0
LINE
  5
438
330
4D0
100
AcDbEntity
  8
TEXT
  6
Continuous
 62
     7
370
    13
100
AcDbLine
 10
0.0
 20
0.0
 30
0.0
 11
-0.013031
 21
0.001885
 31
0.0
  0
LINE
  5
439
330
4D0
100
AcDbEntity
  8
TEXT
  6
Continuous
 62
     7
370
    13
100
AcDbLine
 10
0.0
 20
0.0
 30
0.0
 11
-0.013021
 21
-0.001885
 31
0.0
  0
LWPOLYLINE
  5
43A
330
4D0
100
AcDbEntity
  8
TEXT
  6
Continuous
 62
     7
370
    13
100
AcDbPolyline
 90
        9
 70
   128
 43
0.0
 10
-0.013031
 20
0.001885
 10
-0.01225
 20
0.00129
 10
-0.011896
 20
0.000813
 10
-0.01172
 20
0.000365
 10
-0.011687
 20
-0.000052
 10
-0.011751
 20
-0.000459
 10
-0.011959
 20
-0.000896
 10
-0.012323
 20
-0.001353
 10
-0.013021
 20
-0.001885
  0
LINE
  5
43B
330
4D0
100
AcDbEntity
  8
TEXT
  6
Continuous
 62
     7
370
    13
100
AcDbLine
 10
0.0
 20
0.0
 30
0.0
 11
-0.01225
 21
0.00129
 31
0.0
  0
LINE
  5
43C
330
4D0
100
AcDbEntity
  8
TEXT
  6
Continuous
 62
     7
370
    13
100
AcDbLine
 10
0.0
 20
0.0
 30
0.0
 11
-0.011896
 21
0.000813
 31
0.0
  0
LINE
  5
43D
330
4D0
100
AcDbEntity
  8
TEXT
  6
Continuous
 62
     7
370
    13
100
AcDbLine
 10
0.0
 20
0.0
 30
0.0
 11
-0.01172
 21
0.000365
 31
0.0
  0
LINE
  5
43E
330
4D0
100
AcDbEntity
  8
TEXT
  6
Continuous
 62
     7
370
    13
100
AcDbLine
 10
0.0
 20
0.0
 30
0.0
 11
-0.011751
 21
-0.000459
 31
0.0
  0
LINE
  5
43F
330
4D0
100
AcDbEntity
  8
TEXT
  6
Continuous
 62
     7
370
    13
100
AcDbLine
 10
0.0
 20
0.0
 30
0.0
 11
-0.011959
 21
-0.000896
 31
0.0
  0
LINE
  5
440
330
4D0
100
AcDbEntity
  8
TEXT
  6
Continuous
 62
     7
370
    13
100
AcDbLine
 10
0.0
 20
0.0
 30
0.0
 11
-0.012323
 21
-0.001353
 31
0.0
  0
LINE
  5
441
330
4D0
100
AcDbEntity
  8
TEXT
  6
Continuous
 62
     7
370
    13
100
AcDbLine
 10
0.0
 20
0.0
 30
0.0
 11
-0.011678
 21
0.0
 31
0.0
  0
ENDBLK
  5
4D2
330
4D0
100
AcDbEntity
  8
0
100
AcDbBlockEnd
  0
ENDSEC
  0
SECTION
  2
ENTITIES
  0
LINE
  5
5B
330
4AB
100
AcDbEntity
  8
_0
  6
Continuous
 62
     7
370
    13
100
AcDbLine
 10
42.369125
 20
-56.32001
 30
0.0
 11
42.162573
 21
-56.32001
 31
0.0
  0
POINT
  5
5C
330
4AB
100
AcDbEntity
  8
_0
  6
Continuous
 62
     7
370
    13
100
AcDbPoint
 10
32.35524
 20
-48.444385
 30
0.0
  0
LINE
  5
5D
330
4AB
100
AcDbEntity
  8
_0
  6
Continuous
 62
     7
370
    13
100
AcDbLine
 10
42.369125
 20
-47.819333
 30
0.0
 11
42.162573
 21
-47.819333
 31
0.0
  0
LINE
  5
5E
330
4AB
100
AcDbEntity
  8
_0
  6
Continuous
 62
     7
370
    13
100
AcDbLine
 10
42.369125
 20
-56.32001
 30
0.0
 11
42.369125
 21
-56.113458
 31
0.0
  0
LINE
  5
5F
330
4AB
100
AcDbEntity
  8
_0
  6
Continuous
 62
     7
370
    13
100
AcDbLine
 10
31.36825
 20
-56.32001
 30
0.0
 11
31.36825
 21
-56.113458
 31
0.0
  0
LINE
  5
60
330
4AB
100
AcDbEntity
  8
_0
  6
Continuous
 62
     7
370
    13
100
AcDbLine
 10
42.369125
 20
-48.025896
 30
0.0
 11
42.369125
 21
-47.819333
 31
0.0
  0
LINE
  5
61
330
4AB
100
AcDbEntity
  8
_0
  6
Continuous
 62
     7
370
    13
100
AcDbLine
 10
31.574813
 20
-56.32001
 30
0.0
 11
31.36825
 21
-56.32001
 31
0.0
  0
LINE
  5
62
330
4AB
100
AcDbEntity
  8
_0
  6
Continuous
 62
     7
370
    13
100
AcDbLine
 10
31.574813
 20
-47.819333
 30
0.0
 11
31.36825
 21
-47.819333
 31
0.0
  0
LINE
  5
63
330
4AB
100
AcDbEntity
  8
_0
  6
Continuous
 62
     7
370
    13
100
AcDbLine
 10
31.36825
 20
-48.025896
 30
0.0
 11
31.36825
 21
-47.819333
 31
0.0
  0
LINE
  5
64
330
4AB
100
AcDbEntity
  8
2-30K
  6
Continuous
 62
     7
370
    13
100
AcDbLine
 10
41.455958
 20
-55.694958
 30
0.0
 11
41.455958
 21
-48.444385
 31
0.0
  0
LINE
  5
65
330
4AB
100
AcDbEntity
  8
2-30K
  6
Continuous
 62
     7
370
    13
100
AcDbLine
 10
32.35524
 20
-48.444385
 30
0.0
 11
41.455958
 21
-48.444385
 31
0.0
  0
LINE
  5
66
330
4AB
100
AcDbEntity
  8
2-30K
  6
Continuous
 62
     7
370
    13
100
AcDbLine
 10
32.35524
 20
-55.694958
 30
0.0
 11
32.35524
 21
-48.444385
 31
0.0
  0
LINE
  5
69
330
4AB
100
AcDbEntity
  8
2-30K
  6
Continuous
 62
     7
370
    13
100
AcDbLine
 10
32.35524
 20
-55.194927
 30
0.0
 11
41.455958
 21
-55.194927
 31
0.0
  0
LINE
  5
6A
330
4AB
100
AcDbEntity
  8
2-30K
  6
Continuous
 62
     7
370
    13
100
AcDbLine
 10
32.35524
 20
-55.694958
 30
0.0
 11
41.455958
 21
-55.694958
 31
0.0
  0
LINE
  5
6C
330
4AB
100
AcDbEntity
  8
2-30K
  6
Continuous
 62
     7
370
    13
100
AcDbLine
 10
39.255792
 20
-55.694958
 30
0.0
 11
39.255792
 21
-55.194927
 31
0.0
  0
LINE
  5
6E
330
4AB
100
AcDbEntity
  8
2-30K
  6
Continuous
 62
     7
370
    13
100
AcDbLine
 10
40.355875
 20
-55.694958
 30
0.0
 11
40.355875
 21
-55.194927
 31
0.0
  0
SOLID
  5
72
330
4AB
100
AcDbEntity
  8
DIM
  6
Continuous
 62
     7
370
    13
100
AcDbTrace
 10
37.910656
 20
-54.141406
 30
0.0
 11
37.910656
 21
-54.12474
 31
0.0
 12
37.860656
 22
-54.133073
 32
0.0
 13
37.860656
 23
-54.133073
 33
0.0
  0
LINE
  5
73
330
4AB
100
AcDbEntity
  8
DIM
  6
Continuous
 62
     7
370
    13
100
AcDbLine
 10
37.860875
 20
-54.095135
 30
0.0
 11
37.860875
 21
-54.171031
 31
0.0
  0
LINE
  5
75
330
4AB
100
AcDbEntity
  8
DIM
  6
Continuous
 62
     7
370
    13
100
AcDbLine
 10
38.186656
 20
-54.094615
 30
0.0
 11
37.810583
 21
-54.094615
 31
0.0
  0
SOLID
  5
76
330
4AB
100
AcDbEntity
  8
DIM
  6
Continuous
 62
     7
370
    13
100
AcDbTrace
 10
37.868917
 20
-54.044615
 30
0.0
 11
37.85225
 21
-54.044615
 31
0.0
 12
37.860583
 22
-54.094615
 32
0.0
 13
37.860583
 23
-54.094615
 33
0.0
  0
SOLID
  5
77
330
4AB
100
AcDbEntity
  8
DIM
  6
Continuous
 62
     7
370
    13
100
AcDbTrace
 10
37.868917
 20
-53.981542
 30
0.0
 11
37.85225
 21
-53.981542
 31
0.0
 12
37.860583
 22
-53.931542
 32
0.0
 13
37.860583
 23
-53.931542
 33
0.0
  0
SOLID
  5
79
330
4AB
100
AcDbEntity
  8
DIM
  6
Continuous
 62
     7
370
    13
100
AcDbTrace
 10
37.868917
 20
-54.220417
 30
0.0
 11
37.85225
 21
-54.220417
 31
0.0
 12
37.860583
 22
-54.170417
 32
0.0
 13
37.860583
 23
-54.170417
 33
0.0
  0
SOLID
  5
7A
330
4AB
100
AcDbEntity
  8
DIM
  6
Continuous
 62
     7
370
    13
100
AcDbTrace
 10
37.868917
 20
-54.28349
 30
0.0
 11
37.85225
 21
-54.28349
 31
0.0
 12
37.860583
 22
-54.3335
 32
0.0
 13
37.860583
 23
-54.3335
 33
0.0
  0
LINE
  5
7B
330
4AB
100
AcDbEntity
  8
DIM
  6
Continuous
 62
     7
370
    13
100
AcDbLine
 10
38.186656
 20
-54.170417
 30
0.0
 11
37.810583
 21
-54.170417
 31
0.0
  0
LINE
  5
7C
330
4AB
100
AcDbEntity
  8
DIM
  6
Continuous
 62
     7
370
    13
100
AcDbLine
 10
37.860875
 20
-54.132521
 30
0.0
 11
38.370219
 21
-54.132521
 31
0.0
  0
LINE
  5
7E
330
4AB
100
AcDbEntity
  8
DIM
  6
Continuous
 62
     7
370
    13
100
AcDbLine
 10
38.22076
 20
-53.801073
 30
0.0
 11
37.846521
 21
-53.801073
 31
0.0
  0
LINE
  5
7F
330
4AB
100
AcDbEntity
  8
DIM
  6
Continuous
 62
     7
370
    13
100
AcDbLine
 10
37.860583
 20
-53.851083
 30
0.0
 11
37.860583
 21
-53.881531
 31
0.0
  0
SOLID
  5
80
330
4AB
100
AcDbEntity
  8
DIM
  6
Continuous
 62
     7
370
    13
100
AcDbTrace
 10
37.868917
 20
-53.851083
 30
0.0
 11
37.85225
 21
-53.851083
 31
0.0
 12
37.860583
 22
-53.801073
 32
0.0
 13
37.860583
 23
-53.801073
 33
0.0
  0
SOLID
  5
81
330
4AB
100
AcDbEntity
  8
DIM
  6
Continuous
 62
     7
370
    13
100
AcDbTrace
 10
37.868917
 20
-53.881531
 30
0.0
 11
37.85225
 21
-53.881531
 31
0.0
 12
37.860583
 22
-53.931542
 32
0.0
 13
37.860583
 23
-53.931542
 33
0.0
  0
LINE
  5
82
330
4AB
100
AcDbEntity
  8
DIM
  6
Continuous
 62
     7
370
    13
100
AcDbLine
 10
38.02849
 20
-53.931542
 30
0.0
 11
37.810583
 21
-53.931542
 31
0.0
  0
LINE
  5
83
330
4AB
100
AcDbEntity
  8
DIM
  6
Continuous
 62
     7
370
    13
100
AcDbLine
 10
37.769198
 20
-53.801073
 30
0.0
 11
37.61949
 21
-53.801073
 31
0.0
  0
LINE
  5
84
330
4AB
100
AcDbEntity
  8
DIM
  6
Continuous
 62
     7
370
    13
100
AcDbLine
 10
37.769198
 20
-54.463958
 30
0.0
 11
37.61949
 21
-54.463958
 31
0.0
  0
SOLID
  5
86
330
4AB
100
AcDbEntity
  8
DIM
  6
Continuous
 62
     7
370
    13
100
AcDbTrace
 10
37.868917
 20
-54.3835
 30
0.0
 11
37.85225
 21
-54.3835
 31
0.0
 12
37.860583
 22
-54.3335
 32
0.0
 13
37.860583
 23
-54.3335
 33
0.0
  0
SOLID
  5
87
330
4AB
100
AcDbEntity
  8
DIM
  6
Continuous
 62
     7
370
    13
100
AcDbTrace
 10
37.868917
 20
-54.413948
 30
0.0
 11
37.85225
 21
-54.413948
 31
0.0
 12
37.860583
 22
-54.463958
 32
0.0
 13
37.860583
 23
-54.463958
 33
0.0
  0
LINE
  5
88
330
4AB
100
AcDbEntity
  8
DIM
  6
Continuous
 62
     7
370
    13
100
AcDbLine
 10
37.860583
 20
-54.413948
 30
0.0
 11
37.860583
 21
-54.3835
 31
0.0
  0
LINE
  5
89
330
4AB
100
AcDbEntity
  8
DIM
  6
Continuous
 62
     7
370
    13
100
AcDbLine
 10
38.02849
 20
-54.3335
 30
0.0
 11
37.810583
 21
-54.3335
 31
0.0
  0
SOLID
  5
8B
330
4AB
100
AcDbEntity
  8
DIM
  6
Continuous
 62
     7
370
    13
100
AcDbTrace
 10
37.677823
 20
-53.851083
 30
0.0
 11
37.661156
 21
-53.851083
 31
0.0
 12
37.66949
 22
-53.801073
 32
0.0
 13
37.66949
 23
-53.801073
 33
0.0
  0
SOLID
  5
8C
330
4AB
100
AcDbEntity
  8
DIM
  6
Continuous
 62
     7
370
    13
100
AcDbTrace
 10
37.677823
 20
-54.413948
 30
0.0
 11
37.661156
 21
-54.413948
 31
0.0
 12
37.66949
 22
-54.463958
 32
0.0
 13
37.66949
 23
-54.463958
 33
0.0
  0
LINE
  5
8D
330
4AB
100
AcDbEntity
  8
DIM
  6
Continuous
 62
     7
370
    13
100
AcDbLine
 10
37.66949
 20
-54.413948
 30
0.0
 11
37.66949
 21
-53.851083
 31
0.0
  0
LINE
  5
8E
330
4AB
100
AcDbEntity
  8
DIM
  6
Continuous
 62
     7
370
    13
100
AcDbLine
 10
38.22076
 20
-54.463958
 30
0.0
 11
37.846521
 21
-54.463958
 31
0.0
  0
LINE
  5
8F
330
4AB
100
AcDbEntity
  8
_0
  6
Continuous
 62
     7
370
    13
100
AcDbLine
 10
38.184365
 20
-54.310698
 30
0.0
 11
38.209896
 21
-54.292917
 31
0.0
  0
LINE
  5
90
330
4AB
100
AcDbEntity
  8
_0
  6
Continuous
 62
     7
370
    13
100
AcDbLine
 10
38.208979
 20
-54.293552
 30
0.0
 11
38.194312
 21
-54.27249
 31
0.0
  0
LINE
  5
91
330
4AB
100
AcDbEntity
  8
_0
  6
Continuous
 62
     7
370
    13
100
AcDbLine
 10
38.184365
 20
-54.310698
 30
0.0
 11
38.169698
 21
-54.289635
 31
0.0
  0
LINE
  5
92
330
4AB
100
AcDbEntity
  8
_0
  6
Continuous
 62
     7
370
    13
100
AcDbLine
 10
38.192542
 20
-54.228146
 30
0.0
 11
38.186823
 21
-54.219938
 31
0.0
  0
LINE
  5
93
330
4AB
100
AcDbEntity
  8
_0
  6
Continuous
 62
     7
370
    13
100
AcDbLine
 10
38.135094
 20
-54.268146
 30
0.0
 11
38.129375
 21
-54.259937
 31
0.0
  0
LINE
  5
94
330
4AB
100
AcDbEntity
  8
_0
  6
Continuous
 62
     7
370
    13
100
AcDbLine
 10
38.135094
 20
-54.268146
 30
0.0
 11
38.192542
 21
-54.228146
 31
0.0
  0
LINE
  5
95
330
4AB
100
AcDbEntity
  8
_0
  6
Continuous
 62
     7
370
    13
100
AcDbLine
 10
38.202521
 20
-54.266781
 30
0.0
 11
38.191094
 21
-54.250365
 31
0.0
  0
LINE
  5
96
330
4AB
100
AcDbEntity
  8
_0
  6
Continuous
 62
     7
370
    13
100
AcDbLine
 10
38.16149
 20
-54.295354
 30
0.0
 11
38.150062
 21
-54.278937
 31
0.0
  0
LINE
  5
97
330
4AB
100
AcDbEntity
  8
_0
  6
Continuous
 62
     7
370
    13
100
AcDbLine
 10
38.16149
 20
-54.295354
 30
0.0
 11
38.202521
 21
-54.266781
 31
0.0
  0
ARC
  5
98
330
4AB
100
AcDbEntity
  8
_0
  6
Continuous
 62
     7
370
    13
100
AcDbCircle
 10
38.16958
 20
-54.256423
 30
0.0
 40
0.0403574225190407
100
AcDbArc
 50
64.701253
 51
184.998622
  0
ARC
  5
99
330
4AB
100
AcDbEntity
  8
_0
  6
Continuous
 62
     7
370
    13
100
AcDbCircle
 10
38.173527
 20
-54.411123
 30
0.0
 40
0.0403574225190407
100
AcDbArc
 50
178.029072
 51
298.326442
  0
LINE
  5
9A
330
4AB
100
AcDbEntity
  8
_0
  6
Continuous
 62
     7
370
    13
100
AcDbLine
 10
38.212479
 20
-54.403135
 30
0.0
 11
38.16999
 21
-54.376771
 31
0.0
  0
LINE
  5
9B
330
4AB
100
AcDbEntity
  8
_0
  6
Continuous
 62
     7
370
    13
100
AcDbLine
 10
38.212479
 20
-54.403135
 30
0.0
 11
38.201927
 21
-54.420135
 31
0.0
  0
LINE
  5
9C
330
4AB
100
AcDbEntity
  8
_0
  6
Continuous
 62
     7
370
    13
100
AcDbLine
 10
38.16999
 20
-54.376771
 30
0.0
 11
38.159437
 21
-54.393771
 31
0.0
  0
LINE
  5
9D
330
4AB
100
AcDbEntity
  8
_0
  6
Continuous
 62
     7
370
    13
100
AcDbLine
 10
38.197948
 20
-54.438146
 30
0.0
 11
38.138469
 21
-54.40124
 31
0.0
  0
LINE
  5
9E
330
4AB
100
AcDbEntity
  8
_0
  6
Continuous
 62
     7
370
    13
100
AcDbLine
 10
38.197948
 20
-54.438146
 30
0.0
 11
38.192677
 21
-54.446646
 31
0.0
  0
LINE
  5
9F
330
4AB
100
AcDbEntity
  8
_0
  6
Continuous
 62
     7
370
    13
100
AcDbLine
 10
38.138469
 20
-54.40124
 30
0.0
 11
38.133187
 21
-54.40974
 31
0.0
  0
LINE
  5
A0
330
4AB
100
AcDbEntity
  8
_0
  6
Continuous
 62
     7
370
    13
100
AcDbLine
 10
38.21751
 20
-54.376062
 30
0.0
 11
38.203979
 21
-54.397865
 31
0.0
  0
LINE
  5
A1
330
4AB
100
AcDbEntity
  8
_0
  6
Continuous
 62
     7
370
    13
100
AcDbLine
 10
38.192021
 20
-54.36024
 30
0.0
 11
38.17849
 21
-54.382042
 31
0.0
  0
LINE
  5
A2
330
4AB
100
AcDbEntity
  8
_0
  6
Continuous
 62
     7
370
    13
100
AcDbLine
 10
38.21751
 20
-54.376062
 30
0.0
 11
38.191083
 21
-54.359656
 31
0.0
  0
LINE
  5
A3
330
4AB
100
AcDbEntity
  8
_0
  6
Continuous
 62
     7
370
    13
100
AcDbLine
 10
38.21751
 20
-53.97375
 30
0.0
 11
38.191083
 21
-53.957344
 31
0.0
  0
LINE
  5
A4
330
4AB
100
AcDbEntity
  8
_0
  6
Continuous
 62
     7
370
    13
100
AcDbLine
 10
38.192021
 20
-53.957927
 30
0.0
 11
38.17849
 21
-53.979729
 31
0.0
  0
LINE
  5
A5
330
4AB
100
AcDbEntity
  8
_0
  6
Continuous
 62
     7
370
    13
100
AcDbLine
 10
38.21751
 20
-53.97375
 30
0.0
 11
38.203979
 21
-53.995552
 31
0.0
  0
LINE
  5
A6
330
4AB
100
AcDbEntity
  8
_0
  6
Continuous
 62
     7
370
    13
100
AcDbLine
 10
38.138469
 20
-53.998927
 30
0.0
 11
38.133187
 21
-54.007417
 31
0.0
  0
LINE
  5
A7
330
4AB
100
AcDbEntity
  8
_0
  6
Continuous
 62
     7
370
    13
100
AcDbLine
 10
38.197948
 20
-54.035833
 30
0.0
 11
38.192677
 21
-54.044333
 31
0.0
  0
LINE
  5
A8
330
4AB
100
AcDbEntity
  8
_0
  6
Continuous
 62
     7
370
    13
100
AcDbLine
 10
38.197948
 20
-54.035833
 30
0.0
 11
38.138469
 21
-53.998927
 31
0.0
  0
LINE
  5
A9
330
4AB
100
AcDbEntity
  8
_0
  6
Continuous
 62
     7
370
    13
100
AcDbLine
 10
38.16999
 20
-53.974458
 30
0.0
 11
38.159437
 21
-53.991448
 31
0.0
  0
LINE
  5
AA
330
4AB
100
AcDbEntity
  8
_0
  6
Continuous
 62
     7
370
    13
100
AcDbLine
 10
38.212479
 20
-54.000823
 30
0.0
 11
38.201927
 21
-54.017823
 31
0.0
  0
LINE
  5
AB
330
4AB
100
AcDbEntity
  8
_0
  6
Continuous
 62
     7
370
    13
100
AcDbLine
 10
38.212479
 20
-54.000823
 30
0.0
 11
38.16999
 21
-53.974458
 31
0.0
  0
ARC
  5
AC
330
4AB
100
AcDbEntity
  8
_0
  6
Continuous
 62
     7
370
    13
100
AcDbCircle
 10
38.173527
 20
-54.008809
 30
0.0
 40
0.0403574225190407
100
AcDbArc
 50
178.029072
 51
298.326442
  0
ARC
  5
AD
330
4AB
100
AcDbEntity
  8
_0
  6
Continuous
 62
     7
370
    13
100
AcDbCircle
 10
38.16958
 20
-53.854109
 30
0.0
 40
0.0403574225190407
100
AcDbArc
 50
64.701253
 51
184.998622
  0
LINE
  5
AE
330
4AB
100
AcDbEntity
  8
_0
  6
Continuous
 62
     7
370
    13
100
AcDbLine
 10
38.16149
 20
-53.893031
 30
0.0
 11
38.202521
 21
-53.864458
 31
0.0
  0
LINE
  5
AF
330
4AB
100
AcDbEntity
  8
_0
  6
Continuous
 62
     7
370
    13
100
AcDbLine
 10
38.16149
 20
-53.893031
 30
0.0
 11
38.150062
 21
-53.876625
 31
0.0
  0
LINE
  5
B0
330
4AB
100
AcDbEntity
  8
_0
  6
Continuous
 62
     7
370
    13
100
AcDbLine
 10
38.202521
 20
-53.864458
 30
0.0
 11
38.191094
 21
-53.848052
 31
0.0
  0
LINE
  5
B1
330
4AB
100
AcDbEntity
  8
_0
  6
Continuous
 62
     7
370
    13
100
AcDbLine
 10
38.135094
 20
-53.865833
 30
0.0
 11
38.192542
 21
-53.825833
 31
0.0
  0
LINE
  5
B2
330
4AB
100
AcDbEntity
  8
_0
  6
Continuous
 62
     7
370
    13
100
AcDbLine
 10
38.135094
 20
-53.865833
 30
0.0
 11
38.129375
 21
-53.857625
 31
0.0
  0
LINE
  5
B3
330
4AB
100
AcDbEntity
  8
_0
  6
Continuous
 62
     7
370
    13
100
AcDbLine
 10
38.192542
 20
-53.825833
 30
0.0
 11
38.186823
 21
-53.817625
 31
0.0
  0
LINE
  5
B4
330
4AB
100
AcDbEntity
  8
_0
  6
Continuous
 62
     7
370
    13
100
AcDbLine
 10
38.184365
 20
-53.908385
 30
0.0
 11
38.169698
 21
-53.887323
 31
0.0
  0
LINE
  5
B5
330
4AB
100
AcDbEntity
  8
_0
  6
Continuous
 62
     7
370
    13
100
AcDbLine
 10
38.208979
 20
-53.89124
 30
0.0
 11
38.194312
 21
-53.870177
 31
0.0
  0
LINE
  5
B6
330
4AB
100
AcDbEntity
  8
_0
  6
Continuous
 62
     7
370
    13
100
AcDbLine
 10
38.184365
 20
-53.908385
 30
0.0
 11
38.209896
 21
-53.890604
 31
0.0
  0
LINE
  5
B7
330
4AB
100
AcDbEntity
  8
_0
  6
Continuous
 62
     7
370
    13
100
AcDbLine
 10
38.285385
 20
-53.675052
 30
0.0
 11
38.285385
 21
-54.472177
 31
0.0
  0
LWPOLYLINE
  5
B8
330
4AB
100
AcDbEntity
  8
_0
  6
Continuous
 62
     7
370
     0
100
AcDbPolyline
 90
       10
 70
   128
 43
0.0
 10
38.27076
 20
-53.807365
 10
38.25076
 20
-53.807365
 10
38.09575
 20
-53.907375
 10
38.09575
 20
-53.957385
 10
38.25076
 20
-54.057385
 10
38.25076
 20
-54.207396
 10
38.09575
 20
-54.307406
 10
38.09575
 20
-54.357417
 10
38.25076
 20
-54.457417
 10
38.27076
 20
-54.457417
  0
LINE
  5
B9
330
4AB
100
AcDbEntity
  8
TEXT
  6
Continuous
 62
     7
370
    13
100
AcDbLine
 10
36.696354
 20
-54.250125
 30
0.0
 11
36.766687
 21
-54.250125
 31
0.0
  0
LINE
  5
BA
330
4AB
100
AcDbEntity
  8
TEXT
  6
Continuous
 62
     7
370
    13
100
AcDbLine
 10
36.489479
 20
-54.166604
 30
0.0
 11
36.696354
 21
-54.250125
 31
0.0
  0
SOLID
  5
BB
330
4AB
100
AcDbEntity
  8
TEXT
  6
Continuous
 62
     7
370
    13
100
AcDbTrace
 10
-36.486354
 20
-54.174333
 30
0.0
 11
-36.492594
 21
-54.158875
 31
0.0
 12
-36.443104
 22
-54.147885
 32
0.0
 13
-36.443104
 23
-54.147885
 33
0.0
210
0.0
220
0.0
230
-1.0
  0
LINE
  5
C0
330
4AB
100
AcDbEntity
  8
_0
  6
Continuous
 62
     7
370
    13
100
AcDbLine
 10
36.369927
 20
-54.281042
 30
0.0
 11
36.309917
 21
-54.281042
 31
0.0
  0
LINE
  5
C1
330
4AB
100
AcDbEntity
  8
_0
  6
Continuous
 62
     7
370
    13
100
AcDbLine
 10
36.389927
 20
-54.261042
 30
0.0
 11
36.289917
 21
-54.261042
 31
0.0
  0
LINE
  5
C2
330
4AB
100
AcDbEntity
  8
_0
  6
Continuous
 62
     7
370
    13
100
AcDbLine
 10
36.369927
 20
-54.241042
 30
0.0
 11
36.309917
 21
-54.241042
 31
0.0
  0
LINE
  5
C3
330
4AB
100
AcDbEntity
  8
_0
  6
Continuous
 62
     7
370
    13
100
AcDbLine
 10
36.389927
 20
-54.221042
 30
0.0
 11
36.289917
 21
-54.221042
 31
0.0
  0
LINE
  5
C4
330
4AB
100
AcDbEntity
  8
_0
  6
Continuous
 62
     7
370
    13
100
AcDbLine
 10
36.369927
 20
-54.201042
 30
0.0
 11
36.309917
 21
-54.201042
 31
0.0
  0
LINE
  5
C5
330
4AB
100
AcDbEntity
  8
_0
  6
Continuous
 62
     7
370
    13
100
AcDbLine
 10
36.389927
 20
-54.181031
 30
0.0
 11
36.289917
 21
-54.181031
 31
0.0
  0
LINE
  5
C6
330
4AB
100
AcDbEntity
  8
_0
  6
Continuous
 62
     7
370
    13
100
AcDbLine
 10
36.369927
 20
-54.161031
 30
0.0
 11
36.309917
 21
-54.161031
 31
0.0
  0
LINE
  5
C7
330
4AB
100
AcDbEntity
  8
_0
  6
Continuous
 62
     7
370
    13
100
AcDbLine
 10
36.369927
 20
-54.446052
 30
0.0
 11
36.309917
 21
-54.446052
 31
0.0
  0
LINE
  5
C8
330
4AB
100
AcDbEntity
  8
_0
  6
Continuous
 62
     7
370
    13
100
AcDbLine
 10
36.389927
 20
-54.466062
 30
0.0
 11
36.289917
 21
-54.466062
 31
0.0
  0
LINE
  5
C9
330
4AB
100
AcDbEntity
  8
_0
  6
Continuous
 62
     7
370
    13
100
AcDbLine
 10
36.369927
 20
-54.486062
 30
0.0
 11
36.309917
 21
-54.486062
 31
0.0
  0
LINE
  5
CA
330
4AB
100
AcDbEntity
  8
_0
  6
Continuous
 62
     7
370
    13
100
AcDbLine
 10
36.389927
 20
-54.506062
 30
0.0
 11
36.289917
 21
-54.506062
 31
0.0
  0
LINE
  5
CB
330
4AB
100
AcDbEntity
  8
_0
  6
Continuous
 62
     7
370
    13
100
AcDbLine
 10
36.369927
 20
-54.526062
 30
0.0
 11
36.309917
 21
-54.526062
 31
0.0
  0
LINE
  5
CC
330
4AB
100
AcDbEntity
  8
_0
  6
Continuous
 62
     7
370
    13
100
AcDbLine
 10
36.389927
 20
-54.546062
 30
0.0
 11
36.289917
 21
-54.546062
 31
0.0
  0
LINE
  5
CD
330
4AB
100
AcDbEntity
  8
_0
  6
Continuous
 62
     7
370
    13
100
AcDbLine
 10
36.369927
 20
-54.566063
 30
0.0
 11
36.309917
 21
-54.566063
 31
0.0
  0
LINE
  5
CE
330
4AB
100
AcDbEntity
  8
_0
  6
Continuous
 62
     7
370
    13
100
AcDbLine
 10
36.389927
 20
-54.586073
 30
0.0
 11
36.289917
 21
-54.586073
 31
0.0
  0
LINE
  5
CF
330
4AB
100
AcDbEntity
  8
_0
  6
Continuous
 62
     7
370
    13
100
AcDbLine
 10
36.369927
 20
-54.606073
 30
0.0
 11
36.309917
 21
-54.606073
 31
0.0
  0
ARC
  5
D0
330
4AB
100
AcDbEntity
  8
_0
  6
Continuous
 62
     7
370
    13
100
AcDbCircle
 10
36.339925
 20
-54.167704
 30
0.0
 40
0.1416779999999991
100
AcDbArc
 50
28.072486
 51
151.927511
  0
LINE
  5
D1
330
4AB
100
AcDbEntity
  8
_0
  6
Continuous
 62
     7
370
    13
100
AcDbLine
 10
36.239917
 20
-54.151031
 30
0.0
 11
36.239917
 21
-54.126031
 31
0.0
  0
LINE
  5
D2
330
4AB
100
AcDbEntity
  8
_0
  6
Continuous
 62
     7
370
    13
100
AcDbLine
 10
36.439927
 20
-54.151031
 30
0.0
 11
36.439927
 21
-54.126031
 31
0.0
  0
LINE
  5
D3
330
4AB
100
AcDbEntity
  8
_0
  6
Continuous
 62
     7
370
    13
100
AcDbLine
 10
36.271729
 20
-54.426052
 30
0.0
 11
36.271729
 21
-54.301042
 31
0.0
  0
LINE
  5
D4
330
4AB
100
AcDbEntity
  8
_0
  6
Continuous
 62
     7
370
    13
100
AcDbLine
 10
36.414927
 20
-54.426052
 30
0.0
 11
36.414927
 21
-54.301042
 31
0.0
  0
LINE
  5
D5
330
4AB
100
AcDbEntity
  8
_0
  6
Continuous
 62
     7
370
    13
100
AcDbLine
 10
36.039896
 20
-54.126031
 30
0.0
 11
36.039896
 21
-54.101031
 31
0.0
  0
LINE
  5
D6
330
4AB
100
AcDbEntity
  8
_0
  6
Continuous
 62
     7
370
    13
100
AcDbLine
 10
36.639948
 20
-54.126031
 30
0.0
 11
36.639948
 21
-54.101031
 31
0.0
  0
LINE
  5
D7
330
4AB
100
AcDbEntity
  8
_0
  6
Continuous
 62
     7
370
    13
100
AcDbLine
 10
36.389927
 20
-54.301042
 30
0.0
 11
36.389927
 21
-54.151031
 31
0.0
  0
LINE
  5
D8
330
4AB
100
AcDbEntity
  8
_0
  6
Continuous
 62
     7
370
    13
100
AcDbLine
 10
36.289917
 20
-54.301042
 30
0.0
 11
36.289917
 21
-54.151031
 31
0.0
  0
LINE
  5
D9
330
4AB
100
AcDbEntity
  8
_0
  6
Continuous
 62
     7
370
    13
100
AcDbLine
 10
36.639948
 20
-54.101031
 30
0.0
 11
36.039896
 21
-54.101031
 31
0.0
  0
LINE
  5
DA
330
4AB
100
AcDbEntity
  8
_0
  6
Continuous
 62
     7
370
    13
100
AcDbLine
 10
36.639948
 20
-54.126031
 30
0.0
 11
36.039896
 21
-54.126031
 31
0.0
  0
LINE
  5
DB
330
4AB
100
AcDbEntity
  8
_0
  6
Continuous
 62
     7
370
    13
100
AcDbLine
 10
36.439927
 20
-54.151031
 30
0.0
 11
36.239917
 21
-54.151031
 31
0.0
  0
LINE
  5
DC
330
4AB
100
AcDbEntity
  8
_0
  6
Continuous
 62
     7
370
    13
100
AcDbLine
 10
36.464937
 20
-54.301042
 30
0.0
 11
36.214917
 21
-54.301042
 31
0.0
  0
LINE
  5
DD
330
4AB
100
AcDbEntity
  8
_0
  6
Continuous
 62
     7
370
    13
100
AcDbLine
 10
36.464937
 20
-54.426052
 30
0.0
 11
36.214917
 21
-54.426052
 31
0.0
  0
LINE
  5
DE
330
4AB
100
AcDbEntity
  8
_0
  6
Continuous
 62
     7
370
    13
100
AcDbLine
 10
36.214917
 20
-54.426052
 30
0.0
 11
36.214917
 21
-54.301042
 31
0.0
  0
LINE
  5
DF
330
4AB
100
AcDbEntity
  8
_0
  6
Continuous
 62
     7
370
    13
100
AcDbLine
 10
36.464937
 20
-54.426052
 30
0.0
 11
36.464937
 21
-54.301042
 31
0.0
  0
LINE
  5
E0
330
4AB
100
AcDbEntity
  8
_0
  6
Continuous
 62
     7
370
    13
100
AcDbLine
 10
36.289917
 20
-54.626073
 30
0.0
 11
36.289917
 21
-54.426052
 31
0.0
  0
LINE
  5
E1
330
4AB
100
AcDbEntity
  8
_0
  6
Continuous
 62
     7
370
    13
100
AcDbLine
 10
36.389927
 20
-54.626073
 30
0.0
 11
36.389927
 21
-54.426052
 31
0.0
  0
LINE
  5
E2
330
4AB
100
AcDbEntity
  8
_0
  6
Continuous
 62
     7
370
    13
100
AcDbLine
 10
36.389927
 20
-54.626073
 30
0.0
 11
36.289917
 21
-54.626073
 31
0.0
  0
SOLID
  5
E5
330
4AB
100
AcDbEntity
  8
DIM
  6
Continuous
 62
     7
370
    13
100
AcDbTrace
 10
35.883979
 20
-53.637396
 30
0.0
 11
35.867312
 21
-53.637396
 31
0.0
 12
35.875646
 22
-53.687396
 32
0.0
 13
35.875646
 23
-53.687396
 33
0.0
  0
SOLID
  5
E6
330
4AB
100
AcDbEntity
  8
DIM
  6
Continuous
 62
     7
370
    13
100
AcDbTrace
 10
35.883979
 20
-53.562385
 30
0.0
 11
35.867312
 21
-53.562385
 31
0.0
 12
35.875646
 22
-53.512385
 32
0.0
 13
35.875646
 23
-53.512385
 33
0.0
  0
LINE
  5
E7
330
4AB
100
AcDbEntity
  8
DIM
  6
Continuous
 62
     7
370
    13
100
AcDbLine
 10
35.875646
 20
-53.562385
 30
0.0
 11
35.875646
 21
-53.637396
 31
0.0
  0
LINE
  5
E8
330
4AB
100
AcDbEntity
  8
DIM
  6
Continuous
 62
     7
370
    13
100
AcDbLine
 10
35.993479
 20
-53.687396
 30
0.0
 11
35.825635
 21
-53.687396
 31
0.0
  0
LINE
  5
E9
330
4AB
100
AcDbEntity
  8
DIM
  6
Continuous
 62
     7
370
    13
100
AcDbLine
 10
36.1935
 20
-53.512385
 30
0.0
 11
35.825635
 21
-53.512385
 31
0.0
  0
SOLID
  5
EB
330
4AB
100
AcDbEntity
  8
DIM
  6
Continuous
 62
     7
370
    13
100
AcDbTrace
 10
36.09349
 20
-53.906781
 30
0.0
 11
36.09349
 21
-53.890115
 31
0.0
 12
36.04349
 22
-53.898448
 32
0.0
 13
36.04349
 23
-53.898448
 33
0.0
  0
SOLID
  5
EC
330
4AB
100
AcDbEntity
  8
DIM
  6
Continuous
 62
     7
370
    13
100
AcDbTrace
 10
36.29351
 20
-53.906781
 30
0.0
 11
36.29351
 21
-53.890115
 31
0.0
 12
36.34351
 22
-53.898448
 32
0.0
 13
36.34351
 23
-53.898448
 33
0.0
  0
LINE
  5
ED
330
4AB
100
AcDbEntity
  8
DIM
  6
Continuous
 62
     7
370
    13
100
AcDbLine
 10
36.29351
 20
-53.898448
 30
0.0
 11
36.09349
 21
-53.898448
 31
0.0
  0
LINE
  5
EE
330
4AB
100
AcDbEntity
  8
DIM
  6
Continuous
 62
     7
370
    13
100
AcDbLine
 10
36.04349
 20
-53.737406
 30
0.0
 11
36.04349
 21
-53.948448
 31
0.0
  0
LINE
  5
EF
330
4AB
100
AcDbEntity
  8
DIM
  6
Continuous
 62
     7
370
    13
100
AcDbLine
 10
36.34351
 20
-53.624896
 30
0.0
 11
36.34351
 21
-53.948448
 31
0.0
  0
SOLID
  5
F2
330
4AB
100
AcDbEntity
  8
DIM
  6
Continuous
 62
     7
370
    13
100
AcDbTrace
 10
36.991552
 20
-53.637396
 30
0.0
 11
36.974885
 21
-53.637396
 31
0.0
 12
36.983219
 22
-53.687396
 32
0.0
 13
36.983219
 23
-53.687396
 33
0.0
  0
SOLID
  5
F3
330
4AB
100
AcDbEntity
  8
DIM
  6
Continuous
 62
     7
370
    13
100
AcDbTrace
 10
36.991552
 20
-53.387375
 30
0.0
 11
36.974885
 21
-53.387375
 31
0.0
 12
36.983219
 22
-53.337375
 32
0.0
 13
36.983219
 23
-53.337375
 33
0.0
  0
LINE
  5
F4
330
4AB
100
AcDbEntity
  8
DIM
  6
Continuous
 62
     7
370
    13
100
AcDbLine
 10
36.983219
 20
-53.387375
 30
0.0
 11
36.983219
 21
-53.637396
 31
0.0
  0
LINE
  5
F5
330
4AB
100
AcDbEntity
  8
DIM
  6
Continuous
 62
     7
370
    13
100
AcDbLine
 10
36.693542
 20
-53.687396
 30
0.0
 11
37.033229
 21
-53.687396
 31
0.0
  0
LINE
  5
F6
330
4AB
100
AcDbEntity
  8
DIM
  6
Continuous
 62
     7
370
    13
100
AcDbLine
 10
36.693542
 20
-53.337375
 30
0.0
 11
37.033229
 21
-53.337375
 31
0.0
  0
SOLID
  5
F7
330
4AB
100
AcDbEntity
  8
DIM
  6
Continuous
 62
     7
370
    13
100
AcDbTrace
 10
36.688042
 20
-53.524885
 30
0.0
 11
36.671365
 21
-53.524885
 31
0.0
 12
36.679708
 22
-53.574885
 32
0.0
 13
36.679708
 23
-53.574885
 33
0.0
  0
SOLID
  5
F8
330
4AB
100
AcDbEntity
  8
DIM
  6
Continuous
 62
     7
370
    13
100
AcDbTrace
 10
36.688042
 20
-53.499885
 30
0.0
 11
36.671365
 21
-53.499885
 31
0.0
 12
36.679708
 22
-53.449875
 32
0.0
 13
36.679708
 23
-53.449875
 33
0.0
  0
LINE
  5
F9
330
4AB
100
AcDbEntity
  8
DIM
  6
Continuous
 62
     7
370
    13
100
AcDbLine
 10
36.679708
 20
-53.499885
 30
0.0
 11
36.679708
 21
-53.524885
 31
0.0
  0
LINE
  5
FA
330
4AB
100
AcDbEntity
  8
DIM
  6
Continuous
 62
     7
370
    13
100
AcDbLine
 10
36.433385
 20
-53.574885
 30
0.0
 11
36.729708
 21
-53.574885
 31
0.0
  0
LINE
  5
FB
330
4AB
100
AcDbEntity
  8
DIM
  6
Continuous
 62
     7
370
    13
100
AcDbLine
 10
36.433385
 20
-53.449875
 30
0.0
 11
36.729708
 21
-53.449875
 31
0.0
  0
SOLID
  5
FE
330
4AB
100
AcDbEntity
  8
DIM
  6
Continuous
 62
     7
370
    13
100
AcDbTrace
 10
36.593531
 20
-53.201406
 30
0.0
 11
36.593531
 21
-53.18474
 31
0.0
 12
36.643531
 22
-53.193073
 32
0.0
 13
36.643531
 23
-53.193073
 33
0.0
  0
SOLID
  5
FF
330
4AB
100
AcDbEntity
  8
DIM
  6
Continuous
 62
     7
370
    13
100
AcDbTrace
 10
36.09349
 20
-53.201406
 30
0.0
 11
36.09349
 21
-53.18474
 31
0.0
 12
36.04349
 22
-53.193073
 32
0.0
 13
36.04349
 23
-53.193073
 33
0.0
  0
LINE
  5
100
330
4AB
100
AcDbEntity
  8
DIM
  6
Continuous
 62
     7
370
    13
100
AcDbLine
 10
36.09349
 20
-53.193073
 30
0.0
 11
36.593531
 21
-53.193073
 31
0.0
  0
LINE
  5
101
330
4AB
100
AcDbEntity
  8
DIM
  6
Continuous
 62
     7
370
    13
100
AcDbLine
 10
36.643531
 20
-53.287365
 30
0.0
 11
36.643531
 21
-53.143073
 31
0.0
  0
LINE
  5
102
330
4AB
100
AcDbEntity
  8
DIM
  6
Continuous
 62
     7
370
    13
100
AcDbLine
 10
36.04349
 20
-53.287365
 30
0.0
 11
36.04349
 21
-53.143073
 31
0.0
  0
SOLID
  5
103
330
4AB
100
AcDbEntity
  8
DIM
  6
Continuous
 62
     7
370
    13
100
AcDbTrace
 10
36.39351
 20
-53.416729
 30
0.0
 11
36.39351
 21
-53.400062
 31
0.0
 12
36.443521
 22
-53.408396
 32
0.0
 13
36.443521
 23
-53.408396
 33
0.0
  0
SOLID
  5
104
330
4AB
100
AcDbEntity
  8
DIM
  6
Continuous
 62
     7
370
    13
100
AcDbTrace
 10
36.29351
 20
-53.416729
 30
0.0
 11
36.29351
 21
-53.400062
 31
0.0
 12
36.2435
 22
-53.408396
 32
0.0
 13
36.2435
 23
-53.408396
 33
0.0
  0
LINE
  5
105
330
4AB
100
AcDbEntity
  8
DIM
  6
Continuous
 62
     7
370
    13
100
AcDbLine
 10
36.29351
 20
-53.408396
 30
0.0
 11
36.39351
 21
-53.408396
 31
0.0
  0
LINE
  5
106
330
4AB
100
AcDbEntity
  8
DIM
  6
Continuous
 62
     7
370
    13
100
AcDbLine
 10
36.443521
 20
-53.462385
 30
0.0
 11
36.443521
 21
-53.358396
 31
0.0
  0
LINE
  5
107
330
4AB
100
AcDbEntity
  8
DIM
  6
Continuous
 62
     7
370
    13
100
AcDbLine
 10
36.2435
 20
-53.462385
 30
0.0
 11
36.2435
 21
-53.358396
 31
0.0
  0
LWPOLYLINE
  5
108
330
4AB
100
AcDbEntity
  8
_0
  6
Continuous
 62
     7
370
     0
100
AcDbPolyline
 90
       17
 70
   128
 43
0.0
 10
36.343509
 20
-53.57489
 42
0.063415
 10
36.383474
 20
-53.569801
 42
0.076468
 10
36.414225
 20
-53.556583
 42
0.107136
 10
36.436833
 20
-53.53457
 42
0.147373
 10
36.443517
 20
-53.512385
 42
0.147373
 10
36.436833
 20
-53.490199
 42
0.107136
 10
36.414225
 20
-53.468187
 42
0.076468
 10
36.383474
 20
-53.454969
 42
0.063415
 10
36.343509
 20
-53.44988
 42
0.063415
 10
36.303544
 20
-53.454969
 42
0.076468
 10
36.272793
 20
-53.468187
 42
0.107136
 10
36.250185
 20
-53.490199
 42
0.147373
 10
36.243501
 20
-53.512385
 42
0.147373
 10
36.250185
 20
-53.53457
 42
0.107136
 10
36.272793
 20
-53.556583
 42
0.076468
 10
36.303544
 20
-53.569801
 42
0.063415
 10
36.343509
 20
-53.57489
  0
LINE
  5
119
330
4AB
100
AcDbEntity
  8
_0
  6
Continuous
 62
     7
370
    13
100
AcDbLine
 10
36.407063
 20
-53.512385
 30
0.0
 11
36.279958
 21
-53.512385
 31
0.0
  0
LINE
  5
11A
330
4AB
100
AcDbEntity
  8
_0
  6
Continuous
 62
     7
370
    13
100
AcDbLine
 10
36.34351
 20
-53.486333
 30
0.0
 11
36.34351
 21
-53.538438
 31
0.0
  0
LINE
  5
11B
330
4AB
100
AcDbEntity
  8
_0
  6
Continuous
 62
     7
370
    13
100
AcDbLine
 10
36.04349
 20
-53.687396
 30
0.0
 11
36.643531
 21
-53.687396
 31
0.0
  0
LINE
  5
11C
330
4AB
100
AcDbEntity
  8
_0
  6
Continuous
 62
     7
370
    13
100
AcDbLine
 10
36.04349
 20
-53.337375
 30
0.0
 11
36.643531
 21
-53.337375
 31
0.0
  0
LINE
  5
11D
330
4AB
100
AcDbEntity
  8
_0
  6
Continuous
 62
     7
370
    13
100
AcDbLine
 10
36.04349
 20
-53.687396
 30
0.0
 11
36.04349
 21
-53.337375
 31
0.0
  0
LINE
  5
11E
330
4AB
100
AcDbEntity
  8
_0
  6
Continuous
 62
     7
370
    13
100
AcDbLine
 10
36.643531
 20
-53.687396
 30
0.0
 11
36.643531
 21
-53.337375
 31
0.0
  0
LINE
  5
11F
330
4AB
100
AcDbEntity
  8
DIM
  6
Continuous
 62
     7
370
    13
100
AcDbLine
 10
40.06525
 20
-53.763833
 30
0.0
 11
40.139604
 21
-53.763833
 31
0.0
  0
LINE
  5
120
330
4AB
100
AcDbEntity
  8
DIM
  6
Continuous
 62
     7
370
    13
100
AcDbLine
 10
39.995937
 20
-53.868229
 30
0.0
 11
40.06525
 21
-53.763833
 31
0.0
  0
SOLID
  5
121
330
4AB
100
AcDbEntity
  8
DIM
  6
Continuous
 62
     7
370
    13
100
AcDbTrace
 10
-40.006771
 20
-53.867135
 30
0.0
 11
-39.992896
 21
-53.857906
 31
0.0
 12
-39.972177
 22
-53.904177
 32
0.0
 13
-39.972177
 23
-53.904177
 33
0.0
210
0.0
220
0.0
230
-1.0
  0
LINE
  5
122
330
4AB
100
AcDbEntity
  8
DIM
  6
Continuous
 62
     7
370
    13
100
AcDbLine
 10
39.725823
 20
-53.763833
 30
0.0
 11
39.651469
 21
-53.763833
 31
0.0
  0
LINE
  5
123
330
4AB
100
AcDbEntity
  8
DIM
  6
Continuous
 62
     7
370
    13
100
AcDbLine
 10
39.794615
 20
-53.864635
 30
0.0
 11
39.725823
 21
-53.763833
 31
0.0
  0
SOLID
  5
124
330
4AB
100
AcDbEntity
  8
DIM
  6
Continuous
 62
     7
370
    13
100
AcDbTrace
 10
39.8015
 20
-53.859938
 30
0.0
 11
39.787729
 21
-53.869333
 31
0.0
 12
39.822802
 22
-53.905938
 32
0.0
 13
39.822802
 23
-53.905938
 33
0.0
  0
LINE
  5
128
330
4AB
100
AcDbEntity
  8
DIM
  6
Continuous
 62
     7
370
    13
100
AcDbLine
 10
40.144312
 20
-53.906021
 30
0.0
 11
40.18974
 21
-53.906021
 31
0.0
  0
SOLID
  5
129
330
4AB
100
AcDbEntity
  8
DIM
  6
Continuous
 62
     7
370
    13
100
AcDbTrace
 10
40.148208
 20
-53.914354
 30
0.0
 11
40.148208
 21
-53.897687
 31
0.0
 12
40.098208
 22
-53.906021
 32
0.0
 13
40.098208
 23
-53.906021
 33
0.0
  0
SOLID
  5
12A
330
4AB
100
AcDbEntity
  8
DIM
  6
Continuous
 62
     7
370
    13
100
AcDbTrace
 10
39.646771
 20
-53.914354
 30
0.0
 11
39.646771
 21
-53.897687
 31
0.0
 12
39.696771
 22
-53.906021
 32
0.0
 13
39.696771
 23
-53.906021
 33
0.0
  0
LINE
  5
12B
330
4AB
100
AcDbEntity
  8
DIM
  6
Continuous
 62
     7
370
    13
100
AcDbLine
 10
39.591646
 20
-53.906021
 30
0.0
 11
39.646771
 21
-53.906021
 31
0.0
  0
SOLID
  5
12E
330
4AB
100
AcDbEntity
  8
DIM
  6
Continuous
 62
     7
370
    13
100
AcDbTrace
 10
40.047531
 20
-53.67751
 30
0.0
 11
40.047531
 21
-53.660833
 31
0.0
 12
40.097542
 22
-53.669177
 32
0.0
 13
40.097542
 23
-53.669177
 33
0.0
  0
SOLID
  5
12F
330
4AB
100
AcDbEntity
  8
DIM
  6
Continuous
 62
     7
370
    13
100
AcDbTrace
 10
39.746781
 20
-53.67751
 30
0.0
 11
39.746781
 21
-53.660833
 31
0.0
 12
39.696771
 22
-53.669177
 32
0.0
 13
39.696771
 23
-53.669177
 33
0.0
  0
LINE
  5
130
330
4AB
100
AcDbEntity
  8
DIM
  6
Continuous
 62
     7
370
    13
100
AcDbLine
 10
39.746781
 20
-53.669177
 30
0.0
 11
40.047531
 21
-53.669177
 31
0.0
  0
LINE
  5
131
330
4AB
100
AcDbEntity
  8
DIM
  6
Continuous
 62
     7
370
    13
100
AcDbLine
 10
40.097542
 20
-54.012927
 30
0.0
 11
40.097542
 21
-53.619167
 31
0.0
  0
LINE
  5
132
330
4AB
100
AcDbEntity
  8
DIM
  6
Continuous
 62
     7
370
    13
100
AcDbLine
 10
39.696771
 20
-54.012927
 30
0.0
 11
39.696771
 21
-53.619167
 31
0.0
  0
SOLID
  5
133
330
4AB
100
AcDbEntity
  8
DIM
  6
Continuous
 62
     7
370
    13
100
AcDbTrace
 10
39.995823
 20
-53.914354
 30
0.0
 11
39.995823
 21
-53.897687
 31
0.0
 12
40.045823
 22
-53.906021
 32
0.0
 13
40.045823
 23
-53.906021
 33
0.0
  0
SOLID
  5
134
330
4AB
100
AcDbEntity
  8
DIM
  6
Continuous
 62
     7
370
    13
100
AcDbTrace
 10
39.950396
 20
-53.914354
 30
0.0
 11
39.950396
 21
-53.897687
 31
0.0
 12
39.900385
 22
-53.906021
 32
0.0
 13
39.900385
 23
-53.906021
 33
0.0
  0
LINE
  5
135
330
4AB
100
AcDbEntity
  8
DIM
  6
Continuous
 62
     7
370
    13
100
AcDbLine
 10
39.950396
 20
-53.906021
 30
0.0
 11
39.995823
 21
-53.906021
 31
0.0
  0
LINE
  5
136
330
4AB
100
AcDbEntity
  8
DIM
  6
Continuous
 62
     7
370
    13
100
AcDbLine
 10
40.045823
 20
-54.012927
 30
0.0
 11
40.045823
 21
-53.856021
 31
0.0
  0
LINE
  5
137
330
4AB
100
AcDbEntity
  8
DIM
  6
Continuous
 62
     7
370
    13
100
AcDbLine
 10
39.900385
 20
-53.981354
 30
0.0
 11
39.900385
 21
-53.856021
 31
0.0
  0
SOLID
  5
139
330
4AB
100
AcDbEntity
  8
DIM
  6
Continuous
 62
     7
370
    13
100
AcDbTrace
 10
39.850385
 20
-53.914354
 30
0.0
 11
39.850385
 21
-53.897687
 31
0.0
 12
39.900385
 22
-53.906021
 32
0.0
 13
39.900385
 23
-53.906021
 33
0.0
  0
SOLID
  5
13A
330
4AB
100
AcDbEntity
  8
DIM
  6
Continuous
 62
     7
370
    13
100
AcDbTrace
 10
39.79526
 20
-53.914354
 30
0.0
 11
39.79526
 21
-53.897687
 31
0.0
 12
39.74525
 22
-53.906021
 32
0.0
 13
39.74525
 23
-53.906021
 33
0.0
  0
LINE
  5
13B
330
4AB
100
AcDbEntity
  8
DIM
  6
Continuous
 62
     7
370
    13
100
AcDbLine
 10
39.79526
 20
-53.906021
 30
0.0
 11
39.850385
 21
-53.906021
 31
0.0
  0
LINE
  5
13C
330
4AB
100
AcDbEntity
  8
DIM
  6
Continuous
 62
     7
370
    13
100
AcDbLine
 10
39.900385
 20
-53.981354
 30
0.0
 11
39.900385
 21
-53.856021
 31
0.0
  0
LINE
  5
13D
330
4AB
100
AcDbEntity
  8
DIM
  6
Continuous
 62
     7
370
    13
100
AcDbLine
 10
39.74525
 20
-54.012927
 30
0.0
 11
39.74525
 21
-53.856021
 31
0.0
  0
LWPOLYLINE
  5
13E
330
4AB
100
AcDbEntity
  8
_0
  6
DGN Style 2
 62
     7
370
    70
100
AcDbPolyline
 90
        2
 70
   128
 43
0.0
 10
39.70001
 20
-54.422156
 10
40.097542
 20
-54.422156
  0
LINE
  5
141
330
4AB
100
AcDbEntity
  8
TEXT
  6
Continuous
 62
     7
370
    13
100
AcDbLine
 10
40.414427
 20
-54.295427
 30
0.0
 11
40.441469
 21
-54.295427
 31
0.0
  0
LINE
  5
142
330
4AB
100
AcDbEntity
  8
TEXT
  6
Continuous
 62
     7
370
    13
100
AcDbLine
 10
40.114333
 20
-54.345625
 30
0.0
 11
40.414427
 21
-54.295427
 31
0.0
  0
SOLID
  5
143
330
4AB
100
AcDbEntity
  8
TEXT
  6
Continuous
 62
     7
370
    13
100
AcDbTrace
 10
40.115708
 20
-54.353844
 30
0.0
 11
40.112958
 21
-54.337406
 31
0.0
 12
40.06501
 22
-54.353875
 32
0.0
 13
40.06501
 23
-54.353875
 33
0.0
  0
LINE
  5
144
330
4AB
100
AcDbEntity
  8
TEXT
  6
Continuous
 62
     7
370
    13
100
AcDbLine
 10
40.418583
 20
-54.193781
 30
0.0
 11
40.439385
 21
-54.193781
 31
0.0
  0
LINE
  5
145
330
4AB
100
AcDbEntity
  8
TEXT
  6
Continuous
 62
     7
370
    13
100
AcDbLine
 10
39.973531
 20
-54.23649
 30
0.0
 11
40.418563
 21
-54.193906
 31
0.0
  0
SOLID
  5
146
330
4AB
100
AcDbEntity
  8
TEXT
  6
Continuous
 62
     7
370
    13
100
AcDbTrace
 10
39.974281
 20
-54.244792
 30
0.0
 11
39.972781
 21
-54.228187
 31
0.0
 12
39.923729
 22
-54.240958
 32
0.0
 13
39.923729
 23
-54.240958
 33
0.0
  0
LWPOLYLINE
  5
147
330
4AB
100
AcDbEntity
  8
_0
  6
Continuous
 62
     7
370
   100
100
AcDbPolyline
 90
        2
 70
   128
 43
0.0
 10
39.734313
 20
-54.364042
 10
39.759271
 20
-54.364042
  0
LWPOLYLINE
  5
148
330
4AB
100
AcDbEntity
  8
_0
  6
Continuous
 62
     7
370
   100
100
AcDbPolyline
 90
        2
 70
   128
 43
0.0
 10
40.033812
 20
-54.364042
 10
40.058771
 20
-54.364042
  0
LWPOLYLINE
  5
149
330
4AB
100
AcDbEntity
  8
_0
  6
Continuous
 62
     7
370
   100
100
AcDbPolyline
 90
        2
 70
   128
 43
0.0
 10
39.734313
 20
-54.287802
 10
39.759271
 20
-54.287802
  0
LWPOLYLINE
  5
14A
330
4AB
100
AcDbEntity
  8
_0
  6
Continuous
 62
     7
370
   100
100
AcDbPolyline
 90
        2
 70
   128
 43
0.0
 10
40.033812
 20
-54.287802
 10
40.058771
 20
-54.287802
  0
LWPOLYLINE
  5
14B
330
4AB
100
AcDbEntity
  8
_0
  6
Continuous
 62
     7
370
   100
100
AcDbPolyline
 90
        2
 70
   128
 43
0.0
 10
39.734313
 20
-54.112469
 10
39.759271
 20
-54.112469
  0
LWPOLYLINE
  5
14C
330
4AB
100
AcDbEntity
  8
_0
  6
Continuous
 62
     7
370
   100
100
AcDbPolyline
 90
        2
 70
   128
 43
0.0
 10
40.033812
 20
-54.112469
 10
40.058771
 20
-54.112469
  0
LWPOLYLINE
  5
14D
330
4AB
100
AcDbEntity
  8
_0
  6
Continuous
 62
     7
370
   100
100
AcDbPolyline
 90
        2
 70
   128
 43
0.0
 10
40.033812
 20
-54.188698
 10
40.058771
 20
-54.188698
  0
LWPOLYLINE
  5
14E
330
4AB
100
AcDbEntity
  8
_0
  6
Continuous
 62
     7
370
   100
100
AcDbPolyline
 90
        2
 70
   128
 43
0.0
 10
39.734313
 20
-54.188698
 10
39.759271
 20
-54.188698
  0
LINE
  5
14F
330
4AB
100
AcDbEntity
  8
_0
  6
Continuous
 62
     7
370
    13
100
AcDbLine
 10
39.748427
 20
-54.061167
 30
0.0
 11
39.748427
 21
-54.411198
 31
0.0
  0
LINE
  5
150
330
4AB
100
AcDbEntity
  8
_0
  6
Continuous
 62
     7
370
    13
100
AcDbLine
 10
40.048458
 20
-54.061167
 30
0.0
 11
40.048458
 21
-54.411198
 31
0.0
  0
LINE
  5
151
330
4AB
100
AcDbEntity
  8
_0
  6
Continuous
 62
     7
370
    13
100
AcDbLine
 10
39.698427
 20
-54.061167
 30
0.0
 11
39.698427
 21
-54.411198
 31
0.0
  0
LINE
  5
152
330
4AB
100
AcDbEntity
  8
_0
  6
Continuous
 62
     7
370
    13
100
AcDbLine
 10
40.098458
 20
-54.061167
 30
0.0
 11
40.098458
 21
-54.411198
 31
0.0
  0
LINE
  5
155
330
4AB
100
AcDbEntity
  8
_0
  6
Continuous
 62
     7
370
    13
100
AcDbLine
 10
39.489323
 20
-54.161177
 30
0.0
 11
40.323354
 21
-54.161177
 31
0.0
  0
LINE
  5
156
330
4AB
100
AcDbEntity
  8
_0
  6
Continuous
 62
     7
370
    13
100
AcDbLine
 10
39.493042
 20
-54.261177
 30
0.0
 11
40.327073
 21
-54.261177
 31
0.0
  0
LINE
  5
157
330
4AB
100
AcDbEntity
  8
_0
  6
Continuous
 62
     7
370
    13
100
AcDbLine
 10
39.474771
 20
-54.361187
 30
0.0
 11
40.308802
 21
-54.361187
 31
0.0
  0
LINE
  5
158
330
4AB
100
AcDbEntity
  8
_0
  6
Continuous
 62
     7
370
    13
100
AcDbLine
 10
39.47949
 20
-54.111167
 30
0.0
 11
40.31351
 21
-54.111167
 31
0.0
  0
LINE
  5
159
330
4AB
100
AcDbEntity
  8
_0
  6
Continuous
 62
     7
370
    13
100
AcDbLine
 10
39.501625
 20
-54.211177
 30
0.0
 11
40.335656
 21
-54.211177
 31
0.0
  0
LINE
  5
15A
330
4AB
100
AcDbEntity
  8
_0
  6
Continuous
 62
     7
370
    13
100
AcDbLine
 10
39.482333
 20
-54.311187
 30
0.0
 11
40.316365
 21
-54.311187
 31
0.0
  0
LINE
  5
15B
330
4AB
100
AcDbEntity
  8
_0
  6
Continuous
 62
     7
370
    13
100
AcDbLine
 10
39.49175
 20
-54.411198
 30
0.0
 11
40.325781
 21
-54.411198
 31
0.0
  0
LINE
  5
15C
330
4AB
100
AcDbEntity
  8
_0
  6
Continuous
 62
     7
370
    13
100
AcDbLine
 10
39.498271
 20
-54.061167
 30
0.0
 11
40.332302
 21
-54.061167
 31
0.0
  0
SPLINE
  5
15D
330
4AB
100
AcDbEntity
  8
_0
  6
Continuous
 62
     7
370
     0
100
AcDbSpline
210
0.0
220
0.0
230
1.0
 70
     8
 71
     3
 72
    14
 73
    10
 74
     0
 42
0.0000000001
 43
0.00000001
 40
0.0
 40
0.0
 40
0.0
 40
0.0
 40
0.1428571428571428
 40
0.2857142857142857
 40
0.4285714285714285
 40
0.5714285714285714
 40
0.7142857142857142
 40
0.857142857142857
 40
1.0
 40
1.0
 40
1.0
 40
1.0
 10
40.33230208333333
 20
-54.06116666666667
 30
0.0
 10
40.29220833333333
 20
-54.14101041666667
 30
0.0
 10
40.34834375
 20
-54.17038541666666
 30
0.0
 10
40.33230208333333
 20
-54.21934375
 30
0.0
 10
40.32428125
 20
-54.2683125
 30
0.0
 10
40.33230208333333
 20
-54.30747916666667
 30
0.0
 10
40.2841875
 20
-54.3270625
 30
0.0
 10
40.31626041666667
 20
-54.36622916666666
 30
0.0
 10
40.32428125
 20
-54.40540625
 30
0.0
 10
40.32578125
 20
-54.41119791666667
 30
0.0
  0
SPLINE
  5
15F
330
4AB
100
AcDbEntity
  8
_0
  6
Continuous
 62
     7
370
     0
100
AcDbSpline
210
0.0
220
0.0
230
1.0
 70
     8
 71
     3
 72
    14
 73
    10
 74
     0
 42
0.0000000001
 43
0.00000001
 40
0.0
 40
0.0
 40
0.0
 40
0.0
 40
0.1428571428571428
 40
0.2857142857142857
 40
0.4285714285714285
 40
0.5714285714285714
 40
0.7142857142857142
 40
0.857142857142857
 40
1.0
 40
1.0
 40
1.0
 40
1.0
 10
39.49827083333333
 20
-54.06116666666667
 30
0.0
 10
39.45817708333333
 20
-54.14101041666667
 30
0.0
 10
39.5143125
 20
-54.17038541666666
 30
0.0
 10
39.49827083333333
 20
-54.21934375
 30
0.0
 10
39.49025
 20
-54.2683125
 30
0.0
 10
39.49827083333333
 20
-54.30747916666667
 30
0.0
 10
39.45014583333333
 20
-54.3270625
 30
0.0
 10
39.48222916666666
 20
-54.36622916666666
 30
0.0
 10
39.49025
 20
-54.40540625
 30
0.0
 10
39.49175
 20
-54.41119791666667
 30
0.0
  0
LWPOLYLINE
  5
161
330
4AB
100
AcDbEntity
  8
_0
  6
Continuous
 62
     7
370
     0
100
AcDbPolyline
 90
       17
 70
   128
 43
0.0
 10
39.889524
 20
-54.249301
 42
0.041124
 10
39.903122
 20
-54.248181
 42
0.05419
 10
39.913106
 20
-54.245389
 42
0.097213
 10
39.921051
 20
-54.240243
 42
0.203285
 10
39.922875
 20
-54.235944
 42
0.203285
 10
39.921051
 20
-54.231645
 42
0.097213
 10
39.913106
 20
-54.226499
 42
0.05419
 10
39.903122
 20
-54.223707
 42
0.041124
 10
39.889524
 20
-54.222586
 42
0.041124
 10
39.875926
 20
-54.223707
 42
0.05419
 10
39.865941
 20
-54.226499
 42
0.097213
 10
39.857996
 20
-54.231645
 42
0.203285
 10
39.856173
 20
-54.235944
 42
0.203285
 10
39.857996
 20
-54.240243
 42
0.097213
 10
39.865941
 20
-54.245389
 42
0.05419
 10
39.875926
 20
-54.248181
 42
0.041124
 10
39.889524
 20
-54.249301
  0
LINE
  5
172
330
4AB
100
AcDbEntity
  8
_0
  6
DGN Style 2
 62
     7
370
    13
100
AcDbLine
 10
39.953302
 20
-54.411198
 30
0.0
 11
39.953302
 21
-54.031
 31
0.0
  0
LINE
  5
173
330
4AB
100
AcDbEntity
  8
_0
  6
DGN Style 2
 62
     7
370
    13
100
AcDbLine
 10
39.803292
 20
-54.411198
 30
0.0
 11
39.803292
 21
-54.031
 31
0.0
  0
LINE
  5
174
330
4AB
100
AcDbEntity
  8
_0
  6
Continuous
 62
     7
370
    13
100
AcDbLine
 10
39.823437
 20
-54.08075
 30
0.0
 11
39.823437
 21
-54.029292
 31
0.0
  0
LINE
  5
175
330
4AB
100
AcDbEntity
  8
_0
  6
Continuous
 62
     7
370
    13
100
AcDbLine
 10
39.973448
 20
-54.08075
 30
0.0
 11
39.973448
 21
-54.029292
 31
0.0
  0
LINE
  5
176
330
4AB
100
AcDbEntity
  8
_0
  6
Continuous
 62
     7
370
    13
100
AcDbLine
 10
39.803292
 20
-54.031531
 30
0.0
 11
39.953302
 21
-54.031531
 31
0.0
  0
SOLID
  5
177
330
4AB
100
AcDbEntity
  8
TEXT
  6
Continuous
 62
     7
370
    13
100
AcDbTrace
 10
-36.446813
 20
-54.526187
 30
0.0
 11
-36.453063
 21
-54.510729
 31
0.0
 12
-36.403562
 22
-54.49974
 32
0.0
 13
-36.403562
 23
-54.49974
 33
0.0
210
0.0
220
0.0
230
-1.0
  0
LINE
  5
178
330
4AB
100
AcDbEntity
  8
TEXT
  6
Continuous
 62
     7
370
    13
100
AcDbLine
 10
36.449937
 20
-54.518458
 30
0.0
 11
36.656823
 21
-54.601979
 31
0.0
  0
LINE
  5
179
330
4AB
100
AcDbEntity
  8
TEXT
  6
Continuous
 62
     7
370
    13
100
AcDbLine
 10
36.656823
 20
-54.601979
 30
0.0
 11
36.727146
 21
-54.601979
 31
0.0
  0
LINE
  5
17B
330
4AB
100
AcDbEntity
  8
DIM
  6
Continuous
 62
     7
370
    13
100
AcDbLine
 10
38.087604
 20
-54.412396
 30
0.0
 11
38.087604
 21
-54.600031
 31
0.0
  0
LINE
  5
17C
330
4AB
100
AcDbEntity
  8
DIM
  6
Continuous
 62
     7
370
    13
100
AcDbLine
 10
38.285448
 20
-54.510208
 30
0.0
 11
38.285448
 21
-54.600031
 31
0.0
  0
LINE
  5
17D
330
4AB
100
AcDbEntity
  8
DIM
  6
Continuous
 62
     7
370
    13
100
AcDbLine
 10
38.137604
 20
-54.550021
 30
0.0
 11
38.235437
 21
-54.550021
 31
0.0
  0
SOLID
  5
17E
330
4AB
100
AcDbEntity
  8
DIM
  6
Continuous
 62
     7
370
    13
100
AcDbTrace
 10
38.137604
 20
-54.558354
 30
0.0
 11
38.137604
 21
-54.541687
 31
0.0
 12
38.087604
 22
-54.550021
 32
0.0
 13
38.087604
 23
-54.550021
 33
0.0
  0
SOLID
  5
17F
330
4AB
100
AcDbEntity
  8
DIM
  6
Continuous
 62
     7
370
    13
100
AcDbTrace
 10
38.235437
 20
-54.558354
 30
0.0
 11
38.235437
 21
-54.541687
 31
0.0
 12
38.285448
 22
-54.550021
 32
0.0
 13
38.285448
 23
-54.550021
 33
0.0
  0
LINE
  5
184
330
4AB
100
AcDbEntity
  8
_0
  6
Continuous
 62
     7
370
    13
100
AcDbLine
 10
39.899198
 20
-54.063708
 30
0.0
 11
39.899198
 21
-54.200969
 31
0.0
  0
SOLID
  5
185
330
4AB
100
AcDbEntity
  8
TEXT
  6
Continuous
 62
     7
370
    13
100
AcDbTrace
 10
39.949542
 20
-54.100219
 30
0.0
 11
39.946792
 21
-54.083771
 31
0.0
 12
39.898844
 22
-54.10024
 32
0.0
 13
39.898844
 23
-54.10024
 33
0.0
  0
LINE
  5
186
330
4AB
100
AcDbEntity
  8
TEXT
  6
Continuous
 62
     7
370
    13
100
AcDbLine
 10
39.948167
 20
-54.092
 30
0.0
 11
40.414427
 21
-54.014948
 31
0.0
  0
LINE
  5
187
330
4AB
100
AcDbEntity
  8
TEXT
  6
Continuous
 62
     7
370
    13
100
AcDbLine
 10
40.414427
 20
-54.014948
 30
0.0
 11
40.441469
 21
-54.014948
 31
0.0
  0
SOLID
  5
18A
330
4AB
100
AcDbEntity
  8
TEXT
  6
Continuous
 62
     7
370
    13
100
AcDbTrace
 10
38.262
 20
-53.887771
 30
0.0
 11
38.25924
 21
-53.871333
 31
0.0
 12
38.211302
 22
-53.887802
 32
0.0
 13
38.211302
 23
-53.887802
 33
0.0
  0
LINE
  5
18B
330
4AB
100
AcDbEntity
  8
TEXT
  6
Continuous
 62
     7
370
    13
100
AcDbLine
 10
38.260625
 20
-53.879552
 30
0.0
 11
38.352021
 21
-53.86476
 31
0.0
  0
LINE
  5
18D
330
4AB
100
AcDbEntity
  8
TEXT
  6
Continuous
 62
     7
370
    13
100
AcDbLine
 10
38.352021
 20
-53.86476
 30
0.0
 11
38.379062
 21
-53.86476
 31
0.0
  0
SOLID
  5
191
330
4AB
100
AcDbEntity
  8
DIM
  6
Continuous
 62
     7
370
    13
100
AcDbTrace
 10
32.932802
 20
-51.639823
 30
0.0
 11
32.912073
 21
-51.639823
 31
0.0
 12
32.922438
 22
-51.70201
 32
0.0
 13
32.922438
 23
-51.70201
 33
0.0
  0
SOLID
  5
192
330
4AB
100
AcDbEntity
  8
DIM
  6
Continuous
 62
     7
370
    13
100
AcDbTrace
 10
32.932802
 20
-50.909125
 30
0.0
 11
32.912073
 21
-50.909125
 31
0.0
 12
32.922438
 22
-50.846937
 32
0.0
 13
32.922438
 23
-50.846937
 33
0.0
  0
LINE
  5
193
330
4AB
100
AcDbEntity
  8
DIM
  6
Continuous
 62
     7
370
    13
100
AcDbLine
 10
32.922438
 20
-50.909125
 30
0.0
 11
32.922438
 21
-51.639823
 31
0.0
  0
LINE
  5
194
330
4AB
100
AcDbEntity
  8
DIM
  6
Continuous
 62
     7
370
    13
100
AcDbLine
 10
33.215594
 20
-51.70201
 30
0.0
 11
32.86025
 21
-51.70201
 31
0.0
  0
LINE
  5
196
330
4AB
100
AcDbEntity
  8
TEXT
  6
Continuous
 62
     7
370
    13
100
AcDbLine
 10
34.513323
 20
-51.074948
 30
0.0
 11
34.649417
 21
-51.074948
 31
0.0
  0
SOLID
  5
197
330
4AB
100
AcDbEntity
  8
TEXT
  6
Continuous
 62
     7
370
    13
100
AcDbTrace
 10
34.513323
 20
-51.085313
 30
0.0
 11
34.513323
 21
-51.064583
 31
0.0
 12
34.451135
 22
-51.074948
 32
0.0
 13
34.451135
 23
-51.074948
 33
0.0
  0
LINE
  5
19F
330
4AB
100
AcDbEntity
  8
TEXT
  6
Continuous
 62
     7
370
    13
100
AcDbLine
 10
40.574771
 20
-50.63724
 30
0.0
 11
40.636958
 21
-50.63724
 31
0.0
  0
LINE
  5
1A0
330
4AB
100
AcDbEntity
  8
TEXT
  6
Continuous
 62
     7
370
    13
100
AcDbLine
 10
40.409271
 20
-50.7525
 30
0.0
 11
40.574771
 21
-50.63724
 31
0.0
  0
SOLID
  5
1A1
330
4AB
100
AcDbEntity
  8
TEXT
  6
Continuous
 62
     7
370
    13
100
AcDbTrace
 10
40.415198
 20
-50.76101
 30
0.0
 11
40.403344
 21
-50.744
 31
0.0
 12
40.35824
 22
-50.788042
 32
0.0
 13
40.35824
 23
-50.788042
 33
0.0
  0
SOLID
  5
1A2
330
4AB
100
AcDbEntity
  8
DIM
  6
Continuous
 62
     7
370
    13
100
AcDbTrace
 10
-34.491521
 20
-49.442687
 30
0.0
 11
-34.507062
 21
-49.428969
 31
0.0
 12
-34.458146
 22
-49.389208
 32
0.0
 13
-34.458146
 23
-49.389208
 33
0.0
210
0.0
220
0.0
230
-1.0
  0
SOLID
  5
1A3
330
4AB
100
AcDbEntity
  8
DIM
  6
Continuous
 62
     7
370
    13
100
AcDbTrace
 10
-35.50526
 20
-49.533906
 30
0.0
 11
-35.494708
 21
-49.516062
 31
0.0
 12
-35.55351
 22
-49.493333
 32
0.0
 13
-35.55351
 23
-49.493333
 33
0.0
210
0.0
220
0.0
230
-1.0
  0
LINE
  5
1A5
330
4AB
100
AcDbEntity
  8
DIM
  6
Continuous
 62
     7
370
    13
100
AcDbLine
 10
35.91276
 20
-49.585094
 30
0.0
 11
35.91276
 21
-49.547781
 31
0.0
  0
LINE
  5
1A6
330
4AB
100
AcDbEntity
  8
DIM
  6
Continuous
 62
     7
370
    13
100
AcDbLine
 10
35.91276
 20
-49.547781
 30
0.0
 11
35.875448
 21
-49.585094
 31
0.0
  0
LINE
  5
1A7
330
4AB
100
AcDbEntity
  8
DIM
  6
Continuous
 62
     7
370
    13
100
AcDbLine
 10
35.91276
 20
-49.61926
 30
0.0
 11
35.875448
 21
-49.581948
 31
0.0
  0
LINE
  5
1A8
330
4AB
100
AcDbEntity
  8
DIM
  6
Continuous
 62
     7
370
    13
100
AcDbLine
 10
35.91276
 20
-49.581948
 30
0.0
 11
35.91276
 21
-49.61926
 31
0.0
  0
LINE
  5
1A9
330
4AB
100
AcDbEntity
  8
DIM
  6
Continuous
 62
     7
370
    13
100
AcDbLine
 10
35.858135
 20
-49.581437
 30
0.0
 11
35.984521
 21
-49.581437
 31
0.0
  0
LINE
  5
1AA
330
4AB
100
AcDbEntity
  8
DIM
  6
Continuous
 62
     7
370
    13
100
AcDbLine
 10
35.662354
 20
-49.44874
 30
0.0
 11
35.858135
 21
-49.581437
 31
0.0
  0
SOLID
  5
1AB
330
4AB
100
AcDbEntity
  8
DIM
  6
Continuous
 62
     7
370
    13
100
AcDbTrace
 10
-35.656542
 20
-49.457313
 30
0.0
 11
-35.668177
 21
-49.440156
 31
0.0
 12
-35.610885
 22
-49.413854
 32
0.0
 13
-35.610885
 23
-49.413854
 33
0.0
210
0.0
220
0.0
230
-1.0
  0
LINE
  5
1AC
330
4AB
100
AcDbEntity
  8
DIM
  6
Continuous
 62
     7
370
    13
100
AcDbLine
 10
35.392938
 20
-49.548208
 30
0.0
 11
35.392938
 21
-49.585521
 31
0.0
  0
LINE
  5
1AD
330
4AB
100
AcDbEntity
  8
DIM
  6
Continuous
 62
     7
370
    13
100
AcDbLine
 10
35.392938
 20
-49.585521
 30
0.0
 11
35.43025
 21
-49.548208
 31
0.0
  0
LINE
  5
1AE
330
4AB
100
AcDbEntity
  8
DIM
  6
Continuous
 62
     7
370
    13
100
AcDbLine
 10
35.460167
 20
-49.547031
 30
0.0
 11
35.359094
 21
-49.547031
 31
0.0
  0
LINE
  5
1AF
330
4AB
100
AcDbEntity
  8
DIM
  6
Continuous
 62
     7
370
    13
100
AcDbLine
 10
35.548083
 20
-49.497583
 30
0.0
 11
35.460167
 21
-49.547031
 31
0.0
  0
LINE
  5
1B0
330
4AB
100
AcDbEntity
  8
DIM
  6
Continuous
 62
     7
370
    13
100
AcDbLine
 10
34.457646
 20
-49.389333
 30
0.0
 11
34.746771
 21
-49.701479
 31
0.0
  0
LINE
  5
1B1
330
4AB
100
AcDbEntity
  8
DIM
  6
Continuous
 62
     7
370
    13
100
AcDbLine
 10
34.042437
 20
-49.737417
 30
0.0
 11
34.005125
 21
-49.700104
 31
0.0
  0
LINE
  5
1B2
330
4AB
100
AcDbEntity
  8
DIM
  6
Continuous
 62
     7
370
    13
100
AcDbLine
 10
34.042437
 20
-49.700104
 30
0.0
 11
34.042437
 21
-49.737417
 31
0.0
  0
LINE
  5
1B4
330
4AB
100
AcDbEntity
  8
DIM
  6
Continuous
 62
     7
370
    13
100
AcDbLine
 10
34.122115
 20
-49.700104
 30
0.0
 11
33.949031
 21
-49.700104
 31
0.0
  0
LINE
  5
1B5
330
4AB
100
AcDbEntity
  8
DIM
  6
Continuous
 62
     7
370
    13
100
AcDbLine
 10
34.351698
 20
-49.57424
 30
0.0
 11
34.122115
 21
-49.700104
 31
0.0
  0
SOLID
  5
1B6
330
4AB
100
AcDbEntity
  8
DIM
  6
Continuous
 62
     7
370
    13
100
AcDbTrace
 10
-34.347031
 20
-49.56499
 30
0.0
 11
-34.356365
 21
-49.58349
 31
0.0
 12
-34.407219
 22
-49.546229
 32
0.0
 13
-34.407219
 23
-49.546229
 33
0.0
210
0.0
220
0.0
230
-1.0
  0
SOLID
  5
1B8
330
4AB
100
AcDbEntity
  8
DIM
  6
Continuous
 62
     7
370
    13
100
AcDbTrace
 10
34.24176
 20
-49.478552
 30
0.0
 11
34.221031
 21
-49.478552
 31
0.0
 12
34.231396
 22
-49.540729
 32
0.0
 13
34.231396
 23
-49.540729
 33
0.0
  0
SOLID
  5
1B9
330
4AB
100
AcDbEntity
  8
DIM
  6
Continuous
 62
     7
370
    13
100
AcDbTrace
 10
34.24176
 20
-49.388625
 30
0.0
 11
34.221031
 21
-49.388625
 31
0.0
 12
34.231396
 22
-49.326437
 32
0.0
 13
34.231396
 23
-49.326437
 33
0.0
  0
LINE
  5
1BA
330
4AB
100
AcDbEntity
  8
DIM
  6
Continuous
 62
     7
370
    13
100
AcDbLine
 10
34.231396
 20
-49.388625
 30
0.0
 11
34.231396
 21
-49.478552
 31
0.0
  0
LINE
  5
1BB
330
4AB
100
AcDbEntity
  8
DIM
  6
Continuous
 62
     7
370
    13
100
AcDbLine
 10
34.353281
 20
-49.540729
 30
0.0
 11
34.169208
 21
-49.540729
 31
0.0
  0
LINE
  5
1BC
330
4AB
100
AcDbEntity
  8
DIM
  6
Continuous
 62
     7
370
    13
100
AcDbLine
 10
34.405479
 20
-49.326437
 30
0.0
 11
34.169208
 21
-49.326437
 31
0.0
  0
SOLID
  5
1BE
330
4AB
100
AcDbEntity
  8
DIM
  6
Continuous
 62
     7
370
    13
100
AcDbTrace
 10
-34.547365
 20
-49.233333
 30
0.0
 11
-34.554792
 21
-49.213979
 31
0.0
 12
-34.493021
 22
-49.201396
 32
0.0
 13
-34.493021
 23
-49.201396
 33
0.0
210
0.0
220
0.0
230
-1.0
  0
SOLID
  5
1BF
330
4AB
100
AcDbEntity
  8
DIM
  6
Continuous
 62
     7
370
    13
100
AcDbTrace
 10
-34.355031
 20
-49.208021
 30
0.0
 11
-34.352875
 21
-49.187396
 31
0.0
 12
-34.415802
 22
-49.191229
 32
0.0
 13
-34.415802
 23
-49.191229
 33
0.0
210
0.0
220
0.0
230
-1.0
  0
LINE
  5
1C0
330
4AB
100
AcDbEntity
  8
DIM
  6
Continuous
 62
     7
370
    13
100
AcDbLine
 10
34.415802
 20
-49.129042
 30
0.0
 11
34.415802
 21
-49.427375
 31
0.0
  0
LINE
  5
1C1
330
4AB
100
AcDbEntity
  8
DIM
  6
Continuous
 62
     7
370
    13
100
AcDbLine
 10
34.509115
 20
-49.141323
 30
0.0
 11
34.476792
 21
-49.261958
 31
0.0
  0
ARC
  5
1C2
330
4AB
100
AcDbEntity
  8
DIM
  6
Continuous
 62
     7
370
    13
100
AcDbCircle
 10
34.415803
 20
-49.489559
 30
0.0
 40
0.2983336902168771
100
AcDbArc
 50
51.070325
 51
63.035161
  0
ARC
  5
1C3
330
4AB
100
AcDbEntity
  8
DIM
  6
Continuous
 62
     7
370
    13
100
AcDbCircle
 10
34.415803
 20
-49.489559
 30
0.0
 40
0.2983336902168771
100
AcDbArc
 50
101.964836
 51
113.929672
  0
SOLID
  5
1C5
330
4AB
100
AcDbEntity
  8
DIM
  6
Continuous
 62
     7
370
    13
100
AcDbTrace
 10
-35.750271
 20
-49.252771
 30
0.0
 11
-35.762469
 21
-49.23601
 31
0.0
 12
-35.706104
 22
-49.207771
 32
0.0
 13
-35.706104
 23
-49.207771
 33
0.0
210
0.0
220
0.0
230
-1.0
  0
SOLID
  5
1C6
330
4AB
100
AcDbEntity
  8
DIM
  6
Continuous
 62
     7
370
    13
100
AcDbTrace
 10
-35.505594
 20
-49.187802
 30
0.0
 11
-35.503302
 21
-49.167198
 31
0.0
 12
-35.56626
 22
-49.170635
 32
0.0
 13
-35.56626
 23
-49.170635
 33
0.0
210
0.0
220
0.0
230
-1.0
  0
LINE
  5
1C7
330
4AB
100
AcDbEntity
  8
DIM
  6
Continuous
 62
     7
370
    13
100
AcDbLine
 10
35.56626
 20
-49.108448
 30
0.0
 11
35.56626
 21
-49.390375
 31
0.0
  0
LINE
  5
1C8
330
4AB
100
AcDbEntity
  8
DIM
  6
Continuous
 62
     7
370
    13
100
AcDbLine
 10
35.736958
 20
-49.153781
 30
0.0
 11
35.673365
 21
-49.265083
 31
0.0
  0
ARC
  5
1C9
330
4AB
100
AcDbEntity
  8
DIM
  6
Continuous
 62
     7
370
    13
100
AcDbCircle
 10
35.566255
 20
-49.452564
 30
0.0
 40
0.2819236433404212
100
AcDbArc
 50
34.931947
 51
47.595997
  0
ARC
  5
1CA
330
4AB
100
AcDbEntity
  8
DIM
  6
Continuous
 62
     7
370
    13
100
AcDbCircle
 10
35.566255
 20
-49.452564
 30
0.0
 40
0.2819236433404212
100
AcDbArc
 50
102.66405
 51
115.3281
  0
SOLID
  5
1CC
330
4AB
100
AcDbEntity
  8
DIM
  6
Continuous
 62
     7
370
    13
100
AcDbTrace
 10
-36.776292
 20
-49.261458
 30
0.0
 11
-36.779396
 21
-49.240958
 31
0.0
 12
-36.716365
 22
-49.241896
 32
0.0
 13
-36.716365
 23
-49.241896
 33
0.0
210
0.0
220
0.0
230
-1.0
  0
SOLID
  5
1CD
330
4AB
100
AcDbEntity
  8
DIM
  6
Continuous
 62
     7
370
    13
100
AcDbTrace
 10
36.833031
 20
-49.285198
 30
0.0
 11
36.846708
 21
-49.269615
 31
0.0
 12
36.886604
 22
-49.318427
 32
0.0
 13
36.886604
 23
-49.318427
 33
0.0
  0
LINE
  5
1CE
330
4AB
100
AcDbEntity
  8
DIM
  6
Continuous
 62
     7
370
    13
100
AcDbLine
 10
36.716708
 20
-49.173656
 30
0.0
 11
36.716708
 21
-49.426646
 31
0.0
  0
LINE
  5
1CF
330
4AB
100
AcDbEntity
  8
DIM
  6
Continuous
 62
     7
370
    13
100
AcDbLine
 10
36.938552
 20
-49.264969
 30
0.0
 11
36.853125
 21
-49.351177
 31
0.0
  0
ARC
  5
1D0
330
4AB
100
AcDbEntity
  8
DIM
  6
Continuous
 62
     7
370
    13
100
AcDbCircle
 10
36.704702
 20
-49.493589
 30
0.0
 40
0.2529889379396577
100
AcDbArc
 50
44.085964
 51
74.322436
  0
SOLID
  5
1D2
330
4AB
100
AcDbEntity
  8
DIM
  6
Continuous
 62
     7
370
    13
100
AcDbTrace
 10
-37.927896
 20
-49.173719
 30
0.0
 11
-37.930094
 21
-49.153104
 31
0.0
 12
-37.867156
 22
-49.156802
 32
0.0
 13
-37.867156
 23
-49.156802
 33
0.0
210
0.0
220
0.0
230
-1.0
  0
SOLID
  5
1D3
330
4AB
100
AcDbEntity
  8
DIM
  6
Continuous
 62
     7
370
    13
100
AcDbTrace
 10
38.074615
 20
-49.25799
 30
0.0
 11
38.091302
 21
-49.245698
 31
0.0
 12
38.119823
 22
-49.301917
 32
0.0
 13
38.119823
 23
-49.301917
 33
0.0
  0
LINE
  5
1D4
330
4AB
100
AcDbEntity
  8
DIM
  6
Continuous
 62
     7
370
    13
100
AcDbLine
 10
37.867156
 20
-49.094615
 30
0.0
 11
37.867156
 21
-49.387146
 31
0.0
  0
LINE
  5
1D5
330
4AB
100
AcDbEntity
  8
DIM
  6
Continuous
 62
     7
370
    13
100
AcDbLine
 10
38.173542
 20
-49.270583
 30
0.0
 11
38.030219
 21
-49.354198
 31
0.0
  0
ARC
  5
1D6
330
4AB
100
AcDbEntity
  8
DIM
  6
Continuous
 62
     7
370
    13
100
AcDbCircle
 10
37.867161
 20
-49.449327
 30
0.0
 40
0.2925225405136798
100
AcDbArc
 50
42.463467
 51
77.796578
  0
SOLID
  5
1D8
330
4AB
100
AcDbEntity
  8
DIM
  6
Continuous
 62
     7
370
    13
100
AcDbTrace
 10
-39.078365
 20
-49.239354
 30
0.0
 11
-39.080542
 21
-49.21874
 31
0.0
 12
-39.017615
 22
-49.2225
 32
0.0
 13
-39.017615
 23
-49.2225
 33
0.0
210
0.0
220
0.0
230
-1.0
  0
SOLID
  5
1D9
330
4AB
100
AcDbEntity
  8
DIM
  6
Continuous
 62
     7
370
    13
100
AcDbTrace
 10
39.270271
 20
-49.385917
 30
0.0
 11
39.289583
 21
-49.378385
 31
0.0
 12
39.302521
 22
-49.440083
 32
0.0
 13
39.302521
 23
-49.440083
 33
0.0
  0
LINE
  5
1DA
330
4AB
100
AcDbEntity
  8
DIM
  6
Continuous
 62
     7
370
    13
100
AcDbLine
 10
39.36251
 20
-49.423719
 30
0.0
 11
39.203125
 21
-49.467208
 31
0.0
  0
LINE
  5
1DB
330
4AB
100
AcDbEntity
  8
DIM
  6
Continuous
 62
     7
370
    13
100
AcDbLine
 10
39.017615
 20
-49.160312
 30
0.0
 11
39.017615
 21
-49.455625
 31
0.0
  0
ARC
  5
1DC
330
4AB
100
AcDbEntity
  8
DIM
  6
Continuous
 62
     7
370
    13
100
AcDbCircle
 10
39.017614
 20
-49.517813
 30
0.0
 40
0.2953170847868807
100
AcDbArc
 50
27.347556
 51
77.912492
  0
LINE
  5
1DD
330
4AB
100
AcDbEntity
  8
DIM
  6
Continuous
 62
     7
370
    13
100
AcDbLine
 10
40.106292
 20
-50.995833
 30
0.0
 11
40.031656
 21
-50.995833
 31
0.0
  0
SOLID
  5
1DE
330
4AB
100
AcDbEntity
  8
DIM
  6
Continuous
 62
     7
370
    13
100
AcDbTrace
 10
40.116656
 20
-50.739927
 30
0.0
 11
40.095927
 21
-50.739927
 31
0.0
 12
40.106292
 22
-50.802115
 32
0.0
 13
40.106292
 23
-50.802115
 33
0.0
  0
LINE
  5
1DF
330
4AB
100
AcDbEntity
  8
DIM
  6
Continuous
 62
     7
370
    13
100
AcDbLine
 10
40.106292
 20
-50.670375
 30
0.0
 11
40.106292
 21
-50.788135
 31
0.0
  0
SOLID
  5
1E1
330
4AB
100
AcDbEntity
  8
DIM
  6
Continuous
 62
     7
370
    13
100
AcDbTrace
 10
40.116656
 20
-50.909813
 30
0.0
 11
40.095927
 21
-50.909813
 31
0.0
 12
40.106292
 22
-50.847625
 32
0.0
 13
40.106292
 23
-50.847625
 33
0.0
  0
LINE
  5
1E2
330
4AB
100
AcDbEntity
  8
DIM
  6
Continuous
 62
     7
370
    13
100
AcDbLine
 10
40.106292
 20
-50.890437
 30
0.0
 11
40.106292
 21
-50.995833
 31
0.0
  0
LINE
  5
1E3
330
4AB
100
AcDbEntity
  8
DIM
  6
Continuous
 62
     7
370
    13
100
AcDbLine
 10
38.938677
 20
-50.890437
 30
0.0
 11
38.938677
 21
-50.995833
 31
0.0
  0
SOLID
  5
1E4
330
4AB
100
AcDbEntity
  8
DIM
  6
Continuous
 62
     7
370
    13
100
AcDbTrace
 10
38.949042
 20
-50.909813
 30
0.0
 11
38.928312
 21
-50.909813
 31
0.0
 12
38.938677
 22
-50.847625
 32
0.0
 13
38.938677
 23
-50.847625
 33
0.0
  0
LINE
  5
1E6
330
4AB
100
AcDbEntity
  8
DIM
  6
Continuous
 62
     7
370
    13
100
AcDbLine
 10
38.938677
 20
-50.651146
 30
0.0
 11
38.938677
 21
-50.768906
 31
0.0
  0
SOLID
  5
1E7
330
4AB
100
AcDbEntity
  8
DIM
  6
Continuous
 62
     7
370
    13
100
AcDbTrace
 10
38.949042
 20
-50.720698
 30
0.0
 11
38.928312
 21
-50.720698
 31
0.0
 12
38.938677
 22
-50.782875
 32
0.0
 13
38.938677
 23
-50.782875
 33
0.0
  0
LINE
  5
1E8
330
4AB
100
AcDbEntity
  8
DIM
  6
Continuous
 62
     7
370
    13
100
AcDbLine
 10
38.938677
 20
-50.995833
 30
0.0
 11
38.864042
 21
-50.995833
 31
0.0
  0
SOLID
  5
1E9
330
4AB
100
AcDbEntity
  8
DIM
  6
Continuous
 62
     7
370
    13
100
AcDbTrace
 10
37.77151
 20
-50.684979
 30
0.0
 11
37.750771
 21
-50.684979
 31
0.0
 12
37.761135
 22
-50.747167
 32
0.0
 13
37.761135
 23
-50.747167
 33
0.0
  0
LINE
  5
1EA
330
4AB
100
AcDbEntity
  8
DIM
  6
Continuous
 62
     7
370
    13
100
AcDbLine
 10
37.761135
 20
-50.615427
 30
0.0
 11
37.761135
 21
-50.733187
 31
0.0
  0
SOLID
  5
1EC
330
4AB
100
AcDbEntity
  8
DIM
  6
Continuous
 62
     7
370
    13
100
AcDbTrace
 10
37.77151
 20
-50.909813
 30
0.0
 11
37.750771
 21
-50.909813
 31
0.0
 12
37.761135
 22
-50.847625
 32
0.0
 13
37.761135
 23
-50.847625
 33
0.0
  0
LINE
  5
1ED
330
4AB
100
AcDbEntity
  8
DIM
  6
Continuous
 62
     7
370
    13
100
AcDbLine
 10
37.761135
 20
-50.890437
 30
0.0
 11
37.761135
 21
-50.995833
 31
0.0
  0
LINE
  5
1EE
330
4AB
100
AcDbEntity
  8
DIM
  6
Continuous
 62
     7
370
    13
100
AcDbLine
 10
36.624646
 20
-50.755562
 30
0.0
 11
36.624646
 21
-50.8335
 31
0.0
  0
SOLID
  5
1EF
330
4AB
100
AcDbEntity
  8
DIM
  6
Continuous
 62
     7
370
    13
100
AcDbTrace
 10
36.63501
 20
-50.774948
 30
0.0
 11
36.614281
 21
-50.774948
 31
0.0
 12
36.624646
 22
-50.71276
 32
0.0
 13
36.624646
 23
-50.71276
 33
0.0
  0
SOLID
  5
1F0
330
4AB
100
AcDbEntity
  8
DIM
  6
Continuous
 62
     7
370
    13
100
AcDbTrace
 10
36.63501
 20
-50.785281
 30
0.0
 11
36.614281
 21
-50.785281
 31
0.0
 12
36.624646
 22
-50.847469
 32
0.0
 13
36.624646
 23
-50.847469
 33
0.0
  0
SOLID
  5
1F3
330
4AB
100
AcDbEntity
  8
DIM
  6
Continuous
 62
     7
370
    13
100
AcDbTrace
 10
35.487323
 20
-50.78776
 30
0.0
 11
35.466594
 21
-50.78776
 31
0.0
 12
35.476958
 22
-50.849948
 32
0.0
 13
35.476958
 23
-50.849948
 33
0.0
  0
SOLID
  5
1F4
330
4AB
100
AcDbEntity
  8
DIM
  6
Continuous
 62
     7
370
    13
100
AcDbTrace
 10
35.487323
 20
-50.74025
 30
0.0
 11
35.466594
 21
-50.74025
 31
0.0
 12
35.476958
 22
-50.678062
 32
0.0
 13
35.476958
 23
-50.678062
 33
0.0
  0
LINE
  5
1F5
330
4AB
100
AcDbEntity
  8
DIM
  6
Continuous
 62
     7
370
    13
100
AcDbLine
 10
35.476958
 20
-50.721656
 30
0.0
 11
35.476958
 21
-50.799583
 31
0.0
  0
LINE
  5
1F6
330
4AB
100
AcDbEntity
  8
DIM
  6
Continuous
 62
     7
370
    13
100
AcDbLine
 10
34.341531
 20
-50.709833
 30
0.0
 11
34.341531
 21
-50.78776
 31
0.0
  0
SOLID
  5
1F7
330
4AB
100
AcDbEntity
  8
DIM
  6
Continuous
 62
     7
370
    13
100
AcDbTrace
 10
34.351896
 20
-50.728417
 30
0.0
 11
34.331167
 21
-50.728417
 31
0.0
 12
34.341531
 22
-50.666229
 32
0.0
 13
34.341531
 23
-50.666229
 33
0.0
  0
SOLID
  5
1F8
330
4AB
100
AcDbEntity
  8
DIM
  6
Continuous
 62
     7
370
    13
100
AcDbTrace
 10
34.351896
 20
-50.78776
 30
0.0
 11
34.331167
 21
-50.78776
 31
0.0
 12
34.341531
 22
-50.849948
 32
0.0
 13
34.341531
 23
-50.849948
 33
0.0
  0
SOLID
  5
1FB
330
4AB
100
AcDbEntity
  8
DIM
  6
Continuous
 62
     7
370
    13
100
AcDbTrace
 10
33.197781
 20
-50.78776
 30
0.0
 11
33.177062
 21
-50.78776
 31
0.0
 12
33.187427
 22
-50.849948
 32
0.0
 13
33.187427
 23
-50.849948
 33
0.0
  0
SOLID
  5
1FC
330
4AB
100
AcDbEntity
  8
DIM
  6
Continuous
 62
     7
370
    13
100
AcDbTrace
 10
33.197781
 20
-50.709833
 30
0.0
 11
33.177062
 21
-50.709833
 31
0.0
 12
33.187427
 22
-50.647646
 32
0.0
 13
33.187427
 23
-50.647646
 33
0.0
  0
LINE
  5
1FD
330
4AB
100
AcDbEntity
  8
DIM
  6
Continuous
 62
     7
370
    13
100
AcDbLine
 10
33.187427
 20
-50.709833
 30
0.0
 11
33.187427
 21
-50.78776
 31
0.0
  0
SOLID
  5
203
330
4AB
100
AcDbEntity
  8
DIM
  6
Continuous
 62
     7
370
    13
100
AcDbTrace
 10
33.367875
 20
-51.372719
 30
0.0
 11
33.367875
 21
-51.35199
 31
0.0
 12
33.305687
 22
-51.362354
 32
0.0
 13
33.305687
 23
-51.362354
 33
0.0
  0
SOLID
  5
204
330
4AB
100
AcDbEntity
  8
DIM
  6
Continuous
 62
     7
370
    13
100
AcDbTrace
 10
34.396979
 20
-51.372719
 30
0.0
 11
34.396979
 21
-51.35199
 31
0.0
 12
34.459167
 22
-51.362354
 32
0.0
 13
34.459167
 23
-51.362354
 33
0.0
  0
LINE
  5
205
330
4AB
100
AcDbEntity
  8
DIM
  6
Continuous
 62
     7
370
    13
100
AcDbLine
 10
34.396979
 20
-51.362354
 30
0.0
 11
33.367875
 21
-51.362354
 31
0.0
  0
LINE
  5
206
330
4AB
100
AcDbEntity
  8
_0
  6
Continuous
 62
     7
370
    13
100
AcDbLine
 10
33.305687
 20
-51.446687
 30
0.0
 11
33.305687
 21
-51.300167
 31
0.0
  0
LINE
  5
207
330
4AB
100
AcDbEntity
  8
_0
  6
Continuous
 62
     7
370
    13
100
AcDbLine
 10
34.459167
 20
-51.446687
 30
0.0
 11
34.459167
 21
-51.300167
 31
0.0
  0
SOLID
  5
208
330
4AB
100
AcDbEntity
  8
DIM
  6
Continuous
 62
     7
370
    13
100
AcDbTrace
 10
34.521354
 20
-51.372719
 30
0.0
 11
34.521354
 21
-51.35199
 31
0.0
 12
34.459167
 22
-51.362354
 32
0.0
 13
34.459167
 23
-51.362354
 33
0.0
  0
SOLID
  5
209
330
4AB
100
AcDbEntity
  8
DIM
  6
Continuous
 62
     7
370
    13
100
AcDbTrace
 10
35.546521
 20
-51.372719
 30
0.0
 11
35.546521
 21
-51.35199
 31
0.0
 12
35.608708
 22
-51.362354
 32
0.0
 13
35.608708
 23
-51.362354
 33
0.0
  0
LINE
  5
20A
330
4AB
100
AcDbEntity
  8
DIM
  6
Continuous
 62
     7
370
    13
100
AcDbLine
 10
35.546521
 20
-51.362354
 30
0.0
 11
34.521354
 21
-51.362354
 31
0.0
  0
LINE
  5
20B
330
4AB
100
AcDbEntity
  8
_0
  6
Continuous
 62
     7
370
    13
100
AcDbLine
 10
35.608708
 20
-51.446687
 30
0.0
 11
35.608708
 21
-51.300167
 31
0.0
  0
SOLID
  5
20C
330
4AB
100
AcDbEntity
  8
DIM
  6
Continuous
 62
     7
370
    13
100
AcDbTrace
 10
35.670896
 20
-51.372719
 30
0.0
 11
35.670896
 21
-51.35199
 31
0.0
 12
35.608708
 22
-51.362354
 32
0.0
 13
35.608708
 23
-51.362354
 33
0.0
  0
SOLID
  5
20D
330
4AB
100
AcDbEntity
  8
DIM
  6
Continuous
 62
     7
370
    13
100
AcDbTrace
 10
36.697854
 20
-51.372719
 30
0.0
 11
36.697854
 21
-51.35199
 31
0.0
 12
36.760042
 22
-51.362354
 32
0.0
 13
36.760042
 23
-51.362354
 33
0.0
  0
LINE
  5
20E
330
4AB
100
AcDbEntity
  8
DIM
  6
Continuous
 62
     7
370
    13
100
AcDbLine
 10
36.697854
 20
-51.362354
 30
0.0
 11
35.670896
 21
-51.362354
 31
0.0
  0
LINE
  5
20F
330
4AB
100
AcDbEntity
  8
_0
  6
Continuous
 62
     7
370
    13
100
AcDbLine
 10
36.760042
 20
-51.446687
 30
0.0
 11
36.760042
 21
-51.300167
 31
0.0
  0
SOLID
  5
210
330
4AB
100
AcDbEntity
  8
DIM
  6
Continuous
 62
     7
370
    13
100
AcDbTrace
 10
36.822229
 20
-51.372719
 30
0.0
 11
36.822229
 21
-51.35199
 31
0.0
 12
36.760042
 22
-51.362354
 32
0.0
 13
36.760042
 23
-51.362354
 33
0.0
  0
SOLID
  5
211
330
4AB
100
AcDbEntity
  8
DIM
  6
Continuous
 62
     7
370
    13
100
AcDbTrace
 10
37.851333
 20
-51.372719
 30
0.0
 11
37.851333
 21
-51.35199
 31
0.0
 12
37.913521
 22
-51.362354
 32
0.0
 13
37.913521
 23
-51.362354
 33
0.0
  0
LINE
  5
212
330
4AB
100
AcDbEntity
  8
DIM
  6
Continuous
 62
     7
370
    13
100
AcDbLine
 10
37.851333
 20
-51.362354
 30
0.0
 11
36.822229
 21
-51.362354
 31
0.0
  0
LINE
  5
213
330
4AB
100
AcDbEntity
  8
DIM
  6
Continuous
 62
     7
370
    13
100
AcDbLine
 10
37.913521
 20
-51.446687
 30
0.0
 11
37.913521
 21
-51.300167
 31
0.0
  0
SOLID
  5
214
330
4AB
100
AcDbEntity
  8
DIM
  6
Continuous
 62
     7
370
    13
100
AcDbTrace
 10
37.975708
 20
-51.372719
 30
0.0
 11
37.975708
 21
-51.35199
 31
0.0
 12
37.913521
 22
-51.362354
 32
0.0
 13
37.913521
 23
-51.362354
 33
0.0
  0
SOLID
  5
215
330
4AB
100
AcDbEntity
  8
DIM
  6
Continuous
 62
     7
370
    13
100
AcDbTrace
 10
38.996938
 20
-51.372719
 30
0.0
 11
38.996938
 21
-51.35199
 31
0.0
 12
39.059125
 22
-51.362354
 32
0.0
 13
39.059125
 23
-51.362354
 33
0.0
  0
LINE
  5
216
330
4AB
100
AcDbEntity
  8
DIM
  6
Continuous
 62
     7
370
    13
100
AcDbLine
 10
38.996938
 20
-51.362354
 30
0.0
 11
37.975708
 21
-51.362354
 31
0.0
  0
LINE
  5
217
330
4AB
100
AcDbEntity
  8
DIM
  6
Continuous
 62
     7
370
    13
100
AcDbLine
 10
39.059125
 20
-51.446687
 30
0.0
 11
39.059125
 21
-51.300167
 31
0.0
  0
SOLID
  5
219
330
4AB
100
AcDbEntity
  8
DIM
  6
Continuous
 62
     7
370
    13
100
AcDbTrace
 10
39.121313
 20
-51.372719
 30
0.0
 11
39.121313
 21
-51.35199
 31
0.0
 12
39.059125
 22
-51.362354
 32
0.0
 13
39.059125
 23
-51.362354
 33
0.0
  0
SOLID
  5
21A
330
4AB
100
AcDbEntity
  8
DIM
  6
Continuous
 62
     7
370
    13
100
AcDbTrace
 10
40.146479
 20
-51.372719
 30
0.0
 11
40.146479
 21
-51.35199
 31
0.0
 12
40.208667
 22
-51.362354
 32
0.0
 13
40.208667
 23
-51.362354
 33
0.0
  0
LINE
  5
21B
330
4AB
100
AcDbEntity
  8
DIM
  6
Continuous
 62
     7
370
    13
100
AcDbLine
 10
40.146479
 20
-51.362354
 30
0.0
 11
39.121313
 21
-51.362354
 31
0.0
  0
LINE
  5
21C
330
4AB
100
AcDbEntity
  8
DIM
  6
Continuous
 62
     7
370
    13
100
AcDbLine
 10
40.208667
 20
-51.446687
 30
0.0
 11
40.208667
 21
-51.300167
 31
0.0
  0
LINE
  5
21D
330
4AB
100
AcDbEntity
  8
_0
  6
Continuous
 62
     7
370
    13
100
AcDbLine
 10
40.168062
 20
-49.634812
 30
0.0
 11
40.168062
 21
-49.581042
 31
0.0
  0
LINE
  5
21E
330
4AB
100
AcDbEntity
  8
_0
  6
Continuous
 62
     7
370
    13
100
AcDbLine
 10
40.255125
 20
-49.634812
 30
0.0
 11
40.255125
 21
-49.580646
 31
0.0
  0
LINE
  5
21F
330
4AB
100
AcDbEntity
  8
_0
  6
Continuous
 62
     7
370
    13
100
AcDbLine
 10
40.029865
 20
-49.566719
 30
0.0
 11
40.029937
 21
-49.58125
 31
0.0
  0
LINE
  5
220
330
4AB
100
AcDbEntity
  8
_0
  6
Continuous
 62
     7
370
    13
100
AcDbLine
 10
40.205438
 20
-49.58125
 30
0.0
 11
40.205375
 21
-49.566719
 31
0.0
  0
LINE
  5
221
330
4AB
100
AcDbEntity
  8
_0
  6
Continuous
 62
     7
370
    13
100
AcDbLine
 10
39.146406
 20
-49.495573
 30
0.0
 11
39.143125
 21
-49.483573
 31
0.0
  0
LINE
  5
222
330
4AB
100
AcDbEntity
  8
_0
  6
Continuous
 62
     7
370
    13
100
AcDbLine
 10
39.146406
 20
-49.495573
 30
0.0
 11
38.977083
 21
-49.54176
 31
0.0
  0
LINE
  5
223
330
4AB
100
AcDbEntity
  8
_0
  6
Continuous
 62
     7
370
    13
100
AcDbLine
 10
39.143125
 20
-49.483573
 30
0.0
 11
38.973813
 21
-49.52976
 31
0.0
  0
LINE
  5
224
330
4AB
100
AcDbEntity
  8
_0
  6
Continuous
 62
     7
370
    13
100
AcDbLine
 10
38.973813
 20
-49.52976
 30
0.0
 11
38.977083
 21
-49.54176
 31
0.0
  0
LINE
  5
225
330
4AB
100
AcDbEntity
  8
_0
  6
Continuous
 62
     7
370
    13
100
AcDbLine
 10
37.824917
 20
-49.466115
 30
0.0
 11
37.831177
 21
-49.476854
 31
0.0
  0
LINE
  5
226
330
4AB
100
AcDbEntity
  8
_0
  6
Continuous
 62
     7
370
    13
100
AcDbLine
 10
37.9765
 20
-49.377667
 30
0.0
 11
37.824917
 21
-49.466115
 31
0.0
  0
LINE
  5
227
330
4AB
100
AcDbEntity
  8
_0
  6
Continuous
 62
     7
370
    13
100
AcDbLine
 10
37.982771
 20
-49.388417
 30
0.0
 11
37.831177
 21
-49.476854
 31
0.0
  0
LINE
  5
228
330
4AB
100
AcDbEntity
  8
_0
  6
Continuous
 62
     7
370
    13
100
AcDbLine
 10
37.982771
 20
-49.388417
 30
0.0
 11
37.9765
 21
-49.377667
 31
0.0
  0
LINE
  5
229
330
4AB
100
AcDbEntity
  8
_0
  6
Continuous
 62
     7
370
    13
100
AcDbLine
 10
36.818188
 20
-49.404104
 30
0.0
 11
36.809354
 21
-49.395344
 31
0.0
  0
LINE
  5
22A
330
4AB
100
AcDbEntity
  8
_0
  6
Continuous
 62
     7
370
    13
100
AcDbLine
 10
36.817073
 20
-49.405229
 30
0.0
 11
36.694656
 21
-49.52876
 31
0.0
  0
LINE
  5
22B
330
4AB
100
AcDbEntity
  8
_0
  6
Continuous
 62
     7
370
    13
100
AcDbLine
 10
36.809354
 20
-49.395344
 30
0.0
 11
36.685823
 21
-49.52001
 31
0.0
  0
LINE
  5
22C
330
4AB
100
AcDbEntity
  8
_0
  6
Continuous
 62
     7
370
    13
100
AcDbLine
 10
36.685823
 20
-49.52001
 30
0.0
 11
36.694656
 21
-49.52876
 31
0.0
  0
LINE
  5
22D
330
4AB
100
AcDbEntity
  8
_0
  6
Continuous
 62
     7
370
    13
100
AcDbLine
 10
35.653312
 20
-49.32525
 30
0.0
 11
35.642521
 21
-49.319083
 31
0.0
  0
LINE
  5
22E
330
4AB
100
AcDbEntity
  8
_0
  6
Continuous
 62
     7
370
    13
100
AcDbLine
 10
35.555458
 20
-49.471469
 30
0.0
 11
35.56626
 21
-49.477635
 31
0.0
  0
LINE
  5
22F
330
4AB
100
AcDbEntity
  8
_0
  6
Continuous
 62
     7
370
    13
100
AcDbLine
 10
35.642521
 20
-49.319083
 30
0.0
 11
35.555458
 21
-49.471469
 31
0.0
  0
LINE
  5
230
330
4AB
100
AcDbEntity
  8
_0
  6
Continuous
 62
     7
370
    13
100
AcDbLine
 10
35.653312
 20
-49.32525
 30
0.0
 11
35.56626
 21
-49.477635
 31
0.0
  0
LINE
  5
231
330
4AB
100
AcDbEntity
  8
DIM
  6
Continuous
 62
     7
370
    13
100
AcDbLine
 10
34.415802
 20
-49.537615
 30
0.0
 11
34.403792
 21
-49.534396
 31
0.0
  0
LINE
  5
232
330
4AB
100
AcDbEntity
  8
_0
  6
Continuous
 62
     7
370
    13
100
AcDbLine
 10
34.472708
 20
-49.32525
 30
0.0
 11
34.460698
 21
-49.322031
 31
0.0
  0
LINE
  5
233
330
4AB
100
AcDbEntity
  8
_0
  6
Continuous
 62
     7
370
    13
100
AcDbLine
 10
34.403792
 20
-49.534396
 30
0.0
 11
34.460698
 21
-49.322031
 31
0.0
  0
LINE
  5
234
330
4AB
100
AcDbEntity
  8
_0
  6
Continuous
 62
     7
370
    13
100
AcDbLine
 10
34.472708
 20
-49.32525
 30
0.0
 11
34.620083
 21
-49.32525
 31
0.0
  0
LINE
  5
235
330
4AB
100
AcDbEntity
  8
_0
  6
Continuous
 62
     7
370
    13
100
AcDbLine
 10
34.415802
 20
-49.537615
 30
0.0
 11
34.472708
 21
-49.32525
 31
0.0
  0
LINE
  5
236
330
4AB
100
AcDbEntity
  8
_0
  6
DGN Style 2
 62
     7
370
    13
100
AcDbLine
 10
34.502865
 20
-49.729458
 30
0.0
 11
34.589927
 21
-49.729458
 31
0.0
  0
LINE
  5
237
330
4AB
100
AcDbEntity
  8
_0
  6
Continuous
 62
     7
370
    13
100
AcDbLine
 10
33.179552
 20
-49.511812
 30
0.0
 11
33.265354
 21
-49.511812
 31
0.0
  0
LINE
  5
238
330
4AB
100
AcDbEntity
  8
_0
  6
Continuous
 62
     7
370
    13
100
AcDbLine
 10
33.179552
 20
-49.511812
 30
0.0
 11
33.179552
 21
-49.32525
 31
0.0
  0
LINE
  5
239
330
4AB
100
AcDbEntity
  8
_0
  6
Continuous
 62
     7
370
    13
100
AcDbLine
 10
33.19199
 20
-49.511812
 30
0.0
 11
33.19199
 21
-49.32525
 31
0.0
  0
LINE
  5
23A
330
4AB
100
AcDbEntity
  8
_0
  6
Continuous
 62
     7
370
    13
100
AcDbLine
 10
33.254177
 20
-49.511812
 30
0.0
 11
33.254177
 21
-49.32525
 31
0.0
  0
LINE
  5
23B
330
4AB
100
AcDbEntity
  8
_0
  6
Continuous
 62
     7
370
    13
100
AcDbLine
 10
33.277792
 20
-49.634812
 30
0.0
 11
33.277792
 21
-49.32525
 31
0.0
  0
LINE
  5
23C
330
4AB
100
AcDbEntity
  8
_0
  6
Continuous
 62
     7
370
    13
100
AcDbLine
 10
33.339979
 20
-49.634812
 30
0.0
 11
33.339979
 21
-49.32525
 31
0.0
  0
LINE
  5
23D
330
4AB
100
AcDbEntity
  8
_0
  6
Continuous
 62
     7
370
    13
100
AcDbLine
 10
34.490427
 20
-49.540937
 30
0.0
 11
34.490427
 21
-49.32525
 31
0.0
  0
LINE
  5
23E
330
4AB
100
AcDbEntity
  8
_0
  6
Continuous
 62
     7
370
    13
100
AcDbLine
 10
34.42824
 20
-49.540937
 30
0.0
 11
34.42824
 21
-49.491198
 31
0.0
  0
LINE
  5
23F
330
4AB
100
AcDbEntity
  8
_0
  6
Continuous
 62
     7
370
    13
100
AcDbLine
 10
35.640875
 20
-49.540937
 30
0.0
 11
35.640875
 21
-49.347021
 31
0.0
  0
LINE
  5
240
330
4AB
100
AcDbEntity
  8
_0
  6
Continuous
 62
     7
370
    13
100
AcDbLine
 10
35.578688
 20
-49.540937
 30
0.0
 11
35.578688
 21
-49.455865
 31
0.0
  0
LINE
  5
241
330
4AB
100
AcDbEntity
  8
_0
  6
Continuous
 62
     7
370
    13
100
AcDbLine
 10
36.791333
 20
-49.611885
 30
0.0
 11
36.791333
 21
-49.431073
 31
0.0
  0
LINE
  5
242
330
4AB
100
AcDbEntity
  8
_0
  6
Continuous
 62
     7
370
    13
100
AcDbLine
 10
36.729146
 20
-49.611885
 30
0.0
 11
36.729146
 21
-49.493833
 31
0.0
  0
LINE
  5
243
330
4AB
100
AcDbEntity
  8
_0
  6
Continuous
 62
     7
370
    13
100
AcDbLine
 10
37.941781
 20
-49.611885
 30
0.0
 11
37.941781
 21
-49.412323
 31
0.0
  0
LINE
  5
244
330
4AB
100
AcDbEntity
  8
_0
  6
Continuous
 62
     7
370
    13
100
AcDbLine
 10
37.879604
 20
-49.611885
 30
0.0
 11
37.879604
 21
-49.448604
 31
0.0
  0
LINE
  5
245
330
4AB
100
AcDbEntity
  8
_0
  6
Continuous
 62
     7
370
    13
100
AcDbLine
 10
39.09224
 20
-49.634812
 30
0.0
 11
39.09224
 21
-49.510344
 31
0.0
  0
LINE
  5
246
330
4AB
100
AcDbEntity
  8
_0
  6
Continuous
 62
     7
370
    13
100
AcDbLine
 10
39.030052
 20
-49.634812
 30
0.0
 11
39.030052
 21
-49.527313
 31
0.0
  0
LINE
  5
247
330
4AB
100
AcDbEntity
  8
_0
  6
Continuous
 62
     7
370
    13
100
AcDbLine
 10
40.1805
 20
-49.634812
 30
0.0
 11
40.1805
 21
-49.58099
 31
0.0
  0
LINE
  5
248
330
4AB
100
AcDbEntity
  8
_0
  6
Continuous
 62
     7
370
    13
100
AcDbLine
 10
40.242687
 20
-49.634812
 30
0.0
 11
40.242687
 21
-49.580708
 31
0.0
  0
LINE
  5
249
330
4AB
100
AcDbEntity
  8
DIM
  6
Continuous
 62
     7
370
    13
100
AcDbLine
 10
34.415802
 20
-49.540937
 30
0.0
 11
34.415802
 21
-49.537615
 31
0.0
  0
LINE
  5
24A
330
4AB
100
AcDbEntity
  8
_0
  6
Continuous
 62
     7
370
    13
100
AcDbLine
 10
33.265354
 20
-49.634812
 30
0.0
 11
33.265354
 21
-49.32525
 31
0.0
  0
LINE
  5
24B
330
4AB
100
AcDbEntity
  8
_0
  6
Continuous
 62
     7
370
    13
100
AcDbLine
 10
33.352406
 20
-49.634812
 30
0.0
 11
33.352406
 21
-49.32525
 31
0.0
  0
LINE
  5
24C
330
4AB
100
AcDbEntity
  8
_0
  6
Continuous
 62
     7
370
    13
100
AcDbLine
 10
35.56626
 20
-49.540937
 30
0.0
 11
35.56626
 21
-49.477635
 31
0.0
  0
LINE
  5
24D
330
4AB
100
AcDbEntity
  8
_0
  6
Continuous
 62
     7
370
    13
100
AcDbLine
 10
35.653312
 20
-49.634812
 30
0.0
 11
35.653312
 21
-49.32525
 31
0.0
  0
LINE
  5
24E
330
4AB
100
AcDbEntity
  8
_0
  6
Continuous
 62
     7
370
    13
100
AcDbLine
 10
36.716708
 20
-49.611885
 30
0.0
 11
36.716708
 21
-49.506385
 31
0.0
  0
LINE
  5
24F
330
4AB
100
AcDbEntity
  8
_0
  6
Continuous
 62
     7
370
    13
100
AcDbLine
 10
36.803771
 20
-49.634812
 30
0.0
 11
36.803771
 21
-49.418531
 31
0.0
  0
LINE
  5
250
330
4AB
100
AcDbEntity
  8
_0
  6
Continuous
 62
     7
370
    13
100
AcDbLine
 10
37.867156
 20
-49.611885
 30
0.0
 11
37.867156
 21
-49.455865
 31
0.0
  0
LINE
  5
251
330
4AB
100
AcDbEntity
  8
_0
  6
Continuous
 62
     7
370
    13
100
AcDbLine
 10
37.954229
 20
-49.634812
 30
0.0
 11
37.954229
 21
-49.405229
 31
0.0
  0
LINE
  5
252
330
4AB
100
AcDbEntity
  8
_0
  6
Continuous
 62
     7
370
    13
100
AcDbLine
 10
39.104677
 20
-49.634812
 30
0.0
 11
39.104677
 21
-49.506948
 31
0.0
  0
LINE
  5
253
330
4AB
100
AcDbEntity
  8
_0
  6
Continuous
 62
     7
370
    13
100
AcDbLine
 10
39.017615
 20
-49.634812
 30
0.0
 11
39.017615
 21
-49.530698
 31
0.0
  0
LINE
  5
254
330
4AB
100
AcDbEntity
  8
_0
  6
DGN Style 2
 62
     7
370
    13
100
AcDbLine
 10
34.42824
 20
-51.70201
 30
0.0
 11
34.490427
 21
-51.70201
 31
0.0
  0
LINE
  5
255
330
4AB
100
AcDbEntity
  8
_0
  6
DGN Style 2
 62
     7
370
    13
100
AcDbLine
 10
35.578688
 20
-51.70201
 30
0.0
 11
35.640875
 21
-51.70201
 31
0.0
  0
LINE
  5
256
330
4AB
100
AcDbEntity
  8
_0
  6
DGN Style 2
 62
     7
370
    13
100
AcDbLine
 10
36.729146
 20
-51.70201
 30
0.0
 11
36.791333
 21
-51.70201
 31
0.0
  0
LINE
  5
257
330
4AB
100
AcDbEntity
  8
_0
  6
DGN Style 2
 62
     7
370
    13
100
AcDbLine
 10
37.879604
 20
-51.70201
 30
0.0
 11
37.941781
 21
-51.70201
 31
0.0
  0
LINE
  5
258
330
4AB
100
AcDbEntity
  8
_0
  6
DGN Style 2
 62
     7
370
    13
100
AcDbLine
 10
39.030052
 20
-51.70201
 30
0.0
 11
39.09224
 21
-51.70201
 31
0.0
  0
LINE
  5
259
330
4AB
100
AcDbEntity
  8
_0
  6
DGN Style 2
 62
     7
370
    13
100
AcDbLine
 10
40.1805
 20
-51.70201
 30
0.0
 11
40.242687
 21
-51.70201
 31
0.0
  0
LINE
  5
25A
330
4AB
100
AcDbEntity
  8
_0
  6
Continuous
 62
     7
370
    13
100
AcDbLine
 10
39.017615
 20
-50.846937
 30
0.0
 11
39.017615
 21
-50.672969
 31
0.0
  0
LINE
  5
25B
330
4AB
100
AcDbEntity
  8
_0
  6
Continuous
 62
     7
370
    13
100
AcDbLine
 10
39.104677
 20
-50.846937
 30
0.0
 11
39.104677
 21
-50.672969
 31
0.0
  0
LINE
  5
25C
330
4AB
100
AcDbEntity
  8
_0
  6
Continuous
 62
     7
370
    13
100
AcDbLine
 10
37.954229
 20
-50.846937
 30
0.0
 11
37.954229
 21
-50.62151
 31
0.0
  0
LINE
  5
25D
330
4AB
100
AcDbEntity
  8
_0
  6
Continuous
 62
     7
370
    13
100
AcDbLine
 10
37.867156
 20
-50.846937
 30
0.0
 11
37.867156
 21
-50.62151
 31
0.0
  0
LINE
  5
25E
330
4AB
100
AcDbEntity
  8
_0
  6
Continuous
 62
     7
370
    13
100
AcDbLine
 10
36.803771
 20
-50.846937
 30
0.0
 11
36.803771
 21
-50.571406
 31
0.0
  0
LINE
  5
25F
330
4AB
100
AcDbEntity
  8
_0
  6
Continuous
 62
     7
370
    13
100
AcDbLine
 10
36.716708
 20
-50.846937
 30
0.0
 11
36.716708
 21
-50.571406
 31
0.0
  0
LINE
  5
260
330
4AB
100
AcDbEntity
  8
_0
  6
Continuous
 62
     7
370
    13
100
AcDbLine
 10
35.653312
 20
-50.846937
 30
0.0
 11
35.653312
 21
-50.519625
 31
0.0
  0
LINE
  5
261
330
4AB
100
AcDbEntity
  8
_0
  6
Continuous
 62
     7
370
    13
100
AcDbLine
 10
35.56626
 20
-50.846937
 30
0.0
 11
35.56626
 21
-50.519625
 31
0.0
  0
LINE
  5
262
330
4AB
100
AcDbEntity
  8
_0
  6
Continuous
 62
     7
370
    13
100
AcDbLine
 10
33.352406
 20
-50.846937
 30
0.0
 11
33.352406
 21
-50.458271
 31
0.0
  0
LINE
  5
263
330
4AB
100
AcDbEntity
  8
_0
  6
Continuous
 62
     7
370
    13
100
AcDbLine
 10
33.265354
 20
-50.846937
 30
0.0
 11
33.265354
 21
-50.458271
 31
0.0
  0
LINE
  5
264
330
4AB
100
AcDbEntity
  8
_0
  6
Continuous
 62
     7
370
    13
100
AcDbLine
 10
34.502865
 20
-50.846937
 30
0.0
 11
34.502865
 21
-50.484687
 31
0.0
  0
LINE
  5
265
330
4AB
100
AcDbEntity
  8
_0
  6
Continuous
 62
     7
370
    13
100
AcDbLine
 10
34.415802
 20
-50.846937
 30
0.0
 11
34.415802
 21
-50.484687
 31
0.0
  0
LINE
  5
266
330
4AB
100
AcDbEntity
  8
_0
  6
DGN Style 2
 62
     7
370
    13
100
AcDbLine
 10
40.242687
 20
-50.846937
 30
0.0
 11
40.242687
 21
-51.70201
 31
0.0
  0
LINE
  5
267
330
4AB
100
AcDbEntity
  8
_0
  6
DGN Style 2
 62
     7
370
    13
100
AcDbLine
 10
40.1805
 20
-50.846937
 30
0.0
 11
40.1805
 21
-51.70201
 31
0.0
  0
LINE
  5
268
330
4AB
100
AcDbEntity
  8
_0
  6
DGN Style 2
 62
     7
370
    13
100
AcDbLine
 10
39.09224
 20
-50.846937
 30
0.0
 11
39.09224
 21
-51.70201
 31
0.0
  0
LINE
  5
269
330
4AB
100
AcDbEntity
  8
_0
  6
DGN Style 2
 62
     7
370
    13
100
AcDbLine
 10
39.030052
 20
-50.846937
 30
0.0
 11
39.030052
 21
-51.70201
 31
0.0
  0
LINE
  5
26A
330
4AB
100
AcDbEntity
  8
_0
  6
DGN Style 2
 62
     7
370
    13
100
AcDbLine
 10
37.941781
 20
-50.846937
 30
0.0
 11
37.941781
 21
-51.70201
 31
0.0
  0
LINE
  5
26B
330
4AB
100
AcDbEntity
  8
_0
  6
DGN Style 2
 62
     7
370
    13
100
AcDbLine
 10
37.879604
 20
-50.846937
 30
0.0
 11
37.879604
 21
-51.70201
 31
0.0
  0
LINE
  5
26C
330
4AB
100
AcDbEntity
  8
_0
  6
DGN Style 2
 62
     7
370
    13
100
AcDbLine
 10
36.791333
 20
-50.846937
 30
0.0
 11
36.791333
 21
-51.70201
 31
0.0
  0
LINE
  5
26D
330
4AB
100
AcDbEntity
  8
_0
  6
DGN Style 2
 62
     7
370
    13
100
AcDbLine
 10
36.729146
 20
-50.846937
 30
0.0
 11
36.729146
 21
-51.70201
 31
0.0
  0
LINE
  5
26E
330
4AB
100
AcDbEntity
  8
_0
  6
DGN Style 2
 62
     7
370
    13
100
AcDbLine
 10
35.640875
 20
-50.846937
 30
0.0
 11
35.640875
 21
-51.70201
 31
0.0
  0
LINE
  5
26F
330
4AB
100
AcDbEntity
  8
_0
  6
DGN Style 2
 62
     7
370
    13
100
AcDbLine
 10
35.578688
 20
-50.846937
 30
0.0
 11
35.578688
 21
-51.70201
 31
0.0
  0
LINE
  5
270
330
4AB
100
AcDbEntity
  8
_0
  6
DGN Style 2
 62
     7
370
    13
100
AcDbLine
 10
34.490427
 20
-50.846937
 30
0.0
 11
34.490427
 21
-51.70201
 31
0.0
  0
LINE
  5
271
330
4AB
100
AcDbEntity
  8
_0
  6
DGN Style 2
 62
     7
370
    13
100
AcDbLine
 10
34.42824
 20
-50.846937
 30
0.0
 11
34.42824
 21
-51.70201
 31
0.0
  0
LINE
  5
272
330
4AB
100
AcDbEntity
  8
_0
  6
DGN Style 2
 62
     7
370
    13
100
AcDbLine
 10
33.339979
 20
-50.846937
 30
0.0
 11
33.339979
 21
-51.70201
 31
0.0
  0
LINE
  5
273
330
4AB
100
AcDbEntity
  8
_0
  6
DGN Style 2
 62
     7
370
    13
100
AcDbLine
 10
33.277792
 20
-50.846937
 30
0.0
 11
33.277792
 21
-51.70201
 31
0.0
  0
LINE
  5
274
330
4AB
100
AcDbEntity
  8
_0
  6
Continuous
 62
     7
370
    13
100
AcDbLine
 10
40.242687
 20
-50.846937
 30
0.0
 11
40.242687
 21
-50.763052
 31
0.0
  0
LINE
  5
275
330
4AB
100
AcDbEntity
  8
_0
  6
Continuous
 62
     7
370
    13
100
AcDbLine
 10
40.1805
 20
-50.846937
 30
0.0
 11
40.1805
 21
-50.763052
 31
0.0
  0
LINE
  5
276
330
4AB
100
AcDbEntity
  8
_0
  6
Continuous
 62
     7
370
    13
100
AcDbLine
 10
39.030052
 20
-50.846937
 30
0.0
 11
39.030052
 21
-50.672969
 31
0.0
  0
LINE
  5
277
330
4AB
100
AcDbEntity
  8
_0
  6
Continuous
 62
     7
370
    13
100
AcDbLine
 10
39.09224
 20
-50.846937
 30
0.0
 11
39.09224
 21
-50.672969
 31
0.0
  0
LINE
  5
278
330
4AB
100
AcDbEntity
  8
_0
  6
Continuous
 62
     7
370
    13
100
AcDbLine
 10
37.879604
 20
-50.846937
 30
0.0
 11
37.879604
 21
-50.62151
 31
0.0
  0
LINE
  5
279
330
4AB
100
AcDbEntity
  8
_0
  6
Continuous
 62
     7
370
    13
100
AcDbLine
 10
37.941781
 20
-50.846937
 30
0.0
 11
37.941781
 21
-50.62151
 31
0.0
  0
LINE
  5
27A
330
4AB
100
AcDbEntity
  8
_0
  6
Continuous
 62
     7
370
    13
100
AcDbLine
 10
36.729146
 20
-50.846937
 30
0.0
 11
36.729146
 21
-50.571406
 31
0.0
  0
LINE
  5
27B
330
4AB
100
AcDbEntity
  8
_0
  6
Continuous
 62
     7
370
    13
100
AcDbLine
 10
36.791333
 20
-50.846937
 30
0.0
 11
36.791333
 21
-50.571406
 31
0.0
  0
LINE
  5
27C
330
4AB
100
AcDbEntity
  8
_0
  6
Continuous
 62
     7
370
    13
100
AcDbLine
 10
35.578688
 20
-50.846937
 30
0.0
 11
35.578688
 21
-50.519625
 31
0.0
  0
LINE
  5
27D
330
4AB
100
AcDbEntity
  8
_0
  6
Continuous
 62
     7
370
    13
100
AcDbLine
 10
35.640875
 20
-50.846937
 30
0.0
 11
35.640875
 21
-50.519625
 31
0.0
  0
LINE
  5
27E
330
4AB
100
AcDbEntity
  8
_0
  6
Continuous
 62
     7
370
    13
100
AcDbLine
 10
34.42824
 20
-50.846937
 30
0.0
 11
34.42824
 21
-50.484687
 31
0.0
  0
LINE
  5
27F
330
4AB
100
AcDbEntity
  8
_0
  6
Continuous
 62
     7
370
    13
100
AcDbLine
 10
34.490427
 20
-50.846937
 30
0.0
 11
34.490427
 21
-50.484687
 31
0.0
  0
LINE
  5
280
330
4AB
100
AcDbEntity
  8
_0
  6
Continuous
 62
     7
370
    13
100
AcDbLine
 10
33.339979
 20
-50.846937
 30
0.0
 11
33.339979
 21
-50.458271
 31
0.0
  0
LINE
  5
281
330
4AB
100
AcDbEntity
  8
_0
  6
Continuous
 62
     7
370
    13
100
AcDbLine
 10
33.277792
 20
-50.846937
 30
0.0
 11
33.277792
 21
-50.458271
 31
0.0
  0
SPLINE
  5
282
330
4AB
100
AcDbEntity
  8
_0
  6
Continuous
 62
     7
370
     0
100
AcDbSpline
210
0.0
220
0.0
230
1.0
 70
     8
 71
     3
 72
    13
 73
     9
 74
     0
 42
0.0000000001
 43
0.00000001
 40
0.0
 40
0.0
 40
0.0
 40
0.0
 40
0.1666666666666667
 40
0.3333333333333333
 40
0.5
 40
0.6666666666666666
 40
0.8333333333333333
 40
1.0
 40
1.0
 40
1.0
 40
1.0
 10
35.60765625
 20
-50.67766666666667
 30
0.0
 10
37.9106875
 20
-50.75365625
 30
0.0
 10
39.06114583333333
 20
-50.78475
 30
0.0
 10
39.60319791666667
 20
-50.78813541666666
 30
0.0
 10
40.2389375
 20
-50.80505208333333
 30
0.0
 10
40.28364583333333
 20
-50.81439583333333
 30
0.0
 10
40.3233125
 20
-50.82564583333333
 30
0.0
 10
40.361
 20
-50.839625
 30
0.0
 10
40.37704166666666
 20
-50.8469375
 30
0.0
  0
LINE
  5
284
330
4AB
100
AcDbEntity
  8
_0
  6
Continuous
 62
     7
370
    13
100
AcDbLine
 10
32.865562
 20
-50.638521
 30
0.0
 11
35.609792
 21
-50.677677
 31
0.0
  0
LINE
  5
285
330
4AB
100
AcDbEntity
  8
_0
  6
Continuous
 62
     7
370
    13
100
AcDbLine
 10
32.865562
 20
-50.592958
 30
0.0
 11
36.151344
 21
-50.694323
 31
0.0
  0
LINE
  5
286
330
4AB
100
AcDbEntity
  8
_0
  6
Continuous
 62
     7
370
    13
100
AcDbLine
 10
32.865562
 20
-50.48926
 30
0.0
 11
35.975146
 21
-50.533635
 31
0.0
  0
SPLINE
  5
287
330
4AB
100
AcDbEntity
  8
_0
  6
Continuous
 62
     7
370
     0
100
AcDbSpline
210
0.0
220
0.0
230
1.0
 70
     8
 71
     3
 72
    11
 73
     7
 74
     0
 42
0.0000000001
 43
0.00000001
 40
0.0
 40
0.0
 40
0.0
 40
0.0
 40
0.25
 40
0.5
 40
0.75
 40
1.0
 40
1.0
 40
1.0
 40
1.0
 10
33.308875
 20
-50.45827083333333
 30
0.0
 10
35.60979166666667
 20
-50.50491666666667
 30
0.0
 10
36.76023958333333
 20
-50.58264583333333
 30
0.0
 10
39.06114583333333
 20
-50.66038541666666
 30
0.0
 10
40.21159375
 20
-50.75365625
 30
0.0
 10
40.33596875
 20
-50.77854166666666
 30
0.0
 10
40.46034375
 20
-50.8469375
 30
0.0
  0
LINE
  5
289
330
4AB
100
AcDbEntity
  8
_0
  6
Continuous
 62
     7
370
    13
100
AcDbLine
 10
32.683885
 20
-50.846937
 30
0.0
 11
41.261969
 21
-50.846937
 31
0.0
  0
LINE
  5
28A
330
4AB
100
AcDbEntity
  8
_0
  6
DGN Style 2
 62
     7
370
    13
100
AcDbLine
 10
33.277792
 20
-51.70201
 30
0.0
 11
33.339979
 21
-51.70201
 31
0.0
  0
LINE
  5
28B
330
4AB
100
AcDbEntity
  8
_0
  6
DGN Style 2
 62
     7
370
    13
100
AcDbLine
 10
33.265354
 20
-49.729458
 30
0.0
 11
33.352406
 21
-49.729458
 31
0.0
  0
LINE
  5
28C
330
4AB
100
AcDbEntity
  8
_0
  6
Continuous
 62
     7
370
    13
100
AcDbLine
 10
33.179552
 20
-49.32525
 30
0.0
 11
33.438208
 21
-49.32525
 31
0.0
  0
LINE
  5
28E
330
4AB
100
AcDbEntity
  8
TEXT
  6
Continuous
 62
     7
370
    13
100
AcDbLine
 10
33.56774
 20
-53.349969
 30
0.0
 11
33.619125
 21
-53.349969
 31
0.0
  0
LINE
  5
28F
330
4AB
100
AcDbEntity
  8
TEXT
  6
Continuous
 62
     7
370
    13
100
AcDbLine
 10
33.468625
 20
-53.553833
 30
0.0
 11
33.56774
 21
-53.349969
 31
0.0
  0
SOLID
  5
290
330
4AB
100
AcDbEntity
  8
TEXT
  6
Continuous
 62
     7
370
    13
100
AcDbTrace
 10
-33.47575
 20
-53.557292
 30
0.0
 11
-33.46151
 21
-53.550365
 31
0.0
 12
-33.447854
 22
-53.596552
 32
0.0
 13
-33.447854
 23
-53.596552
 33
0.0
210
0.0
220
0.0
230
-1.0
  0
SOLID
  5
293
330
4AB
100
AcDbEntity
  8
DIM
  6
Continuous
 62
     7
370
    13
100
AcDbTrace
 10
33.552563
 20
-53.155833
 30
0.0
 11
33.552563
 21
-53.14
 31
0.0
 12
33.505063
 22
-53.147917
 32
0.0
 13
33.505063
 23
-53.147917
 33
0.0
  0
SOLID
  5
294
330
4AB
100
AcDbEntity
  8
DIM
  6
Continuous
 62
     7
370
    13
100
AcDbTrace
 10
33.386302
 20
-53.155833
 30
0.0
 11
33.386302
 21
-53.14
 31
0.0
 12
33.433802
 22
-53.147917
 32
0.0
 13
33.433802
 23
-53.147917
 33
0.0
  0
LINE
  5
295
330
4AB
100
AcDbEntity
  8
DIM
  6
Continuous
 62
     7
370
    13
100
AcDbLine
 10
33.552563
 20
-53.147917
 30
0.0
 11
33.600062
 21
-53.147917
 31
0.0
  0
LINE
  5
296
330
4AB
100
AcDbEntity
  8
DIM
  6
Continuous
 62
     7
370
    13
100
AcDbLine
 10
33.386302
 20
-53.147917
 30
0.0
 11
33.338792
 21
-53.147917
 31
0.0
  0
LINE
  5
297
330
4AB
100
AcDbEntity
  8
DIM
  6
Continuous
 62
     7
370
    13
100
AcDbLine
 10
33.433802
 20
-53.508396
 30
0.0
 11
33.433802
 21
-53.100406
 31
0.0
  0
LINE
  5
298
330
4AB
100
AcDbEntity
  8
DIM
  6
Continuous
 62
     7
370
    13
100
AcDbLine
 10
33.505063
 20
-53.263927
 30
0.0
 11
33.505063
 21
-53.100406
 31
0.0
  0
SOLID
  5
29A
330
4AB
100
AcDbEntity
  8
DIM
  6
Continuous
 62
     7
370
    13
100
AcDbTrace
 10
33.267542
 20
-54.118167
 30
0.0
 11
33.267542
 21
-54.102333
 31
0.0
 12
33.220031
 22
-54.11025
 32
0.0
 13
33.220031
 23
-54.11025
 33
0.0
  0
SOLID
  5
29B
330
4AB
100
AcDbEntity
  8
DIM
  6
Continuous
 62
     7
370
    13
100
AcDbTrace
 10
33.457552
 20
-54.118167
 30
0.0
 11
33.457552
 21
-54.102333
 31
0.0
 12
33.505063
 22
-54.11025
 32
0.0
 13
33.505063
 23
-54.11025
 33
0.0
  0
LINE
  5
29C
330
4AB
100
AcDbEntity
  8
DIM
  6
Continuous
 62
     7
370
    13
100
AcDbLine
 10
33.457552
 20
-54.11025
 30
0.0
 11
33.267542
 21
-54.11025
 31
0.0
  0
LINE
  5
29D
330
4AB
100
AcDbEntity
  8
DIM
  6
Continuous
 62
     7
370
    13
100
AcDbLine
 10
33.220031
 20
-53.976479
 30
0.0
 11
33.220031
 21
-54.15775
 31
0.0
  0
LINE
  5
29E
330
4AB
100
AcDbEntity
  8
DIM
  6
Continuous
 62
     7
370
    13
100
AcDbLine
 10
33.505063
 20
-53.976479
 30
0.0
 11
33.505063
 21
-54.15775
 31
0.0
  0
SOLID
  5
2A0
330
4AB
100
AcDbEntity
  8
DIM
  6
Continuous
 62
     7
370
    13
100
AcDbTrace
 10
33.702396
 20
-53.881479
 30
0.0
 11
33.686563
 21
-53.881479
 31
0.0
 12
33.694479
 22
-53.928979
 32
0.0
 13
33.694479
 23
-53.928979
 33
0.0
  0
SOLID
  5
2A1
330
4AB
100
AcDbEntity
  8
DIM
  6
Continuous
 62
     7
370
    13
100
AcDbTrace
 10
33.702396
 20
-53.667708
 30
0.0
 11
33.686563
 21
-53.667708
 31
0.0
 12
33.694479
 22
-53.620208
 32
0.0
 13
33.694479
 23
-53.620208
 33
0.0
  0
LINE
  5
2A2
330
4AB
100
AcDbEntity
  8
DIM
  6
Continuous
 62
     7
370
    13
100
AcDbLine
 10
33.694479
 20
-53.667708
 30
0.0
 11
33.694479
 21
-53.881479
 31
0.0
  0
LINE
  5
2A3
330
4AB
100
AcDbEntity
  8
DIM
  6
Continuous
 62
     7
370
    13
100
AcDbLine
 10
33.552563
 20
-53.928979
 30
0.0
 11
33.74199
 21
-53.928979
 31
0.0
  0
LINE
  5
2A4
330
4AB
100
AcDbEntity
  8
DIM
  6
Continuous
 62
     7
370
    13
100
AcDbLine
 10
33.519312
 20
-53.620208
 30
0.0
 11
33.74199
 21
-53.620208
 31
0.0
  0
SOLID
  5
2A6
330
4AB
100
AcDbEntity
  8
DIM
  6
Continuous
 62
     7
370
    13
100
AcDbTrace
 10
33.05501
 20
-53.881479
 30
0.0
 11
33.039177
 21
-53.881479
 31
0.0
 12
33.047094
 22
-53.928979
 32
0.0
 13
33.047094
 23
-53.928979
 33
0.0
  0
SOLID
  5
2A7
330
4AB
100
AcDbEntity
  8
DIM
  6
Continuous
 62
     7
370
    13
100
AcDbTrace
 10
33.05501
 20
-53.358937
 30
0.0
 11
33.039177
 21
-53.358937
 31
0.0
 12
33.047094
 22
-53.311427
 32
0.0
 13
33.047094
 23
-53.311427
 33
0.0
  0
LINE
  5
2A8
330
4AB
100
AcDbEntity
  8
DIM
  6
Continuous
 62
     7
370
    13
100
AcDbLine
 10
33.047094
 20
-53.358937
 30
0.0
 11
33.047094
 21
-53.881479
 31
0.0
  0
LINE
  5
2A9
330
4AB
100
AcDbEntity
  8
DIM
  6
Continuous
 62
     7
370
    13
100
AcDbLine
 10
33.172531
 20
-53.928979
 30
0.0
 11
32.999583
 21
-53.928979
 31
0.0
  0
LINE
  5
2AA
330
4AB
100
AcDbEntity
  8
DIM
  6
Continuous
 62
     7
370
    13
100
AcDbLine
 10
33.172531
 20
-53.311427
 30
0.0
 11
32.999583
 21
-53.311427
 31
0.0
  0
LINE
  5
2AB
330
4AB
100
AcDbEntity
  8
_0
  6
Continuous
 62
     7
370
    13
100
AcDbLine
 10
33.471802
 20
-53.620208
 30
0.0
 11
33.498115
 21
-53.620208
 31
0.0
  0
LINE
  5
2AC
330
4AB
100
AcDbEntity
  8
_0
  6
Continuous
 62
     7
370
    13
100
AcDbLine
 10
33.433802
 20
-53.582208
 30
0.0
 11
33.433802
 21
-53.555896
 31
0.0
  0
CIRCLE
  5
2AE
330
4AB
100
AcDbEntity
  8
_0
  6
Continuous
 62
     7
370
    13
100
AcDbCircle
 10
33.4338
 20
-53.620206
 30
0.0
 40
0.0237519
  0
LINE
  5
2AF
330
4AB
100
AcDbEntity
  8
_0
  6
Continuous
 62
     7
370
    13
100
AcDbLine
 10
33.433802
 20
-53.684521
 30
0.0
 11
33.433802
 21
-53.658208
 31
0.0
  0
LINE
  5
2B0
330
4AB
100
AcDbEntity
  8
_0
  6
Continuous
 62
     7
370
    13
100
AcDbLine
 10
33.36949
 20
-53.620208
 30
0.0
 11
33.395802
 21
-53.620208
 31
0.0
  0
LINE
  5
2B1
330
4AB
100
AcDbEntity
  8
_0
  6
Continuous
 62
     7
370
    13
100
AcDbLine
 10
33.220031
 20
-53.311427
 30
0.0
 11
33.505063
 21
-53.311427
 31
0.0
  0
LINE
  5
2B2
330
4AB
100
AcDbEntity
  8
_0
  6
Continuous
 62
     7
370
    13
100
AcDbLine
 10
33.220031
 20
-53.928979
 30
0.0
 11
33.220031
 21
-53.311427
 31
0.0
  0
LINE
  5
2B3
330
4AB
100
AcDbEntity
  8
_0
  6
Continuous
 62
     7
370
    13
100
AcDbLine
 10
33.220031
 20
-53.928979
 30
0.0
 11
33.505063
 21
-53.928979
 31
0.0
  0
LINE
  5
2B4
330
4AB
100
AcDbEntity
  8
_0
  6
Continuous
 62
     7
370
    13
100
AcDbLine
 10
33.505063
 20
-53.928979
 30
0.0
 11
33.505063
 21
-53.311427
 31
0.0
  0
LINE
  5
2B7
330
4AB
100
AcDbEntity
  8
DIM
  6
Continuous
 62
     7
370
    13
100
AcDbLine
 10
34.738604
 20
-53.177042
 30
0.0
 11
34.738604
 21
-53.254365
 31
0.0
  0
SOLID
  5
2B8
330
4AB
100
AcDbEntity
  8
DIM
  6
Continuous
 62
     7
370
    13
100
AcDbTrace
 10
34.746521
 20
-53.254365
 30
0.0
 11
34.730688
 21
-53.254365
 31
0.0
 12
34.738604
 22
-53.301875
 32
0.0
 13
34.738604
 23
-53.301875
 33
0.0
  0
LINE
  5
2B9
330
4AB
100
AcDbEntity
  8
DIM
  6
Continuous
 62
     7
370
    13
100
AcDbLine
 10
34.876844
 20
-53.301875
 30
0.0
 11
34.724573
 21
-53.301875
 31
0.0
  0
SOLID
  5
2BB
330
4AB
100
AcDbEntity
  8
DIM
  6
Continuous
 62
     7
370
    13
100
AcDbTrace
 10
34.746521
 20
-53.568896
 30
0.0
 11
34.730688
 21
-53.568896
 31
0.0
 12
34.738604
 22
-53.616396
 32
0.0
 13
34.738604
 23
-53.616396
 33
0.0
  0
SOLID
  5
2BC
330
4AB
100
AcDbEntity
  8
DIM
  6
Continuous
 62
     7
370
    13
100
AcDbTrace
 10
34.746521
 20
-53.387021
 30
0.0
 11
34.730688
 21
-53.387021
 31
0.0
 12
34.738604
 22
-53.33951
 32
0.0
 13
34.738604
 23
-53.33951
 33
0.0
  0
LINE
  5
2BD
330
4AB
100
AcDbEntity
  8
DIM
  6
Continuous
 62
     7
370
    13
100
AcDbLine
 10
34.738604
 20
-53.387021
 30
0.0
 11
34.738604
 21
-53.568896
 31
0.0
  0
LINE
  5
2BE
330
4AB
100
AcDbEntity
  8
DIM
  6
Continuous
 62
     7
370
    13
100
AcDbLine
 10
34.876844
 20
-53.616396
 30
0.0
 11
34.724573
 21
-53.616396
 31
0.0
  0
LINE
  5
2BF
330
4AB
100
AcDbEntity
  8
DIM
  6
Continuous
 62
     7
370
    13
100
AcDbLine
 10
34.803219
 20
-53.33951
 30
0.0
 11
34.724573
 21
-53.33951
 31
0.0
  0
SOLID
  5
2C0
330
4AB
100
AcDbEntity
  8
DIM
  6
Continuous
 62
     7
370
    13
100
AcDbTrace
 10
35.471052
 20
-53.508552
 30
0.0
 11
35.455208
 21
-53.508552
 31
0.0
 12
35.463135
 22
-53.556052
 32
0.0
 13
35.463135
 23
-53.556052
 33
0.0
  0
SOLID
  5
2C1
330
4AB
100
AcDbEntity
  8
DIM
  6
Continuous
 62
     7
370
    13
100
AcDbTrace
 10
35.471052
 20
-53.417458
 30
0.0
 11
35.455208
 21
-53.417458
 31
0.0
 12
35.463135
 22
-53.369958
 32
0.0
 13
35.463135
 23
-53.369958
 33
0.0
  0
LINE
  5
2C2
330
4AB
100
AcDbEntity
  8
DIM
  6
Continuous
 62
     7
370
    13
100
AcDbLine
 10
35.463135
 20
-53.369958
 30
0.0
 11
35.463135
 21
-53.556052
 31
0.0
  0
LINE
  5
2C3
330
4AB
100
AcDbEntity
  8
DIM
  6
Continuous
 62
     7
370
    13
100
AcDbLine
 10
35.360531
 20
-53.556052
 30
0.0
 11
35.486896
 21
-53.556052
 31
0.0
  0
LINE
  5
2C4
330
4AB
100
AcDbEntity
  8
DIM
  6
Continuous
 62
     7
370
    13
100
AcDbLine
 10
35.360979
 20
-53.369958
 30
0.0
 11
35.486896
 21
-53.369958
 31
0.0
  0
LINE
  5
2C5
330
4AB
100
AcDbEntity
  8
_0
  6
DGN Style 7
 62
     7
370
    13
100
AcDbLine
 10
34.840625
 20
-53.356781
 30
0.0
 11
34.840625
 21
-53.320594
 31
0.0
  0
LINE
  5
2C6
330
4AB
100
AcDbEntity
  8
_0
  6
DGN Style 7
 62
     7
370
    13
100
AcDbLine
 10
34.822542
 20
-53.338687
 30
0.0
 11
34.858719
 21
-53.338687
 31
0.0
  0
LINE
  5
2C7
330
4AB
100
AcDbEntity
  8
_0
  6
DGN Style 7
 62
     7
370
    13
100
AcDbLine
 10
35.015802
 20
-53.389198
 30
0.0
 11
35.015802
 21
-53.35301
 31
0.0
  0
LINE
  5
2C8
330
4AB
100
AcDbEntity
  8
_0
  6
DGN Style 7
 62
     7
370
    13
100
AcDbLine
 10
34.997708
 20
-53.371104
 30
0.0
 11
35.033896
 21
-53.371104
 31
0.0
  0
LINE
  5
2C9
330
4AB
100
AcDbEntity
  8
_0
  6
DGN Style 7
 62
     7
370
    13
100
AcDbLine
 10
34.915448
 20
-53.634135
 30
0.0
 11
34.915448
 21
-53.597958
 31
0.0
  0
LINE
  5
2CA
330
4AB
100
AcDbEntity
  8
_0
  6
DGN Style 7
 62
     7
370
    13
100
AcDbLine
 10
34.897354
 20
-53.616052
 30
0.0
 11
34.933531
 21
-53.616052
 31
0.0
  0
LINE
  5
2CB
330
4AB
100
AcDbEntity
  8
_0
  6
DGN Style 7
 62
     7
370
    13
100
AcDbLine
 10
35.299594
 20
-53.55599
 30
0.0
 11
35.335781
 21
-53.55599
 31
0.0
  0
LINE
  5
2CC
330
4AB
100
AcDbEntity
  8
_0
  6
DGN Style 7
 62
     7
370
    13
100
AcDbLine
 10
35.317687
 20
-53.574083
 30
0.0
 11
35.317687
 21
-53.537896
 31
0.0
  0
LINE
  5
2CD
330
4AB
100
AcDbEntity
  8
_0
  6
DGN Style 7
 62
     7
370
    13
100
AcDbLine
 10
34.985615
 20
-53.36551
 30
0.0
 11
34.828948
 21
-53.336531
 31
0.0
  0
LINE
  5
2CE
330
4AB
100
AcDbEntity
  8
_0
  6
DGN Style 7
 62
     7
370
    13
100
AcDbLine
 10
34.810448
 20
-53.333104
 30
0.0
 11
34.775927
 21
-53.326719
 31
0.0
  0
LINE
  5
2CF
330
4AB
100
AcDbEntity
  8
_0
  6
DGN Style 7
 62
     7
370
    13
100
AcDbLine
 10
35.084927
 20
-53.383896
 30
0.0
 11
35.004125
 21
-53.368938
 31
0.0
  0
CIRCLE
  5
2D0
330
4AB
100
AcDbEntity
  8
_0
  6
Continuous
 62
     7
370
    13
100
AcDbCircle
 10
34.915446
 20
-53.616046
 30
0.0
 40
0.01187595
  0
CIRCLE
  5
2D1
330
4AB
100
AcDbEntity
  8
_0
  6
Continuous
 62
     7
370
    13
100
AcDbCircle
 10
35.015802
 20
-53.371102
 30
0.0
 40
0.01187595
  0
CIRCLE
  5
2D2
330
4AB
100
AcDbEntity
  8
_0
  6
Continuous
 62
     7
370
    13
100
AcDbCircle
 10
34.84063
 20
-53.338689
 30
0.0
 40
0.01187595
  0
CIRCLE
  5
2D3
330
4AB
100
AcDbEntity
  8
_0
  6
Continuous
 62
     7
370
    13
100
AcDbCircle
 10
35.317685
 20
-53.55599
 30
0.0
 40
0.01187595
  0
LINE
  5
2D4
330
4AB
100
AcDbEntity
  8
_0
  6
Continuous
 62
     7
370
    13
100
AcDbLine
 10
34.583375
 20
-53.266708
 30
0.0
 11
34.583375
 21
-54.191115
 31
0.0
  0
LINE
  5
2D5
330
4AB
100
AcDbEntity
  8
_0
  6
Continuous
 62
     7
370
    13
100
AcDbLine
 10
34.653687
 20
-53.268198
 30
0.0
 11
34.653687
 21
-54.187635
 31
0.0
  0
LINE
  5
2D6
330
4AB
100
AcDbEntity
  8
_0
  6
Continuous
 62
     7
370
    13
100
AcDbLine
 10
34.938708
 20
-53.302625
 30
0.0
 11
34.938708
 21
-54.203125
 31
0.0
  0
LINE
  5
2D7
330
4AB
100
AcDbEntity
  8
_0
  6
Continuous
 62
     7
370
    13
100
AcDbLine
 10
34.819948
 20
-53.302625
 30
0.0
 11
34.819948
 21
-54.203125
 31
0.0
  0
LINE
  5
2D8
330
4AB
100
AcDbEntity
  8
_0
  6
Continuous
 62
     7
370
    13
100
AcDbLine
 10
34.810448
 20
-53.302625
 30
0.0
 11
34.810448
 21
-54.201646
 31
0.0
  0
LINE
  5
2D9
330
4AB
100
AcDbEntity
  8
_0
  6
Continuous
 62
     7
370
    13
100
AcDbLine
 10
34.592875
 20
-53.268198
 30
0.0
 11
34.592875
 21
-54.192594
 31
0.0
  0
LINE
  5
2DA
330
4AB
100
AcDbEntity
  8
_0
  6
Continuous
 62
     7
370
    13
100
AcDbLine
 10
34.819948
 20
-53.302625
 30
0.0
 11
34.938708
 21
-53.302625
 31
0.0
  0
LINE
  5
2DB
330
4AB
100
AcDbEntity
  8
_0
  6
Continuous
 62
     7
370
    13
100
AcDbLine
 10
34.65226
 20
-54.187417
 30
0.0
 11
34.810448
 21
-54.192396
 31
0.0
  0
LINE
  5
2DC
330
4AB
100
AcDbEntity
  8
_0
  6
Continuous
 62
     7
370
    13
100
AcDbLine
 10
34.819948
 20
-54.203125
 30
0.0
 11
34.938708
 21
-54.203125
 31
0.0
  0
LINE
  5
2DD
330
4AB
100
AcDbEntity
  8
_0
  6
Continuous
 62
     7
370
    13
100
AcDbLine
 10
34.810448
 20
-54.201646
 30
0.0
 11
34.819948
 21
-54.203125
 31
0.0
  0
LINE
  5
2DE
330
4AB
100
AcDbEntity
  8
_0
  6
Continuous
 62
     7
370
    13
100
AcDbLine
 10
34.583375
 20
-54.191115
 30
0.0
 11
34.592875
 21
-54.192594
 31
0.0
  0
LINE
  5
2DF
330
4AB
100
AcDbEntity
  8
_0
  6
Continuous
 62
     7
370
    13
100
AcDbLine
 10
34.592875
 20
-54.192594
 30
0.0
 11
34.65226
 21
-54.187417
 31
0.0
  0
LINE
  5
2E0
330
4AB
100
AcDbEntity
  8
DIM
  6
Continuous
 62
     7
370
    13
100
AcDbLine
 10
34.717813
 20
-53.268198
 30
0.0
 11
34.717813
 21
-53.277792
 31
0.0
  0
LINE
  5
2E1
330
4AB
100
AcDbEntity
  8
_0
  6
Continuous
 62
     7
370
    13
100
AcDbLine
 10
34.592875
 20
-53.268198
 30
0.0
 11
34.717813
 21
-53.268198
 31
0.0
  0
LINE
  5
2E2
330
4AB
100
AcDbEntity
  8
_0
  6
Continuous
 62
     7
370
    13
100
AcDbLine
 10
34.583375
 20
-53.266708
 30
0.0
 11
34.592875
 21
-53.268198
 31
0.0
  0
LINE
  5
2E3
330
4AB
100
AcDbEntity
  8
_0
  6
Continuous
 62
     7
370
    13
100
AcDbLine
 10
34.583375
 20
-53.266708
 30
0.0
 11
34.708312
 21
-53.266708
 31
0.0
  0
LINE
  5
2E4
330
4AB
100
AcDbEntity
  8
_0
  6
Continuous
 62
     7
370
    13
100
AcDbLine
 10
34.894958
 20
-53.302625
 30
0.0
 11
34.670979
 21
-53.268198
 31
0.0
  0
LINE
  5
2E5
330
4AB
100
AcDbEntity
  8
_0
  6
Continuous
 62
     7
370
    13
100
AcDbLine
 10
34.863698
 20
-53.302625
 30
0.0
 11
34.639719
 21
-53.268198
 31
0.0
  0
LINE
  5
2E6
330
4AB
100
AcDbEntity
  8
_0
  6
Continuous
 62
     7
370
    13
100
AcDbLine
 10
34.810448
 20
-53.301146
 30
0.0
 11
34.935385
 21
-53.301146
 31
0.0
  0
LINE
  5
2E7
330
4AB
100
AcDbEntity
  8
_0
  6
Continuous
 62
     7
370
    13
100
AcDbLine
 10
34.810448
 20
-53.301146
 30
0.0
 11
34.819948
 21
-53.302625
 31
0.0
  0
LINE
  5
2E8
330
4AB
100
AcDbEntity
  8
_0
  6
Continuous
 62
     7
370
    13
100
AcDbLine
 10
34.810448
 20
-53.301146
 30
0.0
 11
34.810448
 21
-54.200688
 31
0.0
  0
LINE
  5
2E9
330
4AB
100
AcDbEntity
  8
_0
  6
Continuous
 62
     7
370
    13
100
AcDbLine
 10
35.212688
 20
-53.368469
 30
0.0
 11
35.212688
 21
-53.743615
 31
0.0
  0
LINE
  5
2EA
330
4AB
100
AcDbEntity
  8
_0
  6
Continuous
 62
     7
370
    13
100
AcDbLine
 10
35.212688
 20
-53.368469
 30
0.0
 11
35.222187
 21
-53.369958
 31
0.0
  0
LINE
  5
2EB
330
4AB
100
AcDbEntity
  8
_0
  6
Continuous
 62
     7
370
    13
100
AcDbLine
 10
35.212688
 20
-53.368469
 30
0.0
 11
35.337625
 21
-53.368469
 31
0.0
  0
LINE
  5
2EC
330
4AB
100
AcDbEntity
  8
_0
  6
Continuous
 62
     7
370
    13
100
AcDbLine
 10
35.265937
 20
-53.369958
 30
0.0
 11
35.041958
 21
-53.335521
 31
0.0
  0
LINE
  5
2ED
330
4AB
100
AcDbEntity
  8
_0
  6
Continuous
 62
     7
370
    13
100
AcDbLine
 10
35.297198
 20
-53.369958
 30
0.0
 11
35.073219
 21
-53.335521
 31
0.0
  0
LINE
  5
2EE
330
4AB
100
AcDbEntity
  8
_0
  6
Continuous
 62
     7
370
    13
100
AcDbLine
 10
34.985615
 20
-53.334042
 30
0.0
 11
35.110552
 21
-53.334042
 31
0.0
  0
LINE
  5
2EF
330
4AB
100
AcDbEntity
  8
_0
  6
Continuous
 62
     7
370
    13
100
AcDbLine
 10
34.985615
 20
-53.334042
 30
0.0
 11
34.995125
 21
-53.335521
 31
0.0
  0
LINE
  5
2F0
330
4AB
100
AcDbEntity
  8
_0
  6
Continuous
 62
     7
370
    13
100
AcDbLine
 10
34.995125
 20
-53.335521
 30
0.0
 11
35.120052
 21
-53.335521
 31
0.0
  0
LINE
  5
2F1
330
4AB
100
AcDbEntity
  8
_0
  6
Continuous
 62
     7
370
    13
100
AcDbLine
 10
35.120052
 20
-53.335521
 30
0.0
 11
35.120052
 21
-53.345125
 31
0.0
  0
LINE
  5
2F2
330
4AB
100
AcDbEntity
  8
_0
  6
Continuous
 62
     7
370
    13
100
AcDbLine
 10
34.995125
 20
-53.710656
 30
0.0
 11
35.0545
 21
-53.710656
 31
0.0
  0
LINE
  5
2F3
330
4AB
100
AcDbEntity
  8
_0
  6
Continuous
 62
     7
370
    13
100
AcDbLine
 10
34.985615
 20
-53.709177
 30
0.0
 11
34.995125
 21
-53.710656
 31
0.0
  0
LINE
  5
2F4
330
4AB
100
AcDbEntity
  8
_0
  6
Continuous
 62
     7
370
    13
100
AcDbLine
 10
35.212688
 20
-53.744573
 30
0.0
 11
35.222187
 21
-53.746063
 31
0.0
  0
LINE
  5
2F5
330
4AB
100
AcDbEntity
  8
_0
  6
Continuous
 62
     7
370
    13
100
AcDbLine
 10
35.222187
 20
-53.746063
 30
0.0
 11
35.340948
 21
-53.746063
 31
0.0
  0
LINE
  5
2F6
330
4AB
100
AcDbEntity
  8
_0
  6
Continuous
 62
     7
370
    13
100
AcDbLine
 10
35.0545
 20
-53.710656
 30
0.0
 11
35.212688
 21
-53.735323
 31
0.0
  0
LINE
  5
2F7
330
4AB
100
AcDbEntity
  8
_0
  6
Continuous
 62
     7
370
    13
100
AcDbLine
 10
35.222187
 20
-53.369958
 30
0.0
 11
35.340948
 21
-53.369958
 31
0.0
  0
LINE
  5
2F8
330
4AB
100
AcDbEntity
  8
_0
  6
Continuous
 62
     7
370
    13
100
AcDbLine
 10
34.995125
 20
-53.335521
 30
0.0
 11
34.995125
 21
-53.710656
 31
0.0
  0
LINE
  5
2F9
330
4AB
100
AcDbEntity
  8
_0
  6
Continuous
 62
     7
370
    13
100
AcDbLine
 10
35.212688
 20
-53.369958
 30
0.0
 11
35.212688
 21
-53.744573
 31
0.0
  0
LINE
  5
2FA
330
4AB
100
AcDbEntity
  8
_0
  6
Continuous
 62
     7
370
    13
100
AcDbLine
 10
35.222187
 20
-53.369958
 30
0.0
 11
35.222187
 21
-53.746063
 31
0.0
  0
LINE
  5
2FB
330
4AB
100
AcDbEntity
  8
_0
  6
Continuous
 62
     7
370
    13
100
AcDbLine
 10
35.340948
 20
-53.369958
 30
0.0
 11
35.340948
 21
-53.746063
 31
0.0
  0
LINE
  5
2FC
330
4AB
100
AcDbEntity
  8
_0
  6
Continuous
 62
     7
370
    13
100
AcDbLine
 10
35.055927
 20
-53.335521
 30
0.0
 11
35.055927
 21
-53.710885
 31
0.0
  0
LINE
  5
2FD
330
4AB
100
AcDbEntity
  8
_0
  6
Continuous
 62
     7
370
    13
100
AcDbLine
 10
34.985615
 20
-53.334042
 30
0.0
 11
34.985615
 21
-53.709177
 31
0.0
  0
SOLID
  5
300
330
4AB
100
AcDbEntity
  8
TEXT
  6
Continuous
 62
     7
370
    13
100
AcDbTrace
 10
-36.434156
 20
-53.749917
 30
0.0
 11
-36.447448
 21
-53.739854
 31
0.0
 12
-36.410604
 22
-53.705031
 32
0.0
 13
-36.410604
 23
-53.705031
 33
0.0
210
0.0
220
0.0
230
-1.0
  0
LINE
  5
301
330
4AB
100
AcDbEntity
  8
TEXT
  6
Continuous
 62
     7
370
    13
100
AcDbLine
 10
36.440802
 20
-53.744885
 30
0.0
 11
36.493677
 21
-53.814687
 31
0.0
  0
LINE
  5
302
330
4AB
100
AcDbEntity
  8
TEXT
  6
Continuous
 62
     7
370
    13
100
AcDbLine
 10
36.493677
 20
-53.814687
 30
0.0
 11
36.543687
 21
-53.814687
 31
0.0
  0
LWPOLYLINE
  5
304
330
4AB
100
AcDbEntity
  8
_0
  6
Continuous
 62
     7
370
     0
100
AcDbPolyline
 90
       10
 70
   128
 43
0.0
 10
38.27076
 20
-53.816354
 10
38.253406
 20
-53.816354
 10
38.104729
 20
-53.912271
 10
38.104729
 20
-53.95249
 10
38.25974
 20
-54.05249
 10
38.25974
 20
-54.212302
 10
38.104729
 20
-54.312302
 10
38.104729
 20
-54.352521
 10
38.253406
 20
-54.448437
 10
38.27076
 20
-54.448437
  0
LWPOLYLINE
  5
305
330
4AB
100
AcDbEntity
  8
_0
  6
Continuous
 62
     7
370
     0
100
AcDbPolyline
 90
       10
 70
   128
 43
0.0
 10
38.27076
 20
-53.798385
 10
38.248115
 20
-53.798385
 10
38.08676
 20
-53.902479
 10
38.08676
 20
-53.962281
 10
38.241771
 20
-54.062281
 10
38.241771
 20
-54.2025
 10
38.08676
 20
-54.30251
 10
38.08676
 20
-54.362313
 10
38.248115
 20
-54.466406
 10
38.27076
 20
-54.466406
  0
SOLID
  5
309
330
4AB
100
AcDbEntity
  8
TEXT
  6
Continuous
 62
     7
370
    13
100
AcDbTrace
 10
-35.693208
 20
-50.903156
 30
0.0
 11
-35.706792
 21
-50.8875
 31
0.0
 12
-35.65301
 22
-50.854594
 32
0.0
 13
-35.65301
 23
-50.854594
 33
0.0
210
0.0
220
0.0
230
-1.0
  0
LINE
  5
30A
330
4AB
100
AcDbEntity
  8
TEXT
  6
Continuous
 62
     7
370
    13
100
AcDbLine
 10
35.7
 20
-50.895323
 30
0.0
 11
35.774219
 21
-50.959667
 31
0.0
  0
LINE
  5
30B
330
4AB
100
AcDbEntity
  8
_0
  6
Continuous
 62
     7
370
    13
100
AcDbLine
 10
33.363583
 20
-49.511812
 30
0.0
 11
33.363583
 21
-49.32525
 31
0.0
  0
LINE
  5
30C
330
4AB
100
AcDbEntity
  8
_0
  6
Continuous
 62
     7
370
    13
100
AcDbLine
 10
33.425771
 20
-49.511812
 30
0.0
 11
33.425771
 21
-49.32525
 31
0.0
  0
LINE
  5
30D
330
4AB
100
AcDbEntity
  8
_0
  6
Continuous
 62
     7
370
    13
100
AcDbLine
 10
33.438208
 20
-49.511812
 30
0.0
 11
33.438208
 21
-49.32525
 31
0.0
  0
LINE
  5
30E
330
4AB
100
AcDbEntity
  8
_0
  6
Continuous
 62
     7
370
    13
100
AcDbLine
 10
33.438208
 20
-49.511812
 30
0.0
 11
33.352406
 21
-49.511812
 31
0.0
  0
LINE
  5
30F
330
4AB
100
AcDbEntity
  8
_0
  6
Continuous
 62
     7
370
    13
100
AcDbLine
 10
34.415802
 20
-49.540937
 30
0.0
 11
34.502865
 21
-49.540937
 31
0.0
  0
LINE
  5
310
330
4AB
100
AcDbEntity
  8
_0
  6
Continuous
 62
     7
370
    13
100
AcDbLine
 10
34.57749
 20
-49.634812
 30
0.0
 11
34.57749
 21
-49.32525
 31
0.0
  0
LINE
  5
311
330
4AB
100
AcDbEntity
  8
_0
  6
Continuous
 62
     7
370
    13
100
AcDbLine
 10
34.589927
 20
-49.634812
 30
0.0
 11
34.589927
 21
-49.32525
 31
0.0
  0
LINE
  5
312
330
4AB
100
AcDbEntity
  8
_0
  6
Continuous
 62
     7
370
    13
100
AcDbLine
 10
34.515302
 20
-49.634812
 30
0.0
 11
34.515302
 21
-49.32525
 31
0.0
  0
LINE
  5
313
330
4AB
100
AcDbEntity
  8
_0
  6
Continuous
 62
     7
370
    13
100
AcDbLine
 10
34.67699
 20
-49.540937
 30
0.0
 11
34.589927
 21
-49.540937
 31
0.0
  0
LINE
  5
314
330
4AB
100
AcDbEntity
  8
_0
  6
Continuous
 62
     7
370
    13
100
AcDbLine
 10
34.67699
 20
-49.540937
 30
0.0
 11
34.67699
 21
-49.537615
 31
0.0
  0
LINE
  5
315
330
4AB
100
AcDbEntity
  8
_0
  6
Continuous
 62
     7
370
    13
100
AcDbLine
 10
34.664552
 20
-49.540937
 30
0.0
 11
34.664552
 21
-49.491198
 31
0.0
  0
LINE
  5
316
330
4AB
100
AcDbEntity
  8
_0
  6
Continuous
 62
     7
370
    13
100
AcDbLine
 10
34.602365
 20
-49.540937
 30
0.0
 11
34.602365
 21
-49.32525
 31
0.0
  0
LINE
  5
317
330
4AB
100
AcDbEntity
  8
_0
  6
Continuous
 62
     7
370
    13
100
AcDbLine
 10
34.67699
 20
-49.537615
 30
0.0
 11
34.620083
 21
-49.32525
 31
0.0
  0
LINE
  5
318
330
4AB
100
AcDbEntity
  8
_0
  6
Continuous
 62
     7
370
    13
100
AcDbLine
 10
34.689
 20
-49.534396
 30
0.0
 11
34.632094
 21
-49.322031
 31
0.0
  0
LINE
  5
319
330
4AB
100
AcDbEntity
  8
_0
  6
Continuous
 62
     7
370
    13
100
AcDbLine
 10
34.620083
 20
-49.32525
 30
0.0
 11
34.632094
 21
-49.322031
 31
0.0
  0
LINE
  5
31A
330
4AB
100
AcDbEntity
  8
_0
  6
Continuous
 62
     7
370
    13
100
AcDbLine
 10
34.67699
 20
-49.537615
 30
0.0
 11
34.689
 21
-49.534396
 31
0.0
  0
LINE
  5
31B
330
4AB
100
AcDbEntity
  8
DIM
  6
Continuous
 62
     7
370
    13
100
AcDbLine
 10
34.801396
 20
-49.70199
 30
0.0
 11
34.801396
 21
-49.739302
 31
0.0
  0
LINE
  5
31C
330
4AB
100
AcDbEntity
  8
DIM
  6
Continuous
 62
     7
370
    13
100
AcDbLine
 10
34.746771
 20
-49.701479
 30
0.0
 11
34.873156
 21
-49.701479
 31
0.0
  0
LINE
  5
31D
330
4AB
100
AcDbEntity
  8
DIM
  6
Continuous
 62
     7
370
    13
100
AcDbLine
 10
34.801396
 20
-49.739302
 30
0.0
 11
34.838708
 21
-49.70199
 31
0.0
  0
LINE
  5
31E
330
4AB
100
AcDbEntity
  8
DIM
  6
Continuous
 62
     7
370
    13
100
AcDbLine
 10
34.801396
 20
-49.667823
 30
0.0
 11
34.838708
 21
-49.705135
 31
0.0
  0
LINE
  5
31F
330
4AB
100
AcDbEntity
  8
DIM
  6
Continuous
 62
     7
370
    13
100
AcDbLine
 10
34.801396
 20
-49.705135
 30
0.0
 11
34.801396
 21
-49.667823
 31
0.0
  0
LINE
  5
321
330
4AB
100
AcDbEntity
  8
_0
  6
Continuous
 62
     7
370
    13
100
AcDbLine
 10
35.653312
 20
-49.540937
 30
0.0
 11
35.56626
 21
-49.540937
 31
0.0
  0
LINE
  5
322
330
4AB
100
AcDbEntity
  8
_0
  6
DGN Style 2
 62
     7
370
    13
100
AcDbLine
 10
35.653312
 20
-49.729458
 30
0.0
 11
35.740958
 21
-49.729458
 31
0.0
  0
LINE
  5
323
330
4AB
100
AcDbEntity
  8
_0
  6
Continuous
 62
     7
370
    13
100
AcDbLine
 10
35.665469
 20
-49.634812
 30
0.0
 11
35.665469
 21
-49.32525
 31
0.0
  0
LINE
  5
324
330
4AB
100
AcDbEntity
  8
_0
  6
Continuous
 62
     7
370
    13
100
AcDbLine
 10
35.727656
 20
-49.634812
 30
0.0
 11
35.727656
 21
-49.32525
 31
0.0
  0
LINE
  5
325
330
4AB
100
AcDbEntity
  8
_0
  6
Continuous
 62
     7
370
    13
100
AcDbLine
 10
35.740094
 20
-49.634812
 30
0.0
 11
35.740094
 21
-49.32525
 31
0.0
  0
LINE
  5
326
330
4AB
100
AcDbEntity
  8
_0
  6
Continuous
 62
     7
370
    13
100
AcDbLine
 10
35.653312
 20
-49.32525
 30
0.0
 11
35.740094
 21
-49.32525
 31
0.0
  0
LINE
  5
327
330
4AB
100
AcDbEntity
  8
_0
  6
Continuous
 62
     7
370
    13
100
AcDbLine
 10
35.740094
 20
-49.540937
 30
0.0
 11
35.827156
 21
-49.540937
 31
0.0
  0
LINE
  5
328
330
4AB
100
AcDbEntity
  8
_0
  6
Continuous
 62
     7
370
    13
100
AcDbLine
 10
35.827156
 20
-49.540937
 30
0.0
 11
35.827156
 21
-49.477635
 31
0.0
  0
LINE
  5
329
330
4AB
100
AcDbEntity
  8
_0
  6
Continuous
 62
     7
370
    13
100
AcDbLine
 10
35.814719
 20
-49.540937
 30
0.0
 11
35.814719
 21
-49.455865
 31
0.0
  0
LINE
  5
32A
330
4AB
100
AcDbEntity
  8
_0
  6
Continuous
 62
     7
370
    13
100
AcDbLine
 10
35.752531
 20
-49.540937
 30
0.0
 11
35.752531
 21
-49.347021
 31
0.0
  0
LINE
  5
32B
330
4AB
100
AcDbEntity
  8
_0
  6
Continuous
 62
     7
370
    13
100
AcDbLine
 10
35.740094
 20
-49.32525
 30
0.0
 11
35.827156
 21
-49.477635
 31
0.0
  0
LINE
  5
32C
330
4AB
100
AcDbEntity
  8
_0
  6
Continuous
 62
     7
370
    13
100
AcDbLine
 10
35.750896
 20
-49.319083
 30
0.0
 11
35.837948
 21
-49.471469
 31
0.0
  0
LINE
  5
32D
330
4AB
100
AcDbEntity
  8
_0
  6
Continuous
 62
     7
370
    13
100
AcDbLine
 10
35.837948
 20
-49.471469
 30
0.0
 11
35.827156
 21
-49.477635
 31
0.0
  0
LINE
  5
32E
330
4AB
100
AcDbEntity
  8
_0
  6
Continuous
 62
     7
370
    13
100
AcDbLine
 10
35.740094
 20
-49.32525
 30
0.0
 11
35.750896
 21
-49.319083
 31
0.0
  0
LINE
  5
32F
330
4AB
100
AcDbEntity
  8
DIM
  6
Continuous
 62
     7
370
    13
100
AcDbLine
 10
35.98051
 20
-49.472677
 30
0.0
 11
35.859427
 21
-49.472677
 31
0.0
  0
SOLID
  5
330
330
4AB
100
AcDbEntity
  8
DIM
  6
Continuous
 62
     7
370
    13
100
AcDbTrace
 10
35.951594
 20
-49.41049
 30
0.0
 11
35.930865
 21
-49.41049
 31
0.0
 12
35.941229
 22
-49.472677
 32
0.0
 13
35.941229
 23
-49.472677
 33
0.0
  0
LINE
  5
331
330
4AB
100
AcDbEntity
  8
DIM
  6
Continuous
 62
     7
370
    13
100
AcDbLine
 10
35.941229
 20
-49.388625
 30
0.0
 11
35.941229
 21
-49.41049
 31
0.0
  0
SOLID
  5
332
330
4AB
100
AcDbEntity
  8
DIM
  6
Continuous
 62
     7
370
    13
100
AcDbTrace
 10
35.951594
 20
-49.388625
 30
0.0
 11
35.930865
 21
-49.388625
 31
0.0
 12
35.941229
 22
-49.326437
 32
0.0
 13
35.941229
 23
-49.326437
 33
0.0
  0
LINE
  5
333
330
4AB
100
AcDbEntity
  8
DIM
  6
Continuous
 62
     7
370
    13
100
AcDbLine
 10
35.974823
 20
-49.326437
 30
0.0
 11
35.789625
 21
-49.326437
 31
0.0
  0
LINE
  5
335
330
4AB
100
AcDbEntity
  8
DIM
  6
Continuous
 62
     7
370
    13
100
AcDbLine
 10
37.182448
 20
-49.612177
 30
0.0
 11
36.998375
 21
-49.612177
 31
0.0
  0
LINE
  5
336
330
4AB
100
AcDbEntity
  8
DIM
  6
Continuous
 62
     7
370
    13
100
AcDbLine
 10
37.137542
 20
-49.460073
 30
0.0
 11
37.137542
 21
-49.54999
 31
0.0
  0
SOLID
  5
337
330
4AB
100
AcDbEntity
  8
DIM
  6
Continuous
 62
     7
370
    13
100
AcDbTrace
 10
37.147906
 20
-49.460073
 30
0.0
 11
37.127177
 21
-49.460073
 31
0.0
 12
37.137542
 22
-49.397885
 32
0.0
 13
37.137542
 23
-49.397885
 33
0.0
  0
LINE
  5
338
330
4AB
100
AcDbEntity
  8
DIM
  6
Continuous
 62
     7
370
    13
100
AcDbLine
 10
37.185167
 20
-49.397885
 30
0.0
 11
36.948896
 21
-49.397885
 31
0.0
  0
SOLID
  5
339
330
4AB
100
AcDbEntity
  8
DIM
  6
Continuous
 62
     7
370
    13
100
AcDbTrace
 10
37.147906
 20
-49.54999
 30
0.0
 11
37.127177
 21
-49.54999
 31
0.0
 12
37.137542
 22
-49.612177
 32
0.0
 13
37.137542
 23
-49.612177
 33
0.0
  0
LINE
  5
33A
330
4AB
100
AcDbEntity
  8
_0
  6
Continuous
 62
     7
370
    13
100
AcDbLine
 10
36.803771
 20
-49.611885
 30
0.0
 11
36.716708
 21
-49.611885
 31
0.0
  0
LINE
  5
33B
330
4AB
100
AcDbEntity
  8
_0
  6
Continuous
 62
     7
370
    13
100
AcDbLine
 10
36.89174
 20
-49.634812
 30
0.0
 11
36.89174
 21
-49.418531
 31
0.0
  0
LINE
  5
33C
330
4AB
100
AcDbEntity
  8
_0
  6
Continuous
 62
     7
370
    13
100
AcDbLine
 10
36.879302
 20
-49.634812
 30
0.0
 11
36.879302
 21
-49.406104
 31
0.0
  0
LINE
  5
33D
330
4AB
100
AcDbEntity
  8
_0
  6
Continuous
 62
     7
370
    13
100
AcDbLine
 10
36.817115
 20
-49.634812
 30
0.0
 11
36.817115
 21
-49.405229
 31
0.0
  0
LINE
  5
33E
330
4AB
100
AcDbEntity
  8
_0
  6
DGN Style 2
 62
     7
370
    13
100
AcDbLine
 10
36.803771
 20
-49.729458
 30
0.0
 11
36.89174
 21
-49.729458
 31
0.0
  0
LINE
  5
33F
330
4AB
100
AcDbEntity
  8
_0
  6
Continuous
 62
     7
370
    13
100
AcDbLine
 10
36.817073
 20
-49.405229
 30
0.0
 11
36.878437
 21
-49.405229
 31
0.0
  0
LINE
  5
340
330
4AB
100
AcDbEntity
  8
_0
  6
Continuous
 62
     7
370
    13
100
AcDbLine
 10
36.89174
 20
-49.611885
 30
0.0
 11
36.978802
 21
-49.611885
 31
0.0
  0
LINE
  5
341
330
4AB
100
AcDbEntity
  8
_0
  6
Continuous
 62
     7
370
    13
100
AcDbLine
 10
36.978802
 20
-49.611885
 30
0.0
 11
36.978802
 21
-49.506385
 31
0.0
  0
LINE
  5
342
330
4AB
100
AcDbEntity
  8
_0
  6
Continuous
 62
     7
370
    13
100
AcDbLine
 10
36.966365
 20
-49.611885
 30
0.0
 11
36.966365
 21
-49.493833
 31
0.0
  0
LINE
  5
343
330
4AB
100
AcDbEntity
  8
_0
  6
Continuous
 62
     7
370
    13
100
AcDbLine
 10
36.904177
 20
-49.611885
 30
0.0
 11
36.904177
 21
-49.431073
 31
0.0
  0
LINE
  5
344
330
4AB
100
AcDbEntity
  8
_0
  6
Continuous
 62
     7
370
    13
100
AcDbLine
 10
37.009687
 20
-49.52001
 30
0.0
 11
37.000854
 21
-49.52876
 31
0.0
  0
LINE
  5
345
330
4AB
100
AcDbEntity
  8
_0
  6
Continuous
 62
     7
370
    13
100
AcDbLine
 10
36.886156
 20
-49.395344
 30
0.0
 11
37.009687
 21
-49.52001
 31
0.0
  0
LINE
  5
346
330
4AB
100
AcDbEntity
  8
_0
  6
Continuous
 62
     7
370
    13
100
AcDbLine
 10
36.878437
 20
-49.405229
 30
0.0
 11
37.000854
 21
-49.52876
 31
0.0
  0
LINE
  5
347
330
4AB
100
AcDbEntity
  8
_0
  6
Continuous
 62
     7
370
    13
100
AcDbLine
 10
36.877323
 20
-49.404104
 30
0.0
 11
36.886156
 21
-49.395344
 31
0.0
  0
LINE
  5
349
330
4AB
100
AcDbEntity
  8
_0
  6
DGN Style 2
 62
     7
370
    13
100
AcDbLine
 10
37.953979
 20
-49.729458
 30
0.0
 11
38.041042
 21
-49.729458
 31
0.0
  0
LINE
  5
34A
330
4AB
100
AcDbEntity
  8
_0
  6
Continuous
 62
     7
370
    13
100
AcDbLine
 10
38.028437
 20
-49.634812
 30
0.0
 11
38.028437
 21
-49.406104
 31
0.0
  0
LINE
  5
34B
330
4AB
100
AcDbEntity
  8
_0
  6
Continuous
 62
     7
370
    13
100
AcDbLine
 10
38.040875
 20
-49.634812
 30
0.0
 11
38.040875
 21
-49.405229
 31
0.0
  0
LINE
  5
34C
330
4AB
100
AcDbEntity
  8
_0
  6
Continuous
 62
     7
370
    13
100
AcDbLine
 10
37.96625
 20
-49.634812
 30
0.0
 11
37.96625
 21
-49.405229
 31
0.0
  0
LINE
  5
34D
330
4AB
100
AcDbEntity
  8
_0
  6
Continuous
 62
     7
370
    13
100
AcDbLine
 10
37.954229
 20
-49.405229
 30
0.0
 11
38.040875
 21
-49.405229
 31
0.0
  0
LINE
  5
34E
330
4AB
100
AcDbEntity
  8
_0
  6
Continuous
 62
     7
370
    13
100
AcDbLine
 10
37.952896
 20
-49.611885
 30
0.0
 11
37.865844
 21
-49.611885
 31
0.0
  0
LINE
  5
34F
330
4AB
100
AcDbEntity
  8
_0
  6
Continuous
 62
     7
370
    13
100
AcDbLine
 10
38.042198
 20
-49.611885
 30
0.0
 11
38.12926
 21
-49.611885
 31
0.0
  0
LINE
  5
350
330
4AB
100
AcDbEntity
  8
_0
  6
Continuous
 62
     7
370
    13
100
AcDbLine
 10
38.127938
 20
-49.611885
 30
0.0
 11
38.127938
 21
-49.455865
 31
0.0
  0
LINE
  5
351
330
4AB
100
AcDbEntity
  8
_0
  6
Continuous
 62
     7
370
    13
100
AcDbLine
 10
38.1155
 20
-49.611885
 30
0.0
 11
38.1155
 21
-49.448604
 31
0.0
  0
LINE
  5
352
330
4AB
100
AcDbEntity
  8
_0
  6
Continuous
 62
     7
370
    13
100
AcDbLine
 10
38.053312
 20
-49.611885
 30
0.0
 11
38.053312
 21
-49.412323
 31
0.0
  0
LINE
  5
353
330
4AB
100
AcDbEntity
  8
_0
  6
Continuous
 62
     7
370
    13
100
AcDbLine
 10
38.012323
 20
-49.388417
 30
0.0
 11
38.018594
 21
-49.377667
 31
0.0
  0
LINE
  5
354
330
4AB
100
AcDbEntity
  8
_0
  6
Continuous
 62
     7
370
    13
100
AcDbLine
 10
38.012323
 20
-49.388417
 30
0.0
 11
38.163917
 21
-49.476854
 31
0.0
  0
LINE
  5
355
330
4AB
100
AcDbEntity
  8
_0
  6
Continuous
 62
     7
370
    13
100
AcDbLine
 10
38.018594
 20
-49.377667
 30
0.0
 11
38.170187
 21
-49.466115
 31
0.0
  0
LINE
  5
356
330
4AB
100
AcDbEntity
  8
_0
  6
Continuous
 62
     7
370
    13
100
AcDbLine
 10
38.170187
 20
-49.466115
 30
0.0
 11
38.163917
 21
-49.476854
 31
0.0
  0
LINE
  5
357
330
4AB
100
AcDbEntity
  8
_0
  6
DGN Style 2
 62
     7
370
    13
100
AcDbLine
 10
39.102937
 20
-49.707156
 30
0.0
 11
39.018437
 21
-49.707156
 31
0.0
  0
LINE
  5
358
330
4AB
100
AcDbEntity
  8
_0
  6
DGN Style 2
 62
     7
370
    13
100
AcDbLine
 10
39.104677
 20
-49.824729
 30
0.0
 11
39.191323
 21
-49.824729
 31
0.0
  0
LINE
  5
359
330
4AB
100
AcDbEntity
  8
_0
  6
Continuous
 62
     7
370
    13
100
AcDbLine
 10
39.116187
 20
-49.634812
 30
0.0
 11
39.116187
 21
-49.503812
 31
0.0
  0
LINE
  5
35A
330
4AB
100
AcDbEntity
  8
_0
  6
Continuous
 62
     7
370
    13
100
AcDbLine
 10
39.178375
 20
-49.634812
 30
0.0
 11
39.178375
 21
-49.50851
 31
0.0
  0
LINE
  5
35B
330
4AB
100
AcDbEntity
  8
_0
  6
Continuous
 62
     7
370
    13
100
AcDbLine
 10
39.190812
 20
-49.634812
 30
0.0
 11
39.190812
 21
-49.505115
 31
0.0
  0
LINE
  5
35C
330
4AB
100
AcDbEntity
  8
_0
  6
Continuous
 62
     7
370
    13
100
AcDbLine
 10
39.10426
 20
-49.50575
 30
0.0
 11
39.190906
 21
-49.50575
 31
0.0
  0
LINE
  5
35D
330
4AB
100
AcDbEntity
  8
_0
  6
DGN Style 2
 62
     7
370
    13
100
AcDbLine
 10
39.192552
 20
-49.707156
 30
0.0
 11
39.277875
 21
-49.707156
 31
0.0
  0
LINE
  5
35E
330
4AB
100
AcDbEntity
  8
_0
  6
Continuous
 62
     7
370
    13
100
AcDbLine
 10
39.277875
 20
-49.634812
 30
0.0
 11
39.277875
 21
-49.530698
 31
0.0
  0
LINE
  5
35F
330
4AB
100
AcDbEntity
  8
_0
  6
Continuous
 62
     7
370
    13
100
AcDbLine
 10
39.265437
 20
-49.634812
 30
0.0
 11
39.265437
 21
-49.527313
 31
0.0
  0
LINE
  5
360
330
4AB
100
AcDbEntity
  8
_0
  6
Continuous
 62
     7
370
    13
100
AcDbLine
 10
39.20325
 20
-49.634812
 30
0.0
 11
39.20325
 21
-49.510344
 31
0.0
  0
LINE
  5
361
330
4AB
100
AcDbEntity
  8
_0
  6
Continuous
 62
     7
370
    13
100
AcDbLine
 10
39.321677
 20
-49.52976
 30
0.0
 11
39.318396
 21
-49.54176
 31
0.0
  0
LINE
  5
362
330
4AB
100
AcDbEntity
  8
_0
  6
Continuous
 62
     7
370
    13
100
AcDbLine
 10
39.152354
 20
-49.483573
 30
0.0
 11
39.321677
 21
-49.52976
 31
0.0
  0
LINE
  5
363
330
4AB
100
AcDbEntity
  8
_0
  6
Continuous
 62
     7
370
    13
100
AcDbLine
 10
39.149083
 20
-49.495573
 30
0.0
 11
39.318396
 21
-49.54176
 31
0.0
  0
LINE
  5
364
330
4AB
100
AcDbEntity
  8
_0
  6
Continuous
 62
     7
370
    13
100
AcDbLine
 10
39.149083
 20
-49.495573
 30
0.0
 11
39.152354
 21
-49.483573
 31
0.0
  0
LINE
  5
365
330
4AB
100
AcDbEntity
  8
_0
  6
DGN Style 2
 62
     7
370
    13
100
AcDbLine
 10
40.168062
 20
-49.899833
 30
0.0
 11
40.255125
 21
-49.899833
 31
0.0
  0
LINE
  5
366
330
4AB
100
AcDbEntity
  8
_0
  6
DGN Style 2
 62
     7
370
    13
100
AcDbLine
 10
40.255125
 20
-49.78226
 30
0.0
 11
40.340427
 21
-49.78226
 31
0.0
  0
LINE
  5
367
330
4AB
100
AcDbEntity
  8
_0
  6
DGN Style 2
 62
     7
370
    13
100
AcDbLine
 10
40.168062
 20
-49.78226
 30
0.0
 11
40.080167
 21
-49.78226
 31
0.0
  0
LINE
  5
368
330
4AB
100
AcDbEntity
  8
_0
  6
Continuous
 62
     7
370
    13
100
AcDbLine
 10
40.092594
 20
-49.634812
 30
0.0
 11
40.092594
 21
-49.58125
 31
0.0
  0
LINE
  5
369
330
4AB
100
AcDbEntity
  8
_0
  6
Continuous
 62
     7
370
    13
100
AcDbLine
 10
40.080167
 20
-49.634812
 30
0.0
 11
40.080167
 21
-49.58125
 31
0.0
  0
LINE
  5
36A
330
4AB
100
AcDbEntity
  8
_0
  6
Continuous
 62
     7
370
    13
100
AcDbLine
 10
40.340427
 20
-49.634812
 30
0.0
 11
40.340427
 21
-49.58125
 31
0.0
  0
LINE
  5
36B
330
4AB
100
AcDbEntity
  8
_0
  6
Continuous
 62
     7
370
    13
100
AcDbLine
 10
40.32799
 20
-49.634812
 30
0.0
 11
40.32799
 21
-49.58125
 31
0.0
  0
LINE
  5
36C
330
4AB
100
AcDbEntity
  8
_0
  6
Continuous
 62
     7
370
    13
100
AcDbLine
 10
40.265802
 20
-49.634812
 30
0.0
 11
40.265802
 21
-49.58125
 31
0.0
  0
LINE
  5
36D
330
4AB
100
AcDbEntity
  8
_0
  6
Continuous
 62
     7
370
    13
100
AcDbLine
 10
40.154781
 20
-49.634812
 30
0.0
 11
40.154781
 21
-49.58125
 31
0.0
  0
LINE
  5
36E
330
4AB
100
AcDbEntity
  8
_0
  6
Continuous
 62
     7
370
    13
100
AcDbLine
 10
40.029937
 20
-49.58125
 30
0.0
 11
40.392417
 21
-49.58125
 31
0.0
  0
LINE
  5
36F
330
4AB
100
AcDbEntity
  8
_0
  6
Continuous
 62
     7
370
    13
100
AcDbLine
 10
40.029865
 20
-49.566719
 30
0.0
 11
40.205375
 21
-49.566719
 31
0.0
  0
LINE
  5
370
330
4AB
100
AcDbEntity
  8
_0
  6
Continuous
 62
     7
370
    13
100
AcDbLine
 10
40.216844
 20
-49.566719
 30
0.0
 11
40.392344
 21
-49.566719
 31
0.0
  0
LINE
  5
371
330
4AB
100
AcDbEntity
  8
_0
  6
Continuous
 62
     7
370
    13
100
AcDbLine
 10
40.392417
 20
-49.58125
 30
0.0
 11
40.392344
 21
-49.566719
 31
0.0
  0
LINE
  5
372
330
4AB
100
AcDbEntity
  8
_0
  6
Continuous
 62
     7
370
    13
100
AcDbLine
 10
40.216844
 20
-49.566719
 30
0.0
 11
40.216906
 21
-49.58125
 31
0.0
  0
SPLINE
  5
373
330
4AB
100
AcDbEntity
  8
_0
  6
Continuous
 62
     7
370
     0
100
AcDbSpline
210
0.0
220
0.0
230
1.0
 70
     8
 71
     3
 72
    14
 73
    10
 74
     0
 42
0.0000000001
 43
0.00000001
 40
0.0
 40
0.0
 40
0.0
 40
0.0
 40
0.1428571428571428
 40
0.2857142857142857
 40
0.4285714285714285
 40
0.5714285714285714
 40
0.7142857142857142
 40
0.857142857142857
 40
1.0
 40
1.0
 40
1.0
 40
1.0
 10
40.19682291666667
 20
-49.5651875
 30
0.0
 10
40.19682291666667
 20
-49.5596875
 30
0.0
 10
40.1715625
 20
-49.52053125
 30
0.0
 10
40.15705208333333
 20
-49.52053125
 30
0.0
 10
40.13279166666666
 20
-49.55814583333333
 30
0.0
 10
40.09876041666666
 20
-49.55814583333333
 30
0.0
 10
40.07448958333333
 20
-49.52053125
 30
0.0
 10
40.05997916666666
 20
-49.52053125
 30
0.0
 10
40.03471875
 20
-49.5596875
 30
0.0
 10
40.03471875
 20
-49.5651875
 30
0.0
  0
LWPOLYLINE
  5
375
330
4AB
100
AcDbEntity
  8
_0
  6
Continuous
 62
     7
370
     0
100
AcDbPolyline
 90
       51
 70
   128
 43
0.0
 10
40.189792
 20
-49.566656
 10
40.189375
 20
-49.564646
 10
40.188208
 20
-49.561854
 10
40.186094
 20
-49.557823
 10
40.183323
 20
-49.553156
 10
40.180115
 20
-49.54824
 10
40.176687
 20
-49.543365
 10
40.173281
 20
-49.538896
 10
40.170115
 20
-49.535135
 10
40.167458
 20
-49.532365
 10
40.165406
 20
-49.530656
 10
40.163594
 20
-49.529594
 10
40.162073
 20
-49.530542
 10
40.160396
 20
-49.53201
 10
40.15824
 20
-49.53426
 10
40.15575
 20
-49.537135
 10
40.152969
 20
-49.540458
 10
40.149938
 20
-49.544042
 10
40.146667
 20
-49.54774
 10
40.143115
 20
-49.551385
 10
40.13926
 20
-49.554844
 10
40.135042
 20
-49.557938
 10
40.13049
 20
-49.560458
 10
40.125708
 20
-49.562302
 10
40.120781
 20
-49.563406
 10
40.115771
 20
-49.563781
 10
40.110771
 20
-49.563406
 10
40.105833
 20
-49.562302
 10
40.101062
 20
-49.560458
 10
40.0965
 20
-49.557938
 10
40.092281
 20
-49.554844
 10
40.088427
 20
-49.551385
 10
40.084885
 20
-49.54774
 10
40.081604
 20
-49.544042
 10
40.078573
 20
-49.540458
 10
40.075802
 20
-49.537135
 10
40.073302
 20
-49.53426
 10
40.071156
 20
-49.53201
 10
40.069469
 20
-49.530542
 10
40.067948
 20
-49.529594
 10
40.066146
 20
-49.530656
 10
40.064094
 20
-49.532365
 10
40.061427
 20
-49.535135
 10
40.058271
 20
-49.538896
 10
40.054854
 20
-49.543365
 10
40.051437
 20
-49.54824
 10
40.048229
 20
-49.553156
 10
40.045448
 20
-49.557823
 10
40.043344
 20
-49.561854
 10
40.042177
 20
-49.564646
 10
40.04175
 20
-49.566656
  0
LWPOLYLINE
  5
376
330
4AB
100
AcDbEntity
  8
_0
  6
Continuous
 62
     7
370
     0
100
AcDbPolyline
 90
       51
 70
   128
 43
0.0
 10
40.379448
 20
-49.566656
 10
40.379031
 20
-49.564646
 10
40.377865
 20
-49.561854
 10
40.37575
 20
-49.557823
 10
40.372979
 20
-49.553156
 10
40.36976
 20
-49.54824
 10
40.366344
 20
-49.543365
 10
40.362938
 20
-49.538896
 10
40.359771
 20
-49.535135
 10
40.357115
 20
-49.532365
 10
40.355062
 20
-49.530656
 10
40.35325
 20
-49.529594
 10
40.351729
 20
-49.530542
 10
40.350052
 20
-49.53201
 10
40.347896
 20
-49.53426
 10
40.345396
 20
-49.537135
 10
40.342625
 20
-49.540458
 10
40.339604
 20
-49.544042
 10
40.336323
 20
-49.54774
 10
40.332771
 20
-49.551385
 10
40.328917
 20
-49.554844
 10
40.324698
 20
-49.557938
 10
40.320146
 20
-49.560458
 10
40.315365
 20
-49.562302
 10
40.310437
 20
-49.563406
 10
40.305427
 20
-49.563781
 10
40.300427
 20
-49.563406
 10
40.2955
 20
-49.562302
 10
40.290708
 20
-49.560458
 10
40.286156
 20
-49.557938
 10
40.281937
 20
-49.554844
 10
40.278083
 20
-49.551385
 10
40.274531
 20
-49.54774
 10
40.27126
 20
-49.544042
 10
40.268229
 20
-49.540458
 10
40.265458
 20
-49.537135
 10
40.262958
 20
-49.53426
 10
40.260813
 20
-49.53201
 10
40.259135
 20
-49.530542
 10
40.257604
 20
-49.529594
 10
40.255802
 20
-49.530656
 10
40.25375
 20
-49.532365
 10
40.251083
 20
-49.535135
 10
40.247927
 20
-49.538896
 10
40.244521
 20
-49.543365
 10
40.241094
 20
-49.54824
 10
40.237885
 20
-49.553156
 10
40.235104
 20
-49.557823
 10
40.233
 20
-49.561854
 10
40.231823
 20
-49.564646
 10
40.231406
 20
-49.566656
  0
SPLINE
  5
377
330
4AB
100
AcDbEntity
  8
_0
  6
Continuous
 62
     7
370
     0
100
AcDbSpline
210
0.0
220
0.0
230
1.0
 70
     8
 71
     3
 72
    14
 73
    10
 74
     0
 42
0.0000000001
 43
0.00000001
 40
0.0
 40
0.0
 40
0.0
 40
0.0
 40
0.1428571428571428
 40
0.2857142857142857
 40
0.4285714285714285
 40
0.5714285714285714
 40
0.7142857142857142
 40
0.857142857142857
 40
1.0
 40
1.0
 40
1.0
 40
1.0
 10
40.38647916666667
 20
-49.5651875
 30
0.0
 10
40.38647916666667
 20
-49.5596875
 30
0.0
 10
40.36121875
 20
-49.52053125
 30
0.0
 10
40.34670833333333
 20
-49.52053125
 30
0.0
 10
40.32244791666667
 20
-49.55814583333333
 30
0.0
 10
40.28841666666666
 20
-49.55814583333333
 30
0.0
 10
40.26414583333333
 20
-49.52053125
 30
0.0
 10
40.24963541666666
 20
-49.52053125
 30
0.0
 10
40.224375
 20
-49.5596875
 30
0.0
 10
40.224375
 20
-49.5651875
 30
0.0
  0
LWPOLYLINE
  5
379
330
4AB
100
AcDbEntity
  8
_0
  6
Continuous
 62
     7
370
     0
100
AcDbPolyline
 90
       51
 70
   128
 43
0.0
 10
33.171333
 20
-49.344396
 10
33.169323
 20
-49.344812
 10
33.166531
 20
-49.345979
 10
33.1625
 20
-49.348094
 10
33.157833
 20
-49.350875
 10
33.152906
 20
-49.354083
 10
33.148052
 20
-49.3575
 10
33.143573
 20
-49.360917
 10
33.139802
 20
-49.364073
 10
33.137042
 20
-49.36674
 10
33.135333
 20
-49.368781
 10
33.134271
 20
-49.370594
 10
33.135219
 20
-49.372115
 10
33.136677
 20
-49.373802
 10
33.138937
 20
-49.375948
 10
33.141813
 20
-49.378448
 10
33.145135
 20
-49.381219
 10
33.148719
 20
-49.38425
 10
33.152417
 20
-49.387521
 10
33.156062
 20
-49.391073
 10
33.159521
 20
-49.394927
 10
33.162615
 20
-49.399146
 10
33.165135
 20
-49.403698
 10
33.166979
 20
-49.408479
 10
33.168094
 20
-49.413406
 10
33.168469
 20
-49.418417
 10
33.168094
 20
-49.423427
 10
33.166979
 20
-49.428354
 10
33.165135
 20
-49.433135
 10
33.162615
 20
-49.437687
 10
33.159521
 20
-49.441906
 10
33.156062
 20
-49.445771
 10
33.152417
 20
-49.449312
 10
33.148719
 20
-49.452594
 10
33.145135
 20
-49.455615
 10
33.141813
 20
-49.458385
 10
33.138937
 20
-49.460885
 10
33.136677
 20
-49.463042
 10
33.135219
 20
-49.464719
 10
33.134271
 20
-49.46624
 10
33.135333
 20
-49.468052
 10
33.137042
 20
-49.470104
 10
33.139802
 20
-49.47276
 10
33.143573
 20
-49.475917
 10
33.148052
 20
-49.479333
 10
33.152906
 20
-49.48276
 10
33.157833
 20
-49.485969
 10
33.1625
 20
-49.48874
 10
33.166531
 20
-49.490854
 10
33.169323
 20
-49.492021
 10
33.171333
 20
-49.492438
  0
SPLINE
  5
37A
330
4AB
100
AcDbEntity
  8
_0
  6
Continuous
 62
     7
370
     0
100
AcDbSpline
210
0.0
220
0.0
230
1.0
 70
     8
 71
     3
 72
    14
 73
    10
 74
     0
 42
0.0000000001
 43
0.00000001
 40
0.0
 40
0.0
 40
0.0
 40
0.0
 40
0.1428571428571428
 40
0.2857142857142857
 40
0.4285714285714285
 40
0.5714285714285714
 40
0.7142857142857142
 40
0.857142857142857
 40
1.0
 40
1.0
 40
1.0
 40
1.0
 10
33.16986458333333
 20
-49.33736458333333
 30
0.0
 10
33.16436458333333
 20
-49.33736458333333
 30
0.0
 10
33.12520833333333
 20
-49.362625
 30
0.0
 10
33.12520833333333
 20
-49.37713541666667
 30
0.0
 10
33.16282291666666
 20
-49.40140625
 30
0.0
 10
33.16282291666666
 20
-49.43542708333333
 30
0.0
 10
33.12520833333333
 20
-49.45969791666666
 30
0.0
 10
33.12520833333333
 20
-49.47420833333333
 30
0.0
 10
33.16436458333333
 20
-49.49946875
 30
0.0
 10
33.16986458333333
 20
-49.49946875
 30
0.0
  0
LWPOLYLINE
  5
37C
330
4AB
100
AcDbEntity
  8
_0
  6
Continuous
 62
     7
370
     0
100
AcDbPolyline
 90
       51
 70
   128
 43
0.0
 10
33.448865
 20
-49.343521
 10
33.450875
 20
-49.343927
 10
33.453677
 20
-49.345073
 10
33.457719
 20
-49.347156
 10
33.462406
 20
-49.349906
 10
33.467354
 20
-49.353083
 10
33.472229
 20
-49.356479
 10
33.47674
 20
-49.359865
 10
33.48051
 20
-49.36299
 10
33.483302
 20
-49.365635
 10
33.485021
 20
-49.367677
 10
33.486094
 20
-49.369479
 10
33.485156
 20
-49.37101
 10
33.483708
 20
-49.372698
 10
33.481469
 20
-49.374865
 10
33.478594
 20
-49.377375
 10
33.475292
 20
-49.380177
 10
33.471729
 20
-49.383229
 10
33.468063
 20
-49.386521
 10
33.464437
 20
-49.390094
 10
33.461
 20
-49.393969
 10
33.457927
 20
-49.398219
 10
33.455438
 20
-49.402781
 10
33.453625
 20
-49.407573
 10
33.452552
 20
-49.41251
 10
33.452208
 20
-49.417521
 10
33.452615
 20
-49.422521
 10
33.45376
 20
-49.427448
 10
33.455625
 20
-49.432219
 10
33.458177
 20
-49.43675
 10
33.461302
 20
-49.440948
 10
33.464781
 20
-49.444781
 10
33.468448
 20
-49.448313
 10
33.472167
 20
-49.451563
 10
33.475771
 20
-49.454573
 10
33.479104
 20
-49.457323
 10
33.482
 20
-49.459802
 10
33.484271
 20
-49.461937
 10
33.48574
 20
-49.463615
 10
33.486698
 20
-49.465125
 10
33.485646
 20
-49.466938
 10
33.483948
 20
-49.469
 10
33.481208
 20
-49.471688
 10
33.477469
 20
-49.474865
 10
33.47301
 20
-49.478302
 10
33.468167
 20
-49.48176
 10
33.46326
 20
-49.485
 10
33.458604
 20
-49.487802
 10
33.454594
 20
-49.489937
 10
33.451812
 20
-49.491125
 10
33.449802
 20
-49.491552
  0
SPLINE
  5
37D
330
4AB
100
AcDbEntity
  8
_0
  6
Continuous
 62
     7
370
     0
100
AcDbSpline
210
0.0
220
0.0
230
1.0
 70
     8
 71
     3
 72
    14
 73
    10
 74
     0
 42
0.0000000001
 43
0.00000001
 40
0.0
 40
0.0
 40
0.0
 40
0.0
 40
0.1428571428571428
 40
0.2857142857142857
 40
0.4285714285714285
 40
0.5714285714285714
 40
0.7142857142857142
 40
0.857142857142857
 40
1.0
 40
1.0
 40
1.0
 40
1.0
 10
33.45029166666666
 20
-49.33647916666666
 30
0.0
 10
33.45579166666666
 20
-49.3364375
 30
0.0
 10
33.49510416666666
 20
-49.36145833333333
 30
0.0
 10
33.49519791666667
 20
-49.37596875
 30
0.0
 10
33.45773958333334
 20
-49.40046875
 30
0.0
 10
33.45794791666667
 20
-49.4345
 30
0.0
 10
33.49571875
 20
-49.45853125
 30
0.0
 10
33.4958125
 20
-49.47303125
 30
0.0
 10
33.4568125
 20
-49.49854166666667
 30
0.0
 10
33.45132291666667
 20
-49.49857291666667
 30
0.0
  0
LINE
  5
37F
330
4AB
100
AcDbEntity
  8
_0
  6
Continuous
 62
     7
370
    13
100
AcDbLine
 10
32.947531
 20
-49.634812
 30
0.0
 11
40.581031
 21
-49.634812
 31
0.0
  0
LINE
  5
380
330
4AB
100
AcDbEntity
  8
_0
  6
DGN Style 2
 62
     7
370
    13
100
AcDbLine
 10
40.340427
 20
-49.634812
 30
0.0
 11
40.340427
 21
-49.78226
 31
0.0
  0
LINE
  5
381
330
4AB
100
AcDbEntity
  8
_0
  6
DGN Style 2
 62
     7
370
    13
100
AcDbLine
 10
40.32799
 20
-49.634812
 30
0.0
 11
40.32799
 21
-49.78226
 31
0.0
  0
LINE
  5
382
330
4AB
100
AcDbEntity
  8
_0
  6
DGN Style 2
 62
     7
370
    13
100
AcDbLine
 10
40.255125
 20
-49.634812
 30
0.0
 11
40.255125
 21
-49.899833
 31
0.0
  0
LINE
  5
383
330
4AB
100
AcDbEntity
  8
_0
  6
DGN Style 2
 62
     7
370
    13
100
AcDbLine
 10
40.265802
 20
-49.634812
 30
0.0
 11
40.265802
 21
-49.78226
 31
0.0
  0
LINE
  5
384
330
4AB
100
AcDbEntity
  8
_0
  6
DGN Style 2
 62
     7
370
    13
100
AcDbLine
 10
40.168062
 20
-49.634812
 30
0.0
 11
40.168062
 21
-49.899833
 31
0.0
  0
LINE
  5
385
330
4AB
100
AcDbEntity
  8
_0
  6
DGN Style 2
 62
     7
370
    13
100
AcDbLine
 10
40.242687
 20
-49.634812
 30
0.0
 11
40.242687
 21
-49.899833
 31
0.0
  0
LINE
  5
386
330
4AB
100
AcDbEntity
  8
_0
  6
DGN Style 2
 62
     7
370
    13
100
AcDbLine
 10
40.1805
 20
-49.634812
 30
0.0
 11
40.1805
 21
-49.899833
 31
0.0
  0
LINE
  5
387
330
4AB
100
AcDbEntity
  8
_0
  6
DGN Style 2
 62
     7
370
    13
100
AcDbLine
 10
40.154781
 20
-49.634812
 30
0.0
 11
40.154781
 21
-49.78226
 31
0.0
  0
LINE
  5
388
330
4AB
100
AcDbEntity
  8
_0
  6
DGN Style 2
 62
     7
370
    13
100
AcDbLine
 10
40.092594
 20
-49.634812
 30
0.0
 11
40.092594
 21
-49.78226
 31
0.0
  0
LINE
  5
389
330
4AB
100
AcDbEntity
  8
_0
  6
DGN Style 2
 62
     7
370
    13
100
AcDbLine
 10
40.080167
 20
-49.634812
 30
0.0
 11
40.080167
 21
-49.78226
 31
0.0
  0
LWPOLYLINE
  5
38A
330
4AB
100
AcDbEntity
  8
_0
  6
Continuous
 62
     7
370
     0
100
AcDbPolyline
 90
        2
 70
   128
 43
0.0
 10
34.502865
 20
-49.634812
 10
34.502865
 20
-49.32525
  0
LINE
  5
38B
330
4AB
100
AcDbEntity
  8
_0
  6
DGN Style 2
 62
     7
370
    13
100
AcDbLine
 10
39.018437
 20
-49.634812
 30
0.0
 11
39.018437
 21
-49.707156
 31
0.0
  0
LINE
  5
38C
330
4AB
100
AcDbEntity
  8
_0
  6
DGN Style 2
 62
     7
370
    13
100
AcDbLine
 10
39.029833
 20
-49.634812
 30
0.0
 11
39.029833
 21
-49.707156
 31
0.0
  0
LINE
  5
38D
330
4AB
100
AcDbEntity
  8
_0
  6
DGN Style 2
 62
     7
370
    13
100
AcDbLine
 10
39.093052
 20
-49.634812
 30
0.0
 11
39.093052
 21
-49.705656
 31
0.0
  0
LINE
  5
38E
330
4AB
100
AcDbEntity
  8
_0
  6
DGN Style 2
 62
     7
370
    13
100
AcDbLine
 10
39.115656
 20
-49.634812
 30
0.0
 11
39.115656
 21
-49.824729
 31
0.0
  0
LINE
  5
38F
330
4AB
100
AcDbEntity
  8
_0
  6
DGN Style 2
 62
     7
370
    13
100
AcDbLine
 10
39.177844
 20
-49.634812
 30
0.0
 11
39.177844
 21
-49.824729
 31
0.0
  0
LINE
  5
390
330
4AB
100
AcDbEntity
  8
_0
  6
DGN Style 2
 62
     7
370
    13
100
AcDbLine
 10
39.105302
 20
-49.634812
 30
0.0
 11
39.105302
 21
-49.824729
 31
0.0
  0
LINE
  5
391
330
4AB
100
AcDbEntity
  8
_0
  6
DGN Style 2
 62
     7
370
    13
100
AcDbLine
 10
39.203031
 20
-49.634812
 30
0.0
 11
39.203031
 21
-49.707156
 31
0.0
  0
LINE
  5
392
330
4AB
100
AcDbEntity
  8
_0
  6
DGN Style 2
 62
     7
370
    13
100
AcDbLine
 10
39.191323
 20
-49.634812
 30
0.0
 11
39.191323
 21
-49.824729
 31
0.0
  0
LINE
  5
393
330
4AB
100
AcDbEntity
  8
_0
  6
DGN Style 2
 62
     7
370
    13
100
AcDbLine
 10
39.26626
 20
-49.634812
 30
0.0
 11
39.26626
 21
-49.707156
 31
0.0
  0
LINE
  5
394
330
4AB
100
AcDbEntity
  8
_0
  6
DGN Style 2
 62
     7
370
    13
100
AcDbLine
 10
39.277656
 20
-49.634812
 30
0.0
 11
39.277656
 21
-49.707156
 31
0.0
  0
LINE
  5
395
330
4AB
100
AcDbEntity
  8
_0
  6
DGN Style 2
 62
     7
370
    13
100
AcDbLine
 10
37.966417
 20
-49.634812
 30
0.0
 11
37.966417
 21
-49.729458
 31
0.0
  0
LINE
  5
396
330
4AB
100
AcDbEntity
  8
_0
  6
DGN Style 2
 62
     7
370
    13
100
AcDbLine
 10
37.953979
 20
-49.634812
 30
0.0
 11
37.953979
 21
-49.729458
 31
0.0
  0
LINE
  5
397
330
4AB
100
AcDbEntity
  8
_0
  6
DGN Style 2
 62
     7
370
    13
100
AcDbLine
 10
38.028604
 20
-49.634812
 30
0.0
 11
38.028604
 21
-49.729458
 31
0.0
  0
LINE
  5
398
330
4AB
100
AcDbEntity
  8
_0
  6
DGN Style 2
 62
     7
370
    13
100
AcDbLine
 10
38.041042
 20
-49.634812
 30
0.0
 11
38.041042
 21
-49.729458
 31
0.0
  0
LINE
  5
399
330
4AB
100
AcDbEntity
  8
_0
  6
DGN Style 2
 62
     7
370
    13
100
AcDbLine
 10
36.880156
 20
-49.634812
 30
0.0
 11
36.880156
 21
-49.729458
 31
0.0
  0
LINE
  5
39A
330
4AB
100
AcDbEntity
  8
_0
  6
DGN Style 2
 62
     7
370
    13
100
AcDbLine
 10
36.891552
 20
-49.634812
 30
0.0
 11
36.891552
 21
-49.729458
 31
0.0
  0
LINE
  5
39B
330
4AB
100
AcDbEntity
  8
_0
  6
DGN Style 2
 62
     7
370
    13
100
AcDbLine
 10
36.816938
 20
-49.634812
 30
0.0
 11
36.816938
 21
-49.729458
 31
0.0
  0
LINE
  5
39C
330
4AB
100
AcDbEntity
  8
_0
  6
DGN Style 2
 62
     7
370
    13
100
AcDbLine
 10
36.8045
 20
-49.634812
 30
0.0
 11
36.8045
 21
-49.729458
 31
0.0
  0
LINE
  5
39D
330
4AB
100
AcDbEntity
  8
_0
  6
DGN Style 2
 62
     7
370
    13
100
AcDbLine
 10
35.72749
 20
-49.634812
 30
0.0
 11
35.72749
 21
-49.729458
 31
0.0
  0
LINE
  5
39E
330
4AB
100
AcDbEntity
  8
_0
  6
DGN Style 2
 62
     7
370
    13
100
AcDbLine
 10
35.740958
 20
-49.634812
 30
0.0
 11
35.740958
 21
-49.729458
 31
0.0
  0
LINE
  5
39F
330
4AB
100
AcDbEntity
  8
_0
  6
DGN Style 2
 62
     7
370
    13
100
AcDbLine
 10
35.665302
 20
-49.634812
 30
0.0
 11
35.665302
 21
-49.729458
 31
0.0
  0
LINE
  5
3A0
330
4AB
100
AcDbEntity
  8
_0
  6
DGN Style 2
 62
     7
370
    13
100
AcDbLine
 10
35.652865
 20
-49.634812
 30
0.0
 11
35.652865
 21
-49.729458
 31
0.0
  0
LINE
  5
3A1
330
4AB
100
AcDbEntity
  8
_0
  6
DGN Style 2
 62
     7
370
    13
100
AcDbLine
 10
34.577094
 20
-49.634812
 30
0.0
 11
34.577094
 21
-49.729458
 31
0.0
  0
LINE
  5
3A2
330
4AB
100
AcDbEntity
  8
_0
  6
DGN Style 2
 62
     7
370
    13
100
AcDbLine
 10
34.590562
 20
-49.634812
 30
0.0
 11
34.590562
 21
-49.729458
 31
0.0
  0
LINE
  5
3A3
330
4AB
100
AcDbEntity
  8
_0
  6
DGN Style 2
 62
     7
370
    13
100
AcDbLine
 10
34.515937
 20
-49.634812
 30
0.0
 11
34.515937
 21
-49.729458
 31
0.0
  0
LINE
  5
3A4
330
4AB
100
AcDbEntity
  8
_0
  6
DGN Style 2
 62
     7
370
    13
100
AcDbLine
 10
34.502469
 20
-49.634812
 30
0.0
 11
34.502469
 21
-49.729458
 31
0.0
  0
LINE
  5
3A5
330
4AB
100
AcDbEntity
  8
_0
  6
DGN Style 2
 62
     7
370
    13
100
AcDbLine
 10
33.352531
 20
-49.633781
 30
0.0
 11
33.352531
 21
-49.728427
 31
0.0
  0
LINE
  5
3A6
330
4AB
100
AcDbEntity
  8
_0
  6
DGN Style 2
 62
     7
370
    13
100
AcDbLine
 10
33.340094
 20
-49.634812
 30
0.0
 11
33.340094
 21
-49.729458
 31
0.0
  0
LINE
  5
3A7
330
4AB
100
AcDbEntity
  8
_0
  6
DGN Style 2
 62
     7
370
    13
100
AcDbLine
 10
33.277906
 20
-49.634812
 30
0.0
 11
33.277906
 21
-49.729458
 31
0.0
  0
LINE
  5
3A8
330
4AB
100
AcDbEntity
  8
_0
  6
DGN Style 2
 62
     7
370
    13
100
AcDbLine
 10
33.265469
 20
-49.634812
 30
0.0
 11
33.265469
 21
-49.729458
 31
0.0
  0
LINE
  5
3B8
330
4AB
100
AcDbEntity
  8
_0
  6
Continuous
 62
     7
370
    13
100
AcDbLine
 10
33.355312
 20
-52.306
 30
0.0
 11
37.280625
 21
-52.281
 31
0.0
  0
LINE
  5
3B9
330
4AB
100
AcDbEntity
  8
_0
  6
Continuous
 62
     7
370
    13
100
AcDbLine
 10
33.355312
 20
-52.055979
 30
0.0
 11
37.280625
 21
-52.080979
 31
0.0
  0
LINE
  5
3BA
330
4AB
100
AcDbEntity
  8
_0
  6
Continuous
 62
     7
370
    13
100
AcDbLine
 10
37.405635
 20
-52.289719
 30
0.0
 11
37.405635
 21
-52.069396
 31
0.0
  0
LINE
  5
3BB
330
4AB
100
AcDbEntity
  8
_0
  6
DGN Style 2
 62
     7
370
    13
100
AcDbLine
 10
37.280625
 20
-52.281
 30
0.0
 11
37.280625
 21
-52.080979
 31
0.0
  0
LINE
  5
3BC
330
4AB
100
AcDbEntity
  8
_0
  6
Continuous
 62
     7
370
    13
100
AcDbLine
 10
37.280625
 20
-52.281
 30
0.0
 11
37.394021
 21
-52.299583
 31
0.0
  0
LINE
  5
3BD
330
4AB
100
AcDbEntity
  8
_0
  6
Continuous
 62
     7
370
    13
100
AcDbLine
 10
37.280625
 20
-52.080979
 30
0.0
 11
37.393781
 21
-52.059573
 31
0.0
  0
LINE
  5
3BE
330
4AB
100
AcDbEntity
  8
_0
  6
Continuous
 62
     7
370
    13
100
AcDbLine
 10
33.355312
 20
-52.27599
 30
0.0
 11
34.817927
 21
-52.222958
 31
0.0
  0
ARC
  5
3BF
330
4AB
100
AcDbEntity
  8
_0
  6
Continuous
 62
     7
370
    13
100
AcDbCircle
 10
37.395637
 20
-52.069396
 30
0.0
 40
0.0100008
100
AcDbArc
 50
0.0
 51
100.714328
  0
ARC
  5
3C0
330
4AB
100
AcDbEntity
  8
_0
  6
Continuous
 62
     7
370
    13
100
AcDbCircle
 10
37.395637
 20
-52.28972
 30
0.0
 40
0.0100008
100
AcDbArc
 50
260.687358
 51
0.0
  0
LINE
  5
3C1
330
4AB
100
AcDbEntity
  8
_0
  6
DGN Style 2
 62
     7
370
    13
100
AcDbLine
 10
37.218125
 20
-52.281
 30
0.0
 11
37.218125
 21
-52.080979
 31
0.0
  0
LINE
  5
3C2
330
4AB
100
AcDbEntity
  8
_0
  6
DGN Style 2
 62
     7
370
    13
100
AcDbLine
 10
37.249375
 20
-52.281
 30
0.0
 11
37.249375
 21
-52.080979
 31
0.0
  0
LINE
  5
3C3
330
4AB
100
AcDbEntity
  8
_0
  6
DGN Style 2
 62
     7
370
    13
100
AcDbLine
 10
37.218125
 20
-52.16099
 30
0.0
 11
37.280625
 21
-52.16099
 31
0.0
  0
LINE
  5
3C4
330
4AB
100
AcDbEntity
  8
_0
  6
DGN Style 2
 62
     7
370
    13
100
AcDbLine
 10
37.218125
 20
-52.20099
 30
0.0
 11
37.280625
 21
-52.20099
 31
0.0
  0
LINE
  5
3C5
330
4AB
100
AcDbEntity
  8
_0
  6
DGN Style 2
 62
     7
370
    13
100
AcDbLine
 10
37.218125
 20
-52.102635
 30
0.0
 11
37.280625
 21
-52.102635
 31
0.0
  0
LINE
  5
3C6
330
4AB
100
AcDbEntity
  8
_0
  6
DGN Style 2
 62
     7
370
    13
100
AcDbLine
 10
37.218125
 20
-52.253021
 30
0.0
 11
37.280625
 21
-52.253021
 31
0.0
  0
LINE
  5
3C7
330
4AB
100
AcDbEntity
  8
_0
  6
DGN Style 2
 62
     7
370
    13
100
AcDbLine
 10
36.018031
 20
-52.271969
 30
0.0
 11
36.080531
 21
-52.271969
 31
0.0
  0
LINE
  5
3C8
330
4AB
100
AcDbEntity
  8
_0
  6
DGN Style 2
 62
     7
370
    13
100
AcDbLine
 10
36.018031
 20
-52.085927
 30
0.0
 11
36.080531
 21
-52.085927
 31
0.0
  0
LINE
  5
3C9
330
4AB
100
AcDbEntity
  8
_0
  6
DGN Style 2
 62
     7
370
    13
100
AcDbLine
 10
36.018031
 20
-52.219938
 30
0.0
 11
36.080531
 21
-52.219938
 31
0.0
  0
LINE
  5
3CA
330
4AB
100
AcDbEntity
  8
_0
  6
DGN Style 2
 62
     7
370
    13
100
AcDbLine
 10
36.018031
 20
-52.144271
 30
0.0
 11
36.080531
 21
-52.144271
 31
0.0
  0
LINE
  5
3CB
330
4AB
100
AcDbEntity
  8
_0
  6
DGN Style 2
 62
     7
370
    13
100
AcDbLine
 10
36.049281
 20
-52.271969
 30
0.0
 11
36.049281
 21
-52.219938
 31
0.0
  0
LINE
  5
3CC
330
4AB
100
AcDbEntity
  8
_0
  6
DGN Style 2
 62
     7
370
    13
100
AcDbLine
 10
36.018031
 20
-52.286562
 30
0.0
 11
36.018031
 21
-52.206562
 31
0.0
  0
LINE
  5
3CD
330
4AB
100
AcDbEntity
  8
_0
  6
DGN Style 2
 62
     7
370
    13
100
AcDbLine
 10
36.080531
 20
-52.286562
 30
0.0
 11
36.080531
 21
-52.206562
 31
0.0
  0
LINE
  5
3CE
330
4AB
100
AcDbEntity
  8
_0
  6
DGN Style 2
 62
     7
370
    13
100
AcDbLine
 10
35.417979
 20
-52.278656
 30
0.0
 11
35.48049
 21
-52.278656
 31
0.0
  0
LINE
  5
3CF
330
4AB
100
AcDbEntity
  8
_0
  6
DGN Style 2
 62
     7
370
    13
100
AcDbLine
 10
35.417979
 20
-52.080354
 30
0.0
 11
35.48049
 21
-52.080354
 31
0.0
  0
LINE
  5
3D0
330
4AB
100
AcDbEntity
  8
_0
  6
DGN Style 2
 62
     7
370
    13
100
AcDbLine
 10
35.417979
 20
-52.21324
 30
0.0
 11
35.48049
 21
-52.21324
 31
0.0
  0
LINE
  5
3D1
330
4AB
100
AcDbEntity
  8
_0
  6
DGN Style 2
 62
     7
370
    13
100
AcDbLine
 10
35.417979
 20
-52.149844
 30
0.0
 11
35.48049
 21
-52.149844
 31
0.0
  0
LINE
  5
3D2
330
4AB
100
AcDbEntity
  8
_0
  6
DGN Style 2
 62
     7
370
    13
100
AcDbLine
 10
35.449229
 20
-52.278656
 30
0.0
 11
35.449229
 21
-52.224052
 31
0.0
  0
LINE
  5
3D3
330
4AB
100
AcDbEntity
  8
_0
  6
DGN Style 2
 62
     7
370
    13
100
AcDbLine
 10
35.417979
 20
-52.29325
 30
0.0
 11
35.417979
 21
-52.21324
 31
0.0
  0
LINE
  5
3D4
330
4AB
100
AcDbEntity
  8
_0
  6
DGN Style 2
 62
     7
370
    13
100
AcDbLine
 10
35.48049
 20
-52.29325
 30
0.0
 11
35.48049
 21
-52.21324
 31
0.0
  0
LINE
  5
3D5
330
4AB
100
AcDbEntity
  8
_0
  6
DGN Style 2
 62
     7
370
    13
100
AcDbLine
 10
34.817927
 20
-52.284229
 30
0.0
 11
34.880437
 21
-52.284229
 31
0.0
  0
LINE
  5
3D6
330
4AB
100
AcDbEntity
  8
_0
  6
DGN Style 2
 62
     7
370
    13
100
AcDbLine
 10
34.817927
 20
-52.218812
 30
0.0
 11
34.880437
 21
-52.218812
 31
0.0
  0
LINE
  5
3D7
330
4AB
100
AcDbEntity
  8
_0
  6
DGN Style 2
 62
     7
370
    13
100
AcDbLine
 10
34.849187
 20
-52.284229
 30
0.0
 11
34.849187
 21
-52.229625
 31
0.0
  0
LINE
  5
3D8
330
4AB
100
AcDbEntity
  8
_0
  6
DGN Style 2
 62
     7
370
    13
100
AcDbLine
 10
34.817927
 20
-52.298823
 30
0.0
 11
34.817927
 21
-52.218812
 31
0.0
  0
LINE
  5
3D9
330
4AB
100
AcDbEntity
  8
_0
  6
DGN Style 2
 62
     7
370
    13
100
AcDbLine
 10
34.880437
 20
-52.298823
 30
0.0
 11
34.880437
 21
-52.218812
 31
0.0
  0
LINE
  5
3DA
330
4AB
100
AcDbEntity
  8
_0
  6
DGN Style 2
 62
     7
370
    13
100
AcDbLine
 10
34.217885
 20
-52.270854
 30
0.0
 11
34.280385
 21
-52.270854
 31
0.0
  0
LINE
  5
3DB
330
4AB
100
AcDbEntity
  8
_0
  6
DGN Style 2
 62
     7
370
    13
100
AcDbLine
 10
34.217885
 20
-52.083698
 30
0.0
 11
34.280385
 21
-52.083698
 31
0.0
  0
LINE
  5
3DC
330
4AB
100
AcDbEntity
  8
_0
  6
DGN Style 2
 62
     7
370
    13
100
AcDbLine
 10
34.217885
 20
-52.211021
 30
0.0
 11
34.280385
 21
-52.211021
 31
0.0
  0
LINE
  5
3DD
330
4AB
100
AcDbEntity
  8
_0
  6
DGN Style 2
 62
     7
370
    13
100
AcDbLine
 10
34.217885
 20
-52.154302
 30
0.0
 11
34.280385
 21
-52.154302
 31
0.0
  0
LINE
  5
3DE
330
4AB
100
AcDbEntity
  8
_0
  6
DGN Style 2
 62
     7
370
    13
100
AcDbLine
 10
34.249135
 20
-52.298823
 30
0.0
 11
34.249135
 21
-52.062031
 31
0.0
  0
LINE
  5
3DF
330
4AB
100
AcDbEntity
  8
_0
  6
DGN Style 2
 62
     7
370
    13
100
AcDbLine
 10
34.217885
 20
-52.298823
 30
0.0
 11
34.217885
 21
-52.270854
 31
0.0
  0
LINE
  5
3E0
330
4AB
100
AcDbEntity
  8
_0
  6
DGN Style 2
 62
     7
370
    13
100
AcDbLine
 10
34.280385
 20
-52.298823
 30
0.0
 11
34.280385
 21
-52.270854
 31
0.0
  0
LINE
  5
3E1
330
4AB
100
AcDbEntity
  8
_0
  6
DGN Style 2
 62
     7
370
    13
100
AcDbLine
 10
33.617833
 20
-52.214521
 30
0.0
 11
33.680344
 21
-52.214521
 31
0.0
  0
LINE
  5
3E2
330
4AB
100
AcDbEntity
  8
_0
  6
DGN Style 2
 62
     7
370
    13
100
AcDbLine
 10
33.617833
 20
-52.151615
 30
0.0
 11
33.680344
 21
-52.151615
 31
0.0
  0
LINE
  5
3E3
330
4AB
100
AcDbEntity
  8
_0
  6
DGN Style 2
 62
     7
370
    13
100
AcDbLine
 10
33.649083
 20
-52.265344
 30
0.0
 11
33.649083
 21
-52.097146
 31
0.0
  0
LINE
  5
3E4
330
4AB
100
AcDbEntity
  8
_0
  6
Continuous
 62
     7
370
    13
100
AcDbLine
 10
34.817927
 20
-52.14099
 30
0.0
 11
37.390979
 21
-52.18124
 31
0.0
  0
LINE
  5
3E5
330
4AB
100
AcDbEntity
  8
_0
  6
Continuous
 62
     7
370
    13
100
AcDbLine
 10
34.817927
 20
-52.22099
 30
0.0
 11
37.390979
 21
-52.18074
 31
0.0
  0
LINE
  5
3E6
330
4AB
100
AcDbEntity
  8
_0
  6
Continuous
 62
     7
370
    13
100
AcDbLine
 10
33.35601
 20
-52.086198
 30
0.0
 11
34.817927
 21
-52.14076
 31
0.0
  0
LINE
  5
3E7
330
4AB
100
AcDbEntity
  8
_0
  6
DGN Style 2
 62
     7
370
    13
100
AcDbLine
 10
34.280385
 20
-52.083698
 30
0.0
 11
34.280385
 21
-52.062031
 31
0.0
  0
LINE
  5
3E8
330
4AB
100
AcDbEntity
  8
_0
  6
DGN Style 2
 62
     7
370
    13
100
AcDbLine
 10
34.217885
 20
-52.083698
 30
0.0
 11
34.217885
 21
-52.062031
 31
0.0
  0
LINE
  5
3E9
330
4AB
100
AcDbEntity
  8
_0
  6
DGN Style 2
 62
     7
370
    13
100
AcDbLine
 10
34.880437
 20
-52.063146
 30
0.0
 11
34.880437
 21
-52.143156
 31
0.0
  0
LINE
  5
3EA
330
4AB
100
AcDbEntity
  8
_0
  6
DGN Style 2
 62
     7
370
    13
100
AcDbLine
 10
34.817927
 20
-52.063146
 30
0.0
 11
34.817927
 21
-52.143156
 31
0.0
  0
LINE
  5
3EB
330
4AB
100
AcDbEntity
  8
_0
  6
DGN Style 2
 62
     7
370
    13
100
AcDbLine
 10
34.849187
 20
-52.079979
 30
0.0
 11
34.849187
 21
-52.132344
 31
0.0
  0
LINE
  5
3EC
330
4AB
100
AcDbEntity
  8
_0
  6
DGN Style 2
 62
     7
370
    13
100
AcDbLine
 10
34.817927
 20
-52.143156
 30
0.0
 11
34.880437
 21
-52.143156
 31
0.0
  0
LINE
  5
3ED
330
4AB
100
AcDbEntity
  8
_0
  6
DGN Style 2
 62
     7
370
    13
100
AcDbLine
 10
34.817927
 20
-52.079979
 30
0.0
 11
34.880437
 21
-52.079979
 31
0.0
  0
LINE
  5
3EE
330
4AB
100
AcDbEntity
  8
_0
  6
DGN Style 2
 62
     7
370
    13
100
AcDbLine
 10
35.417979
 20
-52.149844
 30
0.0
 11
35.417979
 21
-52.069833
 31
0.0
  0
LINE
  5
3EF
330
4AB
100
AcDbEntity
  8
_0
  6
DGN Style 2
 62
     7
370
    13
100
AcDbLine
 10
35.449229
 20
-52.132729
 30
0.0
 11
35.449229
 21
-52.080354
 31
0.0
  0
LINE
  5
3F0
330
4AB
100
AcDbEntity
  8
_0
  6
DGN Style 2
 62
     7
370
    13
100
AcDbLine
 10
35.48049
 20
-52.149844
 30
0.0
 11
35.48049
 21
-52.069833
 31
0.0
  0
LINE
  5
3F1
330
4AB
100
AcDbEntity
  8
_0
  6
DGN Style 2
 62
     7
370
    13
100
AcDbLine
 10
35.417979
 20
-52.224052
 30
0.0
 11
35.48049
 21
-52.224052
 31
0.0
  0
LINE
  5
3F2
330
4AB
100
AcDbEntity
  8
_0
  6
DGN Style 2
 62
     7
370
    13
100
AcDbLine
 10
34.817927
 20
-52.229625
 30
0.0
 11
34.880437
 21
-52.229625
 31
0.0
  0
LINE
  5
3F3
330
4AB
100
AcDbEntity
  8
_0
  6
DGN Style 2
 62
     7
370
    13
100
AcDbLine
 10
35.417979
 20
-52.132729
 30
0.0
 11
35.48049
 21
-52.132729
 31
0.0
  0
LINE
  5
3F4
330
4AB
100
AcDbEntity
  8
_0
  6
DGN Style 2
 62
     7
370
    13
100
AcDbLine
 10
34.817927
 20
-52.132344
 30
0.0
 11
34.880437
 21
-52.132344
 31
0.0
  0
LINE
  5
3F5
330
4AB
100
AcDbEntity
  8
_0
  6
DGN Style 2
 62
     7
370
    13
100
AcDbLine
 10
36.080531
 20
-52.154302
 30
0.0
 11
36.080531
 21
-52.074292
 31
0.0
  0
LINE
  5
3F6
330
4AB
100
AcDbEntity
  8
_0
  6
DGN Style 2
 62
     7
370
    13
100
AcDbLine
 10
36.049281
 20
-52.144271
 30
0.0
 11
36.049281
 21
-52.085927
 31
0.0
  0
LINE
  5
3F7
330
4AB
100
AcDbEntity
  8
_0
  6
DGN Style 2
 62
     7
370
    13
100
AcDbLine
 10
36.018031
 20
-52.154302
 30
0.0
 11
36.018031
 21
-52.074292
 31
0.0
  0
LINE
  5
3F8
330
4AB
100
AcDbEntity
  8
_0
  6
DGN Style 2
 62
     7
370
    13
100
AcDbLine
 10
36.617542
 20
-52.164333
 30
0.0
 11
36.617542
 21
-52.084323
 31
0.0
  0
LINE
  5
3F9
330
4AB
100
AcDbEntity
  8
_0
  6
DGN Style 2
 62
     7
370
    13
100
AcDbLine
 10
36.648802
 20
-52.154302
 30
0.0
 11
36.648802
 21
-52.095958
 31
0.0
  0
LINE
  5
3FA
330
4AB
100
AcDbEntity
  8
_0
  6
DGN Style 2
 62
     7
370
    13
100
AcDbLine
 10
36.680052
 20
-52.164333
 30
0.0
 11
36.680052
 21
-52.084323
 31
0.0
  0
LINE
  5
3FB
330
4AB
100
AcDbEntity
  8
_0
  6
DGN Style 2
 62
     7
370
    13
100
AcDbLine
 10
36.680052
 20
-52.281
 30
0.0
 11
36.680052
 21
-52.20099
 31
0.0
  0
LINE
  5
3FC
330
4AB
100
AcDbEntity
  8
_0
  6
DGN Style 2
 62
     7
370
    13
100
AcDbLine
 10
36.617542
 20
-52.281
 30
0.0
 11
36.617542
 21
-52.20099
 31
0.0
  0
LINE
  5
3FD
330
4AB
100
AcDbEntity
  8
_0
  6
DGN Style 2
 62
     7
370
    13
100
AcDbLine
 10
36.648802
 20
-52.266396
 30
0.0
 11
36.648802
 21
-52.214365
 31
0.0
  0
LINE
  5
3FE
330
4AB
100
AcDbEntity
  8
_0
  6
DGN Style 2
 62
     7
370
    13
100
AcDbLine
 10
36.617542
 20
-52.154302
 30
0.0
 11
36.680052
 21
-52.154302
 31
0.0
  0
LINE
  5
3FF
330
4AB
100
AcDbEntity
  8
_0
  6
DGN Style 2
 62
     7
370
    13
100
AcDbLine
 10
36.617542
 20
-52.214365
 30
0.0
 11
36.680052
 21
-52.214365
 31
0.0
  0
LINE
  5
400
330
4AB
100
AcDbEntity
  8
_0
  6
DGN Style 2
 62
     7
370
    13
100
AcDbLine
 10
36.617542
 20
-52.095958
 30
0.0
 11
36.680052
 21
-52.095958
 31
0.0
  0
LINE
  5
401
330
4AB
100
AcDbEntity
  8
_0
  6
DGN Style 2
 62
     7
370
    13
100
AcDbLine
 10
36.617542
 20
-52.266396
 30
0.0
 11
36.680052
 21
-52.266396
 31
0.0
  0
SOLID
  5
406
330
4AB
100
AcDbEntity
  8
TEXT
  6
Continuous
 62
     7
370
    13
100
AcDbTrace
 10
34.555542
 20
-49.278594
 30
0.0
 11
34.537031
 21
-49.255375
 31
0.0
 12
34.476625
 22
-49.322521
 32
0.0
 13
34.476625
 23
-49.322521
 33
0.0
  0
LINE
  5
407
330
4AB
100
AcDbEntity
  8
TEXT
  6
Continuous
 62
     7
370
    13
100
AcDbLine
 10
34.528
 20
-49.276125
 30
0.0
 11
35.264927
 21
-48.692146
 31
0.0
  0
SOLID
  5
408
330
4AB
100
AcDbEntity
  8
TEXT
  6
Continuous
 62
     7
370
    13
100
AcDbTrace
 10
-34.722365
 20
-49.31524
 30
0.0
 11
-34.700323
 21
-49.295344
 31
0.0
 12
-34.651635
 22
-49.371417
 32
0.0
 13
-34.651635
 23
-49.371417
 33
0.0
210
0.0
220
0.0
230
-1.0
  0
LINE
  5
409
330
4AB
100
AcDbEntity
  8
TEXT
  6
Continuous
 62
     7
370
    13
100
AcDbLine
 10
34.711344
 20
-49.305292
 30
0.0
 11
35.264927
 21
-48.692146
 31
0.0
  0
LINE
  5
40A
330
4AB
100
AcDbEntity
  8
_0
  6
DGN Style 2
 62
     7
370
    13
100
AcDbLine
 10
39.88501
 20
-54.57724
 30
0.0
 11
39.88501
 21
-54.277219
 31
0.0
  0
LINE
  5
40B
330
4AB
100
AcDbEntity
  8
_0
  6
DGN Style 2
 62
     7
370
    13
100
AcDbLine
 10
39.869333
 20
-54.575
 30
0.0
 11
39.869333
 21
-54.27376
 31
0.0
  0
LINE
  5
40C
330
4AB
100
AcDbEntity
  8
_0
  6
DGN Style 2
 62
     7
370
    13
100
AcDbLine
 10
39.88501
 20
-54.22
 30
0.0
 11
39.88501
 21
-54.03324
 31
0.0
  0
LINE
  5
40D
330
4AB
100
AcDbEntity
  8
_0
  6
DGN Style 2
 62
     7
370
    13
100
AcDbLine
 10
39.869333
 20
-54.222021
 30
0.0
 11
39.869333
 21
-54.031
 31
0.0
  0
LINE
  5
40E
330
4AB
100
AcDbEntity
  8
_0
  6
Continuous
 62
     7
370
    13
100
AcDbLine
 10
39.803292
 20
-54.411198
 30
0.0
 11
39.803292
 21
-54.596104
 31
0.0
  0
LINE
  5
40F
330
4AB
100
AcDbEntity
  8
_0
  6
Continuous
 62
     7
370
    13
100
AcDbLine
 10
39.953302
 20
-54.411198
 30
0.0
 11
39.953302
 21
-54.598333
 31
0.0
  0
LINE
  5
410
330
4AB
100
AcDbEntity
  8
_0
  6
Continuous
 62
     7
370
    13
100
AcDbLine
 10
39.698427
 20
-54.411198
 30
0.0
 11
39.698427
 21
-54.439396
 31
0.0
  0
LINE
  5
411
330
4AB
100
AcDbEntity
  8
_0
  6
Continuous
 62
     7
370
    13
100
AcDbLine
 10
40.098458
 20
-54.411198
 30
0.0
 11
40.098458
 21
-54.439396
 31
0.0
  0
LINE
  5
412
330
4AB
100
AcDbEntity
  8
_0
  6
Continuous
 62
     7
370
    13
100
AcDbLine
 10
39.698427
 20
-54.439396
 30
0.0
 11
40.098458
 21
-54.439396
 31
0.0
  0
LINE
  5
413
330
4AB
100
AcDbEntity
  8
_0
  6
Continuous
 62
     7
370
    13
100
AcDbLine
 10
40.1045
 20
-49.551313
 30
0.0
 11
40.1045
 21
-49.543563
 31
0.0
  0
LINE
  5
414
330
4AB
100
AcDbEntity
  8
_0
  6
Continuous
 62
     7
370
    13
100
AcDbLine
 10
40.1045
 20
-49.543563
 30
0.0
 11
40.122604
 21
-49.543563
 31
0.0
  0
LINE
  5
415
330
4AB
100
AcDbEntity
  8
_0
  6
Continuous
 62
     7
370
    13
100
AcDbLine
 10
40.122604
 20
-49.543563
 30
0.0
 11
40.122604
 21
-49.553896
 31
0.0
  0
LINE
  5
416
330
4AB
100
AcDbEntity
  8
_0
  6
Continuous
 62
     7
370
    13
100
AcDbLine
 10
40.101917
 20
-49.553896
 30
0.0
 11
40.101917
 21
-49.550021
 31
0.0
  0
LINE
  5
417
330
4AB
100
AcDbEntity
  8
_0
  6
Continuous
 62
     7
370
    13
100
AcDbLine
 10
40.101917
 20
-49.550021
 30
0.0
 11
40.123896
 21
-49.550021
 31
0.0
  0
LINE
  5
418
330
4AB
100
AcDbEntity
  8
_0
  6
Continuous
 62
     7
370
    13
100
AcDbLine
 10
40.123896
 20
-49.550021
 30
0.0
 11
40.123896
 21
-49.555198
 31
0.0
  0
LINE
  5
419
330
4AB
100
AcDbEntity
  8
_0
  6
Continuous
 62
     7
370
    13
100
AcDbLine
 10
40.101917
 20
-49.58099
 30
0.0
 11
40.101917
 21
-49.587448
 31
0.0
  0
LINE
  5
41A
330
4AB
100
AcDbEntity
  8
_0
  6
Continuous
 62
     7
370
    13
100
AcDbLine
 10
40.101917
 20
-49.587448
 30
0.0
 11
40.121302
 21
-49.587448
 31
0.0
  0
LINE
  5
41B
330
4AB
100
AcDbEntity
  8
_0
  6
Continuous
 62
     7
370
    13
100
AcDbLine
 10
40.121302
 20
-49.587448
 30
0.0
 11
40.121302
 21
-49.582281
 31
0.0
  0
LINE
  5
41C
330
4AB
100
AcDbEntity
  8
_0
  6
Continuous
 62
     7
370
    13
100
AcDbLine
 10
40.109677
 20
-49.587448
 30
0.0
 11
40.109677
 21
-49.592615
 31
0.0
  0
LINE
  5
41D
330
4AB
100
AcDbEntity
  8
_0
  6
Continuous
 62
     7
370
    13
100
AcDbLine
 10
40.109677
 20
-49.592615
 30
0.0
 11
40.114844
 21
-49.592615
 31
0.0
  0
LINE
  5
41E
330
4AB
100
AcDbEntity
  8
_0
  6
Continuous
 62
     7
370
    13
100
AcDbLine
 10
40.114844
 20
-49.592615
 30
0.0
 11
40.114844
 21
-49.58874
 31
0.0
  0
LINE
  5
41F
330
4AB
100
AcDbEntity
  8
_0
  6
Continuous
 62
     7
370
    13
100
AcDbLine
 10
40.108385
 20
-49.566771
 30
0.0
 11
40.108385
 21
-49.562948
 31
0.0
  0
LINE
  5
420
330
4AB
100
AcDbEntity
  8
_0
  6
Continuous
 62
     7
370
    13
100
AcDbLine
 10
40.114844
 20
-49.565479
 30
0.0
 11
40.114844
 21
-49.56424
 31
0.0
  0
LINE
  5
421
330
4AB
100
AcDbEntity
  8
_0
  6
Continuous
 62
     7
370
    13
100
AcDbLine
 10
40.306135
 20
-49.565479
 30
0.0
 11
40.306135
 21
-49.56424
 31
0.0
  0
LINE
  5
422
330
4AB
100
AcDbEntity
  8
_0
  6
Continuous
 62
     7
370
    13
100
AcDbLine
 10
40.299677
 20
-49.566771
 30
0.0
 11
40.299677
 21
-49.562948
 31
0.0
  0
LINE
  5
423
330
4AB
100
AcDbEntity
  8
_0
  6
Continuous
 62
     7
370
    13
100
AcDbLine
 10
40.306135
 20
-49.592615
 30
0.0
 11
40.306135
 21
-49.58874
 31
0.0
  0
LINE
  5
424
330
4AB
100
AcDbEntity
  8
_0
  6
Continuous
 62
     7
370
    13
100
AcDbLine
 10
40.300969
 20
-49.592615
 30
0.0
 11
40.306135
 21
-49.592615
 31
0.0
  0
LINE
  5
425
330
4AB
100
AcDbEntity
  8
_0
  6
Continuous
 62
     7
370
    13
100
AcDbLine
 10
40.300969
 20
-49.587448
 30
0.0
 11
40.300969
 21
-49.592615
 31
0.0
  0
LINE
  5
426
330
4AB
100
AcDbEntity
  8
_0
  6
Continuous
 62
     7
370
    13
100
AcDbLine
 10
40.312594
 20
-49.587448
 30
0.0
 11
40.312594
 21
-49.582281
 31
0.0
  0
LINE
  5
427
330
4AB
100
AcDbEntity
  8
_0
  6
Continuous
 62
     7
370
    13
100
AcDbLine
 10
40.293208
 20
-49.587448
 30
0.0
 11
40.312594
 21
-49.587448
 31
0.0
  0
LINE
  5
428
330
4AB
100
AcDbEntity
  8
_0
  6
Continuous
 62
     7
370
    13
100
AcDbLine
 10
40.293208
 20
-49.58099
 30
0.0
 11
40.293208
 21
-49.587448
 31
0.0
  0
LINE
  5
429
330
4AB
100
AcDbEntity
  8
_0
  6
Continuous
 62
     7
370
    13
100
AcDbLine
 10
40.315177
 20
-49.550021
 30
0.0
 11
40.315177
 21
-49.555198
 31
0.0
  0
LINE
  5
42A
330
4AB
100
AcDbEntity
  8
_0
  6
Continuous
 62
     7
370
    13
100
AcDbLine
 10
40.293208
 20
-49.550021
 30
0.0
 11
40.315177
 21
-49.550021
 31
0.0
  0
LINE
  5
42B
330
4AB
100
AcDbEntity
  8
_0
  6
Continuous
 62
     7
370
    13
100
AcDbLine
 10
40.293208
 20
-49.553896
 30
0.0
 11
40.293208
 21
-49.550021
 31
0.0
  0
LINE
  5
42C
330
4AB
100
AcDbEntity
  8
_0
  6
Continuous
 62
     7
370
    13
100
AcDbLine
 10
40.313896
 20
-49.543563
 30
0.0
 11
40.313896
 21
-49.553896
 31
0.0
  0
LINE
  5
42D
330
4AB
100
AcDbEntity
  8
_0
  6
Continuous
 62
     7
370
    13
100
AcDbLine
 10
40.295792
 20
-49.543563
 30
0.0
 11
40.313896
 21
-49.543563
 31
0.0
  0
LINE
  5
42E
330
4AB
100
AcDbEntity
  8
_0
  6
Continuous
 62
     7
370
    13
100
AcDbLine
 10
40.295792
 20
-49.551313
 30
0.0
 11
40.295792
 21
-49.543563
 31
0.0
  0
LINE
  5
42F
330
4AB
100
AcDbEntity
  8
DIM
  6
Continuous
 62
     7
370
    13
100
AcDbLine
 10
35.940167
 20
-49.209125
 30
0.0
 11
35.940167
 21
-49.246437
 31
0.0
  0
LINE
  5
430
330
4AB
100
AcDbEntity
  8
DIM
  6
Continuous
 62
     7
370
    13
100
AcDbLine
 10
35.940167
 20
-49.246437
 30
0.0
 11
35.902854
 21
-49.209125
 31
0.0
  0
LINE
  5
431
330
4AB
100
AcDbEntity
  8
DIM
  6
Continuous
 62
     7
370
    13
100
AcDbLine
 10
35.872937
 20
-49.207948
 30
0.0
 11
35.97401
 21
-49.207948
 31
0.0
  0
LINE
  5
432
330
4AB
100
AcDbEntity
  8
DIM
  6
Continuous
 62
     7
370
    13
100
AcDbLine
 10
35.653312
 20
-49.32525
 30
0.0
 11
35.872937
 21
-49.207948
 31
0.0
  0
INSERT
  5
437
330
4AB
100
AcDbEntity
  8
TEXT
  6
Continuous
 62
     7
370
    13
100
AcDbBlockReference
  2
LARROW
 10
35.653312
 20
-49.32525
 30
0.0
 41
5.000398
 42
5.000398
 43
5.000398
 50
208.106378
  0
TEXT
  5
67
330
4AB
100
AcDbEntity
  8
HATCH
  6
Continuous
 62
     7
370
    13
100
AcDbText
 10
32.995594
 20
-55.015458
 30
0.0
 40
0.050625
  1
AND DESIGNING TRAFFIC BARRIERS"
 41
0.9
  7
Style-Arial
100
AcDbText
  0
TEXT
  5
68
330
4AB
100
AcDbEntity
  8
HATCH
  6
Continuous
 62
     7
370
    13
100
AcDbText
 10
32.989542
 20
-54.934073
 30
0.0
 40
0.050625
  1
SEE AASHTO "GUIDE FOR SELECTING, LOCATING
 41
0.9
  7
Style-Arial
100
AcDbText
  0
TEXT
  5
71
330
4AB
100
AcDbEntity
  8
DIM
  6
Continuous
 62
     7
370
    13
100
AcDbText
 10
38.391146
 20
-54.153406
 30
0.0
 40
0.050625
  1
1-1/8"
 41
0.9
  7
Style-Arial
100
AcDbText
  0
TEXT
  5
74
330
4AB
100
AcDbEntity
  8
DIM
  6
Continuous
 62
     7
370
    13
100
AcDbText
 10
37.768802
 20
-54.029854
 30
0.0
 40
0.050625
  1
3-1/4"
 41
0.9
  7
Style-Arial
100
AcDbText
  0
TEXT
  5
78
330
4AB
100
AcDbEntity
  8
DIM
  6
Continuous
 62
     7
370
    13
100
AcDbText
 10
37.768802
 20
-54.270187
 30
0.0
 40
0.050625
  1
3-1/4"
 41
0.9
  7
Style-Arial
100
AcDbText
  0
TEXT
  5
7D
330
4AB
100
AcDbEntity
  8
DIM
  6
Continuous
 62
     7
370
    13
100
AcDbText
 10
37.835583
 20
-53.914833
 30
0.0
 40
0.050625
  1
2-5/16"
 50
90.0
 41
0.9
  7
Style-Arial
100
AcDbText
  0
TEXT
  5
85
330
4AB
100
AcDbEntity
  8
DIM
  6
Continuous
 62
     7
370
    13
100
AcDbText
 10
37.835583
 20
-54.545176
 30
0.0
 40
0.050625
  1
2-5/16"
 50
90.0
 41
0.9
  7
Style-Arial
100
AcDbText
  0
TEXT
  5
8A
330
4AB
100
AcDbEntity
  8
DIM
  6
Continuous
 62
     7
370
    13
100
AcDbText
 10
37.64449
 20
-54.174614
 30
0.0
 40
0.050625
  1
1'-1/4"
 50
90.0
 41
0.9
  7
Style-Arial
100
AcDbText
  0
TEXT
  5
BC
330
4AB
100
AcDbEntity
  8
TEXT
  6
Continuous
 62
     7
370
    13
100
AcDbText
 10
36.799112
 20
-54.358615
 30
0.0
 40
0.050625
  1
SHOULDER
 41
0.9
  7
Style-Arial
100
AcDbText
  0
TEXT
  5
BD
330
4AB
100
AcDbEntity
  8
TEXT
  6
Continuous
 62
     7
370
    13
100
AcDbText
 10
36.793584
 20
-54.277667
 30
0.0
 40
0.050625
  1
ELLIPTICAL
 41
0.9
  7
Style-Arial
100
AcDbText
  0
TEXT
  5
E4
330
4AB
100
AcDbEntity
  8
DIM
  6
Continuous
 62
     7
370
    13
100
AcDbText
 10
35.850635
 20
-53.642323
 30
0.0
 40
0.050625
  1
7/8"
 50
90.0
 41
0.9
  7
Style-Arial
100
AcDbText
  0
TEXT
  5
EA
330
4AB
100
AcDbEntity
  8
DIM
  6
Continuous
 62
     7
370
    13
100
AcDbText
 10
36.115344
 20
-53.873448
 30
0.0
 40
0.050625
  1
1-1/2"
 41
0.9
  7
Style-Arial
100
AcDbText
  0
TEXT
  5
F0
330
4AB
100
AcDbEntity
  8
DIM
  6
Continuous
 62
     7
370
    13
100
AcDbText
 10
36.794569
 20
-53.60322
 30
0.0
 40
0.050625
  1
11/16"
 50
90.0
 41
0.9
  7
Style-Arial
100
AcDbText
  0
TEXT
  5
F1
330
4AB
100
AcDbEntity
  8
DIM
  6
Continuous
 62
     7
370
    13
100
AcDbText
 10
36.958219
 20
-53.583613
 30
0.0
 40
0.050625
  1
1-3/4"
 50
90.0
 41
0.9
  7
Style-Arial
100
AcDbText
  0
TEXT
  5
FC
330
4AB
100
AcDbEntity
  8
DIM
  6
Continuous
 62
     7
370
    13
100
AcDbText
 10
36.259001
 20
-53.320854
 30
0.0
 40
0.050625
  1
15/16"
 41
0.9
  7
Style-Arial
100
AcDbText
  0
TEXT
  5
FD
330
4AB
100
AcDbEntity
  8
DIM
  6
Continuous
 62
     7
370
    13
100
AcDbText
 10
36.316719
 20
-53.168073
 30
0.0
 40
0.050625
  1
3"
 41
0.9
  7
Style-Arial
100
AcDbText
  0
TEXT
  5
125
330
4AB
100
AcDbEntity
  8
DIM
  6
Continuous
 62
     7
370
    13
100
AcDbText
 10
39.458836
 20
-53.782333
 30
0.0
 40
0.050625
  1
4-1/4"
 41
0.9
  7
Style-Arial
100
AcDbText
  0
TEXT
  5
126
330
4AB
100
AcDbEntity
  8
DIM
  6
Continuous
 62
     7
370
    13
100
AcDbText
 10
40.163281
 20
-53.877073
 30
0.0
 40
0.050625
  1
2"
 41
0.9
  7
Style-Arial
100
AcDbText
  0
TEXT
  5
127
330
4AB
100
AcDbEntity
  8
DIM
  6
Continuous
 62
     7
370
    13
100
AcDbText
 10
39.575063
 20
-53.877073
 30
0.0
 40
0.050625
  1
2"
 41
0.9
  7
Style-Arial
100
AcDbText
  0
TEXT
  5
12C
330
4AB
100
AcDbEntity
  8
DIM
  6
Continuous
 62
     7
370
    13
100
AcDbText
 10
39.789644
 20
-53.635
 30
0.0
 40
0.050625
  1
12-1/2"
 41
0.9
  7
Style-Arial
100
AcDbText
  0
TEXT
  5
12D
330
4AB
100
AcDbEntity
  8
DIM
  6
Continuous
 62
     7
370
    13
100
AcDbText
 10
39.826219
 20
-53.745427
 30
0.0
 40
0.050625
  1
LAP
 41
0.9
  7
Style-Arial
100
AcDbText
  0
TEXT
  5
138
330
4AB
100
AcDbEntity
  8
DIM
  6
Continuous
 62
     7
370
    13
100
AcDbText
 10
40.163281
 20
-53.782333
 30
0.0
 40
0.050625
  1
4-1/4"
 41
0.9
  7
Style-Arial
100
AcDbText
  0
TEXT
  5
13F
330
4AB
100
AcDbEntity
  8
TEXT
  6
Continuous
 62
     7
370
    13
100
AcDbText
 10
40.453948
 20
-54.317073
 30
0.0
 40
0.050625
  1
29/32" x 1-1/8"
 41
0.9
  7
Style-Arial
100
AcDbText
  0
TEXT
  5
140
330
4AB
100
AcDbEntity
  8
TEXT
  6
Continuous
 62
     7
370
    13
100
AcDbText
 10
40.453948
 20
-54.214635
 30
0.0
 40
0.050625
  1
3/4" x 2-14" SLOT
 41
0.9
  7
Style-Arial
100
AcDbText
  0
TEXT
  5
153
330
4AB
100
AcDbEntity
  8
TEXT
  6
Continuous
 62
     7
370
    13
100
AcDbText
 10
40.293156
 20
-54.785323
 30
0.0
 40
0.050625
  1
LAP IN DIRECTION OF TRAFFIC
 41
0.9
  7
Style-Arial
100
AcDbText
  0
TEXT
  5
154
330
4AB
100
AcDbEntity
  8
TEXT
  6
Continuous
 62
     7
370
    13
100
AcDbText
 10
40.293156
 20
-54.704365
 30
0.0
 40
0.050625
  1
SPLICE AT POST
 41
0.9
  7
Style-Arial
100
AcDbText
  0
TEXT
  5
17A
330
4AB
100
AcDbEntity
  8
TEXT
  6
Continuous
 62
     7
370
    13
100
AcDbText
 10
36.752308
 20
-54.62951
 30
0.0
 40
0.050625
  1
5/8" BOLT
 41
0.9
  7
Style-Arial
100
AcDbText
  0
TEXT
  5
180
330
4AB
100
AcDbEntity
  8
DIM
  6
Continuous
 62
     7
370
    13
100
AcDbText
 10
38.157052
 20
-54.628312
 30
0.0
 40
0.050625
  1
3"
 41
0.9
  7
Style-Arial
100
AcDbText
  0
TEXT
  5
181
330
4AB
100
AcDbEntity
  8
DIM
  6
Continuous
 62
     7
370
    13
100
AcDbText
 10
38.116177
 20
-54.700177
 30
0.0
 40
0.050625
  1
MIN
 41
0.9
  7
Style-Arial
100
AcDbText
  0
TEXT
  5
183
330
4AB
100
AcDbEntity
  8
TEXT
  6
Continuous
 62
     7
370
    13
100
AcDbText
 10
40.454875
 20
-54.398708
 30
0.0
 40
0.050625
  1
SLOTTED HOLES
 41
0.9
  7
Style-Arial
100
AcDbText
  0
TEXT
  5
188
330
4AB
100
AcDbEntity
  8
TEXT
  6
Continuous
 62
     7
370
    13
100
AcDbText
 10
40.453948
 20
-54.036594
 30
0.0
 40
0.050625
  1
C POST BOLT SLOT
 41
0.9
  7
Style-Arial
100
AcDbText
  0
TEXT
  5
189
330
4AB
100
AcDbEntity
  8
TEXT
  6
Continuous
 62
     7
370
    13
100
AcDbText
 10
40.4735
 20
-54.057479
 30
0.0
 40
0.050625
  1
L
 41
0.9
  7
Style-Arial
100
AcDbText
  0
TEXT
  5
18C
330
4AB
100
AcDbEntity
  8
TEXT
  6
Continuous
 62
     7
370
    13
100
AcDbText
 10
38.392469
 20
-53.968031
 30
0.0
 40
0.050625
  1
8 REQD. PER JOINT
 41
0.9
  7
Style-Arial
100
AcDbText
  0
TEXT
  5
18E
330
4AB
100
AcDbEntity
  8
TEXT
  6
Continuous
 62
     7
370
    13
100
AcDbText
 10
38.391542
 20
-53.886396
 30
0.0
 40
0.050625
  1
5/8" x 1-1/4" BOLTS
 41
0.9
  7
Style-Arial
100
AcDbText
  0
TEXT
  5
18F
330
4AB
100
AcDbEntity
  8
DIM
  6
Continuous
 62
     7
370
    13
100
AcDbText
 10
33.014271
 20
-51.37022
 30
0.0
 40
0.050625
  1
MIN
 50
90.0
 41
0.9
  7
Style-Arial
100
AcDbText
  0
TEXT
  5
190
330
4AB
100
AcDbEntity
  8
DIM
  6
Continuous
 62
     7
370
    13
100
AcDbText
 10
32.891344
 20
-51.420651
 30
0.0
 40
0.050625
  1
3'-5-1/2"
 50
90.0
 41
0.9
  7
Style-Arial
100
AcDbText
  0
TEXT
  5
195
330
4AB
100
AcDbEntity
  8
TEXT
  6
Continuous
 62
     7
370
    13
100
AcDbText
 10
34.667095
 20
-51.106042
 30
0.0
 40
0.050625
  1
W6 x 8.5
 41
0.9
  7
Style-Arial
100
AcDbText
  0
TEXT
  5
198
330
4AB
100
AcDbEntity
  8
TEXT
  6
Continuous
 62
     7
370
    13
100
AcDbText
 10
35.809448
 20
-51.05826
 30
0.0
 40
0.050625
  1
LINE
 41
0.9
  7
Style-Arial
100
AcDbText
  0
TEXT
  5
199
330
4AB
100
AcDbEntity
  8
TEXT
  6
Continuous
 62
     7
370
    13
100
AcDbText
 10
35.80849
 20
-50.976625
 30
0.0
 40
0.050625
  1
MEDIAN FINISHED
 41
0.9
  7
Style-Arial
100
AcDbText
  0
TEXT
  5
19E
330
4AB
100
AcDbEntity
  8
TEXT
  6
Continuous
 62
     7
370
    13
100
AcDbText
 10
40.665469
 20
-50.6595
 30
0.0
 40
0.050625
  1
FLAT
 41
0.9
  7
Style-Arial
100
AcDbText
  0
TEXT
  5
1A4
330
4AB
100
AcDbEntity
  8
DIM
  6
Continuous
 62
     7
370
    13
100
AcDbText
 10
35.988845
 20
-49.595219
 30
0.0
 40
0.050625
  1
1/8" x 1"
 41
0.9
  7
Style-Arial
100
AcDbText
  0
TEXT
  5
1B3
330
4AB
100
AcDbEntity
  8
DIM
  6
Continuous
 62
     7
370
    13
100
AcDbText
 10
33.831172
 20
-49.721979
 30
0.0
 40
0.050625
  1
1/8"
 41
0.9
  7
Style-Arial
100
AcDbText
  0
TEXT
  5
1B7
330
4AB
100
AcDbEntity
  8
DIM
  6
Continuous
 62
     7
370
    13
100
AcDbText
 10
33.997546
 20
-49.466677
 30
0.0
 40
0.050625
  1
12-1/4"
 41
0.9
  7
Style-Arial
100
AcDbText
  0
TEXT
  5
1BD
330
4AB
100
AcDbEntity
  8
DIM
  6
Continuous
 62
     7
370
    13
100
AcDbText
 10
34.186951
 20
-49.25776
 30
0.0
 40
0.050625
  1
15^ 
 41
0.9
  7
Style-Arial
100
AcDbText
  0
TEXT
  5
1C4
330
4AB
100
AcDbEntity
  8
DIM
  6
Continuous
 62
     7
370
    13
100
AcDbText
 10
35.599104
 20
-49.205292
 30
0.0
 40
0.050625
  1
30^ 
 41
0.9
  7
Style-Arial
100
AcDbText
  0
TEXT
  5
1CB
330
4AB
100
AcDbEntity
  8
DIM
  6
Continuous
 62
     7
370
    13
100
AcDbText
 10
36.798896
 20
-49.224594
 30
0.0
 40
0.050625
  1
45^ 
 41
0.9
  7
Style-Arial
100
AcDbText
  0
TEXT
  5
1D1
330
4AB
100
AcDbEntity
  8
DIM
  6
Continuous
 62
     7
370
    13
100
AcDbText
 10
38.015792
 20
-49.188875
 30
0.0
 40
0.050625
  1
60^ 
 41
0.9
  7
Style-Arial
100
AcDbText
  0
TEXT
  5
1D7
330
4AB
100
AcDbEntity
  8
DIM
  6
Continuous
 62
     7
370
    13
100
AcDbText
 10
39.221
 20
-49.283906
 30
0.0
 40
0.050625
  1
75^ 
 41
0.9
  7
Style-Arial
100
AcDbText
  0
TEXT
  5
1E0
330
4AB
100
AcDbEntity
  8
DIM
  6
Continuous
 62
     7
370
    13
100
AcDbText
 10
39.956312
 20
-51.016469
 30
0.0
 40
0.050625
  1
4"
 41
0.9
  7
Style-Arial
100
AcDbText
  0
TEXT
  5
1E5
330
4AB
100
AcDbEntity
  8
DIM
  6
Continuous
 62
     7
370
    13
100
AcDbText
 10
38.68046
 20
-51.011156
 30
0.0
 40
0.050625
  1
5-2/3"
 41
0.9
  7
Style-Arial
100
AcDbText
  0
TEXT
  5
1EB
330
4AB
100
AcDbEntity
  8
DIM
  6
Continuous
 62
     7
370
    13
100
AcDbText
 10
37.679739
 20
-50.821297
 30
0.0
 40
0.050625
  1
7-1/3"
 41
0.9
  7
Style-Arial
100
AcDbText
  0
TEXT
  5
1F1
330
4AB
100
AcDbEntity
  8
DIM
  6
Continuous
 62
     7
370
    13
100
AcDbText
 10
35.247003
 20
-50.776378
 30
0.0
 40
0.050625
  1
10-2/3"
 41
0.9
  7
Style-Arial
100
AcDbText
  0
TEXT
  5
1F2
330
4AB
100
AcDbEntity
  8
DIM
  6
Continuous
 62
     7
370
    13
100
AcDbText
 10
36.539645
 20
-50.796333
 30
0.0
 40
0.050625
  1
9"
 41
0.9
  7
Style-Arial
100
AcDbText
  0
TEXT
  5
1F9
330
4AB
100
AcDbEntity
  8
DIM
  6
Continuous
 62
     7
370
    13
100
AcDbText
 10
34.098412
 20
-50.77899
 30
0.0
 40
0.050625
  1
12-1/3"
 41
0.9
  7
Style-Arial
100
AcDbText
  0
TEXT
  5
1FA
330
4AB
100
AcDbEntity
  8
DIM
  6
Continuous
 62
     7
370
    13
100
AcDbText
 10
33.063032
 20
-50.773542
 30
0.0
 40
0.050625
  1
14"
 41
0.9
  7
Style-Arial
100
AcDbText
  0
TEXT
  5
1FE
330
4AB
100
AcDbEntity
  8
DIM
  6
Continuous
 62
     7
370
    13
100
AcDbText
 10
33.834837
 20
-51.334646
 30
0.0
 40
0.050625
  1
6'-3"
 41
0.9
  7
Style-Arial
100
AcDbText
  0
TEXT
  5
1FF
330
4AB
100
AcDbEntity
  8
DIM
  6
Continuous
 62
     7
370
    13
100
AcDbText
 10
34.915156
 20
-51.334646
 30
0.0
 40
0.050625
  1
6'-3"
 41
0.9
  7
Style-Arial
100
AcDbText
  0
TEXT
  5
200
330
4AB
100
AcDbEntity
  8
DIM
  6
Continuous
 62
     7
370
    13
100
AcDbText
 10
36.120208
 20
-51.331927
 30
0.0
 40
0.050625
  1
6'-3"
 41
0.9
  7
Style-Arial
100
AcDbText
  0
TEXT
  5
201
330
4AB
100
AcDbEntity
  8
DIM
  6
Continuous
 62
     7
370
    13
100
AcDbText
 10
37.289452
 20
-51.331927
 30
0.0
 40
0.050625
  1
6'-3"
 41
0.9
  7
Style-Arial
100
AcDbText
  0
TEXT
  5
202
330
4AB
100
AcDbEntity
  8
DIM
  6
Continuous
 62
     7
370
    13
100
AcDbText
 10
38.472005
 20
-51.335292
 30
0.0
 40
0.050625
  1
6'-3"
 41
0.9
  7
Style-Arial
100
AcDbText
  0
TEXT
  5
218
330
4AB
100
AcDbEntity
  8
DIM
  6
Continuous
 62
     7
370
    13
100
AcDbText
 10
39.630824
 20
-51.335031
 30
0.0
 40
0.050625
  1
6'-3"
 41
0.9
  7
Style-Arial
100
AcDbText
  0
TEXT
  5
28D
330
4AB
100
AcDbEntity
  8
DIM
  6
Continuous
 62
     7
370
    13
100
AcDbText
 10
32.756098
 20
-53.16024
 30
0.0
 40
0.050625
  1
1/2" STEEL PLATE
 41
0.9
  7
Style-Arial
100
AcDbText
  0
TEXT
  5
291
330
4AB
100
AcDbEntity
  8
TEXT
  6
Continuous
 62
     7
370
    13
100
AcDbText
 10
33.642571
 20
-53.466146
 30
0.0
 40
0.050625
  1
FOR 5/8" POST
 41
0.9
  7
Style-Arial
100
AcDbText
  0
TEXT
  5
292
330
4AB
100
AcDbEntity
  8
TEXT
  6
Continuous
 62
     7
370
    13
100
AcDbText
 10
33.642283
 20
-53.385188
 30
0.0
 40
0.050625
  1
3/4" HOLE DRILLED
 41
0.9
  7
Style-Arial
100
AcDbText
  0
TEXT
  5
299
330
4AB
100
AcDbEntity
  8
DIM
  6
Continuous
 62
     7
370
    13
100
AcDbText
 10
33.347667
 20
-54.097604
 30
0.0
 40
0.050625
  1
6"
 41
0.9
  7
Style-Arial
100
AcDbText
  0
TEXT
  5
29F
330
4AB
100
AcDbEntity
  8
DIM
  6
Continuous
 62
     7
370
    13
100
AcDbText
 10
33.656229
 20
-53.842376
 30
0.0
 40
0.050625
  1
6-1/2"
 50
90.0
 41
0.9
  7
Style-Arial
100
AcDbText
  0
TEXT
  5
2A5
330
4AB
100
AcDbEntity
  8
DIM
  6
Continuous
 62
     7
370
    13
100
AcDbText
 10
33.027437
 20
-53.648146
 30
0.0
 40
0.050625
  1
13"
 50
90.0
 41
0.9
  7
Style-Arial
100
AcDbText
  0
TEXT
  5
2B6
330
4AB
100
AcDbEntity
  8
DIM
  6
Continuous
 62
     7
370
    13
100
AcDbText
 10
34.718104
 20
-53.229615
 30
0.0
 40
0.050625
  1
2"
 50
90.0
 41
0.9
  7
Style-Arial
100
AcDbText
  0
TEXT
  5
2BA
330
4AB
100
AcDbEntity
  8
DIM
  6
Continuous
 62
     7
370
    13
100
AcDbText
 10
34.729208
 20
-53.493875
 30
0.0
 40
0.050625
  1
9"
 50
90.0
 41
0.9
  7
Style-Arial
100
AcDbText
  0
TEXT
  5
2FF
330
4AB
100
AcDbEntity
  8
TEXT
  6
Continuous
 62
     7
370
    13
100
AcDbText
 10
36.801264
 20
-54.438365
 30
0.0
 40
0.050625
  1
ON BOLT
 41
0.9
  7
Style-Arial
100
AcDbText
  0
TEXT
  5
303
330
4AB
100
AcDbEntity
  8
TEXT
  6
Continuous
 62
     7
370
    13
100
AcDbText
 10
36.557135
 20
-53.836365
 30
0.0
 40
0.050625
  1
8 GUAGE
 41
0.9
  7
Style-Arial
100
AcDbText
  0
TEXT
  5
306
330
4AB
100
AcDbEntity
  8
LEGEND
  6
Continuous
 62
     7
370
    13
100
AcDbText
 10
32.826985
 20
-52.766656
 30
0.0
 40
0.050625
  1
NOTE: ALT STEEL POSTS AND OFFSET BRACKETS DETAIL
 41
0.9
  7
Style-Arial
100
AcDbText
  0
TEXT
  5
307
330
4AB
100
AcDbEntity
  8
LEGEND
  6
Continuous
 62
     7
370
    13
100
AcDbText
 10
33.02949
 20
-52.847615
 30
0.0
 40
0.050625
  1
ON FIGURE 2-30g MAY BE SUBSITITUTED FOR DESIGNS
 41
0.9
  7
Style-Arial
100
AcDbText
  0
TEXT
  5
308
330
4AB
100
AcDbEntity
  8
LEGEND
  6
Continuous
 62
     7
370
    13
100
AcDbText
 10
33.02949
 20
-52.928573
 30
0.0
 40
0.050625
  1
SHOWN HEREON
 41
0.9
  7
Style-Arial
100
AcDbText
  0
TEXT
  5
320
330
4AB
100
AcDbEntity
  8
DIM
  6
Continuous
 62
     7
370
    13
100
AcDbText
 10
34.883664
 20
-49.719271
 30
0.0
 40
0.050625
  1
1/8"
 41
0.9
  7
Style-Arial
100
AcDbText
  0
TEXT
  5
334
330
4AB
100
AcDbEntity
  8
DIM
  6
Continuous
 62
     7
370
    13
100
AcDbText
 10
35.981562
 20
-49.434312
 30
0.0
 40
0.050625
  1
10-3/8"
 41
0.9
  7
Style-Arial
100
AcDbText
  0
TEXT
  5
348
330
4AB
100
AcDbEntity
  8
DIM
  6
Continuous
 62
     7
370
    13
100
AcDbText
 10
37.17349
 20
-49.533281
 30
0.0
 40
0.050625
  1
13"
 41
0.9
  7
Style-Arial
100
AcDbText
  0
TEXT
  5
3A9
330
4AB
100
AcDbEntity
  8
LEGEND
  6
Continuous
 62
     7
370
    13
100
AcDbText
 10
38.533963
 20
-51.808854
 30
0.0
 40
0.050625
  1
NOTES: ON MEDIAN BARRIER INSTALLATION USING CONCRETE
 41
0.9
  7
Style-Arial
100
AcDbText
  0
TEXT
  5
3AA
330
4AB
100
AcDbEntity
  8
LEGEND
  6
Continuous
 62
     7
370
    13
100
AcDbText
 10
38.789115
 20
-51.889802
 30
0.0
 40
0.050625
  1
OR WOOD POSTS, THE LAST 6 POSTS ARE TO BE REPLACED
 41
0.9
  7
Style-Arial
100
AcDbText
  0
TEXT
  5
3AB
330
4AB
100
AcDbEntity
  8
LEGEND
  6
Continuous
 62
     7
370
    13
100
AcDbText
 10
38.789115
 20
-51.970771
 30
0.0
 40
0.050625
  1
AS DETAIL WITH W6x8.5 I BEAMS
 41
0.9
  7
Style-Arial
100
AcDbText
  0
TEXT
  5
3AC
330
4AB
100
AcDbEntity
  8
LEGEND
  6
Continuous
 62
     7
370
    13
100
AcDbText
 10
38.789115
 20
-52.132677
 30
0.0
 40
0.050625
  1
TERMINAL TREATMENT IS SHOWN TO BE USED ON
 41
0.9
  7
Style-Arial
100
AcDbText
  0
TEXT
  5
3AD
330
4AB
100
AcDbEntity
  8
LEGEND
  6
Continuous
 62
     7
370
    13
100
AcDbText
 10
38.789115
 20
-52.213646
 30
0.0
 40
0.050625
  1
ALL MEDIAN BARRIER INSTALLATIONS.
 41
0.9
  7
Style-Arial
100
AcDbText
  0
TEXT
  5
3AE
330
4AB
100
AcDbEntity
  8
LEGEND
  6
Continuous
 62
     7
370
    13
100
AcDbText
 10
38.789115
 20
-52.375563
 30
0.0
 40
0.050625
  1
BASIS OF PAYMENT "MEDIAN BARRIER TERMINAL,
 41
0.9
  7
Style-Arial
100
AcDbText
  0
TEXT
  5
3AF
330
4AB
100
AcDbEntity
  8
LEGEND
  6
Continuous
 62
     7
370
    13
100
AcDbText
 10
38.789115
 20
-52.456521
 30
0.0
 40
0.050625
  1
COMPLETE" -TO INCLUDE ENTIRE 37'-5" INSTALLATION
 41
0.9
  7
Style-Arial
100
AcDbText
  0
TEXT
  5
3B0
330
4AB
100
AcDbEntity
  8
LEGEND
  6
Continuous
 62
     7
370
    13
100
AcDbText
 10
38.789115
 20
-52.537479
 30
0.0
 40
0.050625
  1
AS DETAIL HEREON. 
 41
0.9
  7
Style-Arial
100
AcDbText
  0
TEXT
  5
3B1
330
4AB
100
AcDbEntity
  8
LEGEND
  6
Continuous
 62
     7
370
    13
100
AcDbText
 10
38.789115
 20
-52.699396
 30
0.0
 40
0.050625
  1
THE RAIL ELEMENT SHALL BE 12 GUAGE UNLESS OTHERWISE
 41
0.9
  7
Style-Arial
100
AcDbText
  0
TEXT
  5
3B2
330
4AB
100
AcDbEntity
  8
LEGEND
  6
Continuous
 62
     7
370
    13
100
AcDbText
 10
38.789115
 20
-52.780354
 30
0.0
 40
0.050625
  1
NOTED ON PLAN. POSTS, PLATES, AND ALL BOLTS,
 41
0.9
  7
Style-Arial
100
AcDbText
  0
TEXT
  5
3B3
330
4AB
100
AcDbEntity
  8
LEGEND
  6
Continuous
 62
     7
370
    13
100
AcDbText
 10
38.789115
 20
-52.861312
 30
0.0
 40
0.050625
  1
NUTS, AND WASHERS ARE TO BE GALVANIZED IN ACCORDANCE
 41
0.9
  7
Style-Arial
100
AcDbText
  0
TEXT
  5
3B4
330
4AB
100
AcDbEntity
  8
LEGEND
  6
Continuous
 62
     7
370
    13
100
AcDbText
 10
38.789115
 20
-52.942271
 30
0.0
 40
0.050625
  1
WITH THE SPECIFICATIONS.
 41
0.9
  7
Style-Arial
100
AcDbText
  0
TEXT
  5
3B5
330
4AB
100
AcDbEntity
  8
LEGEND
  6
Continuous
 62
     7
370
    13
100
AcDbText
 10
38.789115
 20
-53.104187
 30
0.0
 40
0.050625
  1
THE GUARD RAIL COMPONENTS DEPICTED IN A.R.B.A. TECHNICAL
 41
0.9
  7
Style-Arial
100
AcDbText
  0
TEXT
  5
3B6
330
4AB
100
AcDbEntity
  8
LEGEND
  6
Continuous
 62
     7
370
    13
100
AcDbText
 10
38.789115
 20
-53.185146
 30
0.0
 40
0.050625
  1
BULLETIN NUMBER 268 MAY BE SUBSITITUTED IF INTERCHANGE-
 41
0.9
  7
Style-Arial
100
AcDbText
  0
TEXT
  5
3B7
330
4AB
100
AcDbEntity
  8
LEGEND
  6
Continuous
 62
     7
370
    13
100
AcDbText
 10
38.789115
 20
-53.266104
 30
0.0
 40
0.050625
  1
ABLE WITH THIS STANDARD AND IF APPROVED BY THE ENGINEER.
 41
0.9
  7
Style-Arial
100
AcDbText
  0
TEXT
  5
403
330
4AB
100
AcDbEntity
  8
TEXT
  6
Continuous
 62
     7
370
    13
100
AcDbText
 10
35.298427
 20
-48.715937
 30
0.0
 40
0.050625
  1
W8x10x13" OR W6x8.5x13" OFFSET BRACKETS TO BE CUT ON
 41
0.9
  7
Style-Arial
100
AcDbText
  0
TEXT
  5
404
330
4AB
100
AcDbEntity
  8
TEXT
  6
Continuous
 62
     7
370
    13
100
AcDbText
 10
35.298427
 20
-48.796885
 30
0.0
 40
0.050625
  1
ANGLE INDICATED AND 13"x6"x1/2" STEEL PLATE WELDED ON.
 41
0.9
  7
Style-Arial
100
AcDbText
  0
TEXT
  5
405
330
4AB
100
AcDbEntity
  8
TEXT
  6
Continuous
 62
     7
370
    13
100
AcDbText
 10
35.298427
 20
-48.877844
 30
0.0
 40
0.050625
  1
PLATES TO BE DRILLED FOR 5/8" BOLT ASSEMBLY.
 41
0.9
  7
Style-Arial
100
AcDbText
  0
TEXT
  5
442
330
4AB
100
AcDbEntity
  8
DIM
  6
Continuous
 62
     7
370
    13
100
AcDbText
 10
33.636427
 20
-53.165521
 30
0.0
 40
0.050625
  1
1/ "
 41
0.9
  7
Style-Arial
100
AcDbText
  0
TEXT
  5
443
330
4AB
100
AcDbEntity
  8
DIM
  6
Continuous
 62
     7
370
    13
100
AcDbText
 10
33.710187
 20
-53.165531
 30
0.0
 40
0.050625
  1
2
 41
0.9
  7
Style-Arial
100
AcDbText
  0
TEXT
  5
444
330
4AB
100
AcDbEntity
  8
DIM
  6
Continuous
 62
     7
370
    13
100
AcDbText
 10
35.447208
 20
-53.481271
 30
0.0
 40
0.050625
  1
6"
 50
90.0
 41
0.9
  7
Style-Arial
100
AcDbText
  0
TEXT
  5
445
330
4AB
100
AcDbEntity
  8
HATCH
  6
Continuous
 62
     7
370
    13
100
AcDbText
 10
32.542479
 20
-54.852708
 30
0.0
 40
0.050625
  1
REFERENCE:  FOR MORE INFORMATION ON GUARD RAILS
 41
0.9
  7
Style-Arial
100
AcDbText
  0
TEXT
  5
495
330
4AB
100
AcDbEntity
  8
DIM
  6
Continuous
 62
     7
370
    13
100
AcDbText
 10
35.984065
 20
-49.219333
 30
0.0
 40
0.050625
  1
1/8"
 41
0.9
  7
Style-Arial
100
AcDbText
  0
TEXT
  5
496
330
4AB
100
AcDbEntity
  8
DIM
  6
Continuous
 62
     7
370
    13
100
AcDbText
 10
35.224424
 20
-49.568249
 30
0.0
 40
0.050625
  1
1/8"
 41
0.9
  7
Style-Arial
100
AcDbText
  0
TEXT
  5
2AD
330
4AB
100
AcDbEntity
  8
TITLE
  6
Continuous
 62
     7
370
    13
100
AcDbText
 10
32.941174
 20
-54.376802
 30
0.0
 40
0.113906
  1
DETAIL OF
 41
0.9
  7
Style-Arial
100
AcDbText
  0
TEXT
  5
2B5
330
4AB
100
AcDbEntity
  8
TITLE
  6
Continuous
 62
     7
370
    13
100
AcDbText
 10
32.872044
 20
-54.555528
 30
0.0
 40
0.113906
  1
STEEL PLATE
 41
0.9
  7
Style-Arial
100
AcDbText
  0
TEXT
  5
E3
330
4AB
100
AcDbEntity
  8
TITLE
  6
Continuous
 62
     7
370
    13
100
AcDbText
 10
35.960904
 20
-54.889187
 30
0.0
 40
0.113906
  1
BOLT AND
 41
0.9
  7
Style-Arial
100
AcDbText
  0
TEXT
  5
2FE
330
4AB
100
AcDbEntity
  8
TITLE
  6
Continuous
 62
     7
370
    13
100
AcDbText
 10
35.797361
 20
-55.081012
 30
0.0
 40
0.113906
  1
WASHER DETAIL
 41
0.9
  7
Style-Arial
100
AcDbText
  0
TEXT
  5
BF
330
4AB
100
AcDbEntity
  8
TITLE
  6
Continuous
 62
     7
370
    13
100
AcDbText
 10
37.629691
 20
-54.830437
 30
0.0
 40
0.113906
  1
DETAIL OF
 41
0.9
  7
Style-Arial
100
AcDbText
  0
TEXT
  5
BE
330
4AB
100
AcDbEntity
  8
TITLE
  6
Continuous
 62
     7
370
    13
100
AcDbText
 10
37.501805
 20
-55.043983
 30
0.0
 40
0.113906
  1
RAIL ELEMENT
 41
0.9
  7
Style-Arial
100
AcDbText
  0
TEXT
  5
182
330
4AB
100
AcDbEntity
  8
TITLE
  6
Continuous
 62
     7
370
    13
100
AcDbText
 10
39.437556
 20
-54.959969
 30
0.0
 40
0.113906
  1
SPLICE DETAIL
 41
0.9
  7
Style-Arial
100
AcDbText
  0
TEXT
  5
6D
330
4AB
100
AcDbEntity
  8
2-30K
  6
Continuous
 62
     7
370
    13
100
AcDbText
 10
39.65394
 20
-55.430692
 30
0.0
 40
0.075937
  1
DATE
 41
0.9
  7
Style-Arial
100
AcDbText
  0
TEXT
  5
6F
330
4AB
100
AcDbEntity
  8
2-30K
  6
Continuous
 62
     7
370
    13
100
AcDbText
 10
40.743481
 20
-55.423783
 30
0.0
 40
0.075937
  1
FIGURE
 41
0.9
  7
Style-Arial
100
AcDbText
  0
TEXT
  5
70
330
4AB
100
AcDbEntity
  8
2-30K
  6
Continuous
 62
     7
370
    13
100
AcDbText
 10
40.805974
 20
-55.549015
 30
0.0
 40
0.075937
  1
2-30n
 41
0.9
  7
Style-Arial
100
AcDbText
  0
TEXT
  5
402
330
4AB
100
AcDbEntity
  8
_0
  6
Continuous
 62
     7
370
    13
100
AcDbText
 10
35.930636
 20
-52.564729
 30
0.0
 40
0.113906
  1
PLAN VIEW
 41
0.9
  7
Style-Arial
100
AcDbText
  0
TEXT
  5
19D
330
4AB
100
AcDbEntity
  8
_0
  6
Continuous
 62
     7
370
    13
100
AcDbText
 10
36.070014
 20
-51.885329
 30
0.0
 40
0.113906
  1
ELEVATION
 41
0.9
  7
Style-Arial
100
AcDbText
  0
TEXT
  5
19A
330
4AB
100
AcDbEntity
  8
TITLE
  6
Continuous
 62
     7
370
    13
100
AcDbText
 10
35.411451
 20
-49.98737
 30
0.0
 40
0.113906
  1
TYPICAL WELD
 41
0.9
  7
Style-Arial
100
AcDbText
  0
TEXT
  5
19B
330
4AB
100
AcDbEntity
  8
_0
  6
Continuous
 62
     7
370
    13
100
AcDbText
 10
33.122729
 20
-49.281594
 30
0.0
 40
0.075937
  1
NORMAL
 41
0.9
  7
Style-Arial
100
AcDbText
  0
TEXT
  5
19C
330
4AB
100
AcDbEntity
  8
TEXT
  6
Continuous
 62
     7
370
    13
100
AcDbText
 10
32.800167
 20
-50.375068
 30
0.0
 40
0.075937
  1
REGULAR SECTION
 41
0.9
  7
Style-Arial
100
AcDbText
  0
TEXT
  5
6B
330
4AB
100
AcDbEntity
  8
TITLE
  6
Continuous
 62
     7
370
    13
100
AcDbText
 10
33.490659
 20
-55.503133
 30
0.0
 40
0.10125
  1
TYPICAL TERMINAL TREATMENT FOR OFFSET WITH BEAM MEDIAN BARRIER
 41
0.9
  7
Style-Arial
100
AcDbText
  0
ENDSEC
  0
SECTION
  2
OBJECTS
  0
DICTIONARY
  5
49F
330
0
100
AcDbDictionary
281
     1
  3
ACAD_COLOR
350
4BE
  3
ACAD_GROUP
350
4BB
  3
ACAD_LAYOUT
350
4AF
  3
ACAD_MATERIAL
350
4BD
  3
ACAD_MLINESTYLE
350
4A9
  3
ACAD_PLOTSETTINGS
350
4BC
  3
ACAD_PLOTSTYLENAME
350
49E
  3
ACAD_TABLESTYLE
350
4D8
  3
AcadDim
350
4CB
  3
MicroStation
350
4C3
  0
DICTIONARY
  5
49B
330
49A
100
AcDbDictionary
280
     1
281
     1
  3
ACAD_LAYERFILTERS
360
4C2
  3
ACAD_LAYERSTATES
360
49C
  0
DICTIONARY
  5
4D4
330
4AB
100
AcDbDictionary
280
     1
281
     1
  3
ACAD_SORTENTS
360
4D5
  0
DICTIONARY
  5
4BE
102
{ACAD_REACTORS
330
49F
102
}
330
49F
100
AcDbDictionary
281
     1
  0
DICTIONARY
  5
4BB
102
{ACAD_REACTORS
330
49F
102
}
330
49F
100
AcDbDictionary
281
     1
  0
DICTIONARY
  5
4AF
102
{ACAD_REACTORS
330
49F
102
}
330
49F
100
AcDbDictionary
281
     1
  3
Layout1
350
4B3
  3
Model
350
4AE
  0
DICTIONARY
  5
4BD
102
{ACAD_REACTORS
330
49F
102
}
330
49F
100
AcDbDictionary
281
     1
  0
DICTIONARY
  5
4A9
102
{ACAD_REACTORS
330
49F
102
}
330
49F
100
AcDbDictionary
281
     1
  3
Standard
350
4A8
  0
DICTIONARY
  5
4BC
102
{ACAD_REACTORS
330
49F
102
}
330
49F
100
AcDbDictionary
281
     1
  0
ACDBDICTIONARYWDFLT
  5
49E
102
{ACAD_REACTORS
330
49F
102
}
330
49F
100
AcDbDictionary
281
     1
  3
Normal
350
49D
100
AcDbDictionaryWithDefault
340
49D
  0
DICTIONARY
  5
4D8
102
{ACAD_REACTORS
330
49F
102
}
330
49F
100
AcDbDictionary
281
     1
  0
XRECORD
  5
4CB
102
{ACAD_REACTORS
330
49F
102
}
330
49F
100
AcDbXrecord
280
     1
 90
   990106
  3
 
 60
     0
 61
     0
 62
     1
 63
     1
 64
     0
 65
     0
 66
     0
 67
     3
 68
     1
 69
     1
 70
     0
 71
     0
 72
     0
 40
0.0
170
     0
  0
DICTIONARY
  5
4C3
102
{ACAD_REACTORS
330
49F
102
}
330
49F
100
AcDbDictionary
281
     1
  3
ApplicationElement 1168
350
490
  3
ModelApplicationElement 0 1167
350
48F
  0
DICTIONARY
  5
4C2
102
{ACAD_REACTORS
330
49B
102
}
330
49B
100
AcDbDictionary
281
     1
  0
DICTIONARY
  5
49C
102
{ACAD_REACTORS
330
49B
102
}
330
49B
100
AcDbDictionary
281
     1
  0
SORTENTSTABLE
  5
4D5
102
{ACAD_REACTORS
330
4D4
102
}
330
4D4
100
AcDbSortentsTable
330
4AB
331
67
  5
3C5
331
68
  5
3C6
331
69
  5
67
331
6A
  5
68
331
6B
  5
496
331
6C
  5
69
331
6D
  5
431
331
6E
  5
6A
331
6F
  5
432
331
70
  5
437
331
71
  5
3C7
331
72
  5
6B
331
73
  5
6C
331
74
  5
3C8
331
75
  5
6D
331
76
  5
6E
331
77
  5
6F
331
78
  5
3C9
331
79
  5
70
331
7A
  5
71
331
7B
  5
72
331
7C
  5
73
331
7D
  5
3CA
331
7E
  5
74
331
7F
  5
75
331
80
  5
76
331
81
  5
77
331
82
  5
78
331
83
  5
79
331
84
  5
7A
331
85
  5
3CB
331
86
  5
7B
331
87
  5
7C
331
88
  5
7D
331
89
  5
7E
331
8A
  5
3CC
331
8B
  5
7F
331
8C
  5
80
331
8D
  5
81
331
8E
  5
82
331
8F
  5
83
331
90
  5
84
331
91
  5
85
331
92
  5
86
331
93
  5
87
331
94
  5
88
331
95
  5
89
331
96
  5
8A
331
97
  5
8B
331
98
  5
8C
331
99
  5
8D
331
9A
  5
8E
331
9B
  5
8F
331
9C
  5
90
331
9D
  5
91
331
9E
  5
92
331
9F
  5
93
331
A0
  5
94
331
A1
  5
95
331
A2
  5
96
331
A3
  5
97
331
A4
  5
98
331
A5
  5
99
331
A6
  5
9A
331
A7
  5
9B
331
A8
  5
9C
331
A9
  5
9D
331
AA
  5
9E
331
AB
  5
9F
331
AC
  5
A0
331
AD
  5
A1
331
AE
  5
A2
331
AF
  5
A3
331
B0
  5
A4
331
B1
  5
A5
331
B2
  5
A6
331
B3
  5
A7
331
B4
  5
A8
331
B5
  5
A9
331
B6
  5
AA
331
B7
  5
AB
331
B8
  5
AC
331
B9
  5
AD
331
BA
  5
AE
331
BB
  5
AF
331
BC
  5
3CD
331
BD
  5
3CE
331
BE
  5
42F
331
BF
  5
42E
331
C0
  5
B0
331
C1
  5
B1
331
C2
  5
B2
331
C3
  5
B3
331
C4
  5
B4
331
C5
  5
B5
331
C6
  5
B6
331
C7
  5
B7
331
C8
  5
B8
331
C9
  5
B9
331
CA
  5
BA
331
CB
  5
BB
331
CC
  5
BC
331
CD
  5
BD
331
CE
  5
BE
331
CF
  5
BF
331
D0
  5
C0
331
D1
  5
C1
331
D2
  5
C2
331
D3
  5
C3
331
D4
  5
C4
331
D5
  5
C5
331
D6
  5
C6
331
D7
  5
C7
331
D8
  5
C8
331
D9
  5
C9
331
DA
  5
CA
331
DB
  5
CB
331
DC
  5
CC
331
DD
  5
CD
331
DE
  5
CE
331
DF
  5
CF
331
E0
  5
D0
331
E1
  5
D1
331
E2
  5
D2
331
E3
  5
42C
331
E4
  5
3CF
331
E5
  5
D3
331
E6
  5
D4
331
E7
  5
D5
331
E8
  5
D6
331
E9
  5
D7
331
EA
  5
3D0
331
EB
  5
D8
331
EC
  5
D9
331
ED
  5
DA
331
EE
  5
DB
331
EF
  5
DC
331
F0
  5
3D1
331
F1
  5
3D2
331
F2
  5
DD
331
F3
  5
DE
331
F4
  5
DF
331
F5
  5
E0
331
F6
  5
E1
331
F7
  5
E2
331
F8
  5
E3
331
F9
  5
E4
331
FA
  5
E5
331
FB
  5
E6
331
FC
  5
3D3
331
FD
  5
3D4
331
FE
  5
E7
331
FF
  5
E8
331
100
  5
E9
331
101
  5
EA
331
102
  5
EB
331
103
  5
EC
331
104
  5
ED
331
105
  5
EE
331
106
  5
EF
331
107
  5
F0
331
108
  5
F1
331
119
  5
F2
331
11A
  5
F3
331
11B
  5
F4
331
11C
  5
F5
331
11D
  5
F6
331
11E
  5
F7
331
11F
  5
F8
331
120
  5
F9
331
121
  5
FA
331
122
  5
FB
331
123
  5
FC
331
124
  5
FD
331
125
  5
3D5
331
126
  5
3D6
331
127
  5
3D7
331
128
  5
FE
331
129
  5
FF
331
12A
  5
100
331
12B
  5
101
331
12C
  5
3D8
331
12D
  5
3D9
331
12E
  5
102
331
12F
  5
103
331
130
  5
104
331
131
  5
105
331
132
  5
106
331
133
  5
107
331
134
  5
108
331
135
  5
119
331
136
  5
11A
331
137
  5
11B
331
138
  5
3DA
331
139
  5
11C
331
13A
  5
11D
331
13B
  5
11E
331
13C
  5
11F
331
13D
  5
120
331
13E
  5
121
331
13F
  5
3DB
331
140
  5
3DC
331
141
  5
122
331
142
  5
123
331
143
  5
124
331
144
  5
125
331
145
  5
126
331
146
  5
127
331
147
  5
128
331
148
  5
129
331
149
  5
12A
331
14A
  5
12B
331
14B
  5
12C
331
14C
  5
12D
331
14D
  5
12E
331
14E
  5
12F
331
14F
  5
130
331
150
  5
131
331
151
  5
132
331
152
  5
133
331
153
  5
3DD
331
154
  5
3DE
331
155
  5
134
331
156
  5
135
331
157
  5
136
331
158
  5
137
331
159
  5
138
331
15A
  5
139
331
15B
  5
13A
331
15C
  5
13B
331
15D
  5
13C
331
15F
  5
13D
331
161
  5
13E
331
172
  5
13F
331
173
  5
140
331
174
  5
141
331
175
  5
142
331
176
  5
143
331
177
  5
144
331
178
  5
145
331
179
  5
146
331
17A
  5
3DF
331
17B
  5
147
331
17C
  5
148
331
17D
  5
149
331
17E
  5
14A
331
17F
  5
14B
331
180
  5
3E0
331
181
  5
3E1
331
182
  5
430
331
183
  5
3E2
331
184
  5
14C
331
185
  5
14D
331
186
  5
14E
331
187
  5
14F
331
188
  5
3E3
331
189
  5
3E4
331
18A
  5
150
331
18B
  5
151
331
18C
  5
3E5
331
18D
  5
152
331
18E
  5
3E6
331
18F
  5
3E7
331
190
  5
3E8
331
191
  5
153
331
192
  5
154
331
193
  5
155
331
194
  5
156
331
195
  5
3E9
331
196
  5
157
331
197
  5
158
331
198
  5
3EA
331
199
  5
3EB
331
19A
  5
444
331
19B
  5
445
331
19C
  5
495
331
19D
  5
443
331
19E
  5
3EC
331
19F
  5
159
331
1A0
  5
15A
331
1A1
  5
15B
331
1A2
  5
15C
331
1A3
  5
15D
331
1A4
  5
3ED
331
1A5
  5
15F
331
1A6
  5
161
331
1A7
  5
172
331
1A8
  5
173
331
1A9
  5
174
331
1AA
  5
175
331
1AB
  5
176
331
1AC
  5
177
331
1AD
  5
178
331
1AE
  5
179
331
1AF
  5
17A
331
1B0
  5
17B
331
1B1
  5
17C
331
1B2
  5
17D
331
1B3
  5
3EE
331
1B4
  5
17E
331
1B5
  5
17F
331
1B6
  5
180
331
1B7
  5
3EF
331
1B8
  5
181
331
1B9
  5
182
331
1BA
  5
183
331
1BB
  5
184
331
1BC
  5
185
331
1BD
  5
3F0
331
1BE
  5
186
331
1BF
  5
187
331
1C0
  5
188
331
1C1
  5
189
331
1C2
  5
18A
331
1C3
  5
18B
331
1C4
  5
3F1
331
1C5
  5
18C
331
1C6
  5
18D
331
1C7
  5
18E
331
1C8
  5
18F
331
1C9
  5
190
331
1CA
  5
191
331
1CB
  5
3F2
331
1CC
  5
192
331
1CD
  5
193
331
1CE
  5
194
331
1CF
  5
195
331
1D0
  5
196
331
1D1
  5
3F3
331
1D2
  5
197
331
1D3
  5
198
331
1D4
  5
199
331
1D5
  5
19A
331
1D6
  5
19B
331
1D7
  5
3F4
331
1D8
  5
19C
331
1D9
  5
19D
331
1DA
  5
19E
331
1DB
  5
19F
331
1DC
  5
1A0
331
1DD
  5
1A1
331
1DE
  5
1A2
331
1DF
  5
1A3
331
1E0
  5
3F5
331
1E1
  5
1A4
331
1E2
  5
1A5
331
1E3
  5
1A6
331
1E4
  5
1A7
331
1E5
  5
3F6
331
1E6
  5
1A8
331
1E7
  5
1A9
331
1E8
  5
1AA
331
1E9
  5
1AB
331
1EA
  5
1AC
331
1EB
  5
3F7
331
1EC
  5
1AD
331
1ED
  5
1AE
331
1EE
  5
1AF
331
1EF
  5
1B0
331
1F0
  5
1B1
331
1F1
  5
3F8
331
1F2
  5
3F9
331
1F3
  5
1B2
331
1F4
  5
1B3
331
1F5
  5
1B4
331
1F6
  5
1B5
331
1F7
  5
1B6
331
1F8
  5
1B7
331
1F9
  5
3FA
331
1FA
  5
3FB
331
1FB
  5
1B8
331
1FC
  5
1B9
331
1FD
  5
1BA
331
1FE
  5
3FC
331
1FF
  5
3FD
331
200
  5
3FE
331
201
  5
3FF
331
202
  5
400
331
203
  5
1BB
331
204
  5
1BC
331
205
  5
1BD
331
206
  5
1BE
331
207
  5
1BF
331
208
  5
1C0
331
209
  5
1C1
331
20A
  5
1C2
331
20B
  5
1C3
331
20C
  5
1C4
331
20D
  5
1C5
331
20E
  5
1C6
331
20F
  5
1C7
331
210
  5
1C8
331
211
  5
1C9
331
212
  5
1CA
331
213
  5
1CB
331
214
  5
1CC
331
215
  5
1CD
331
216
  5
1CE
331
217
  5
1CF
331
218
  5
401
331
219
  5
1D0
331
21A
  5
1D1
331
21B
  5
1D2
331
21C
  5
1D3
331
21D
  5
1D4
331
21E
  5
1D5
331
21F
  5
1D6
331
220
  5
1D7
331
221
  5
1D8
331
222
  5
1D9
331
223
  5
1DA
331
224
  5
1DB
331
225
  5
1DC
331
226
  5
1DD
331
227
  5
1DE
331
228
  5
1DF
331
229
  5
1E0
331
22A
  5
1E1
331
22B
  5
1E2
331
22C
  5
1E3
331
22D
  5
1E4
331
22E
  5
1E5
331
22F
  5
1E6
331
230
  5
1E7
331
231
  5
1E8
331
232
  5
1E9
331
233
  5
1EA
331
234
  5
1EB
331
235
  5
1EC
331
236
  5
1ED
331
237
  5
1EE
331
238
  5
1EF
331
239
  5
1F0
331
23A
  5
1F1
331
23B
  5
1F2
331
23C
  5
1F3
331
23D
  5
1F4
331
23E
  5
1F5
331
23F
  5
1F6
331
240
  5
1F7
331
241
  5
1F8
331
242
  5
1F9
331
243
  5
1FA
331
244
  5
1FB
331
245
  5
1FC
331
246
  5
1FD
331
247
  5
1FE
331
248
  5
1FF
331
249
  5
200
331
24A
  5
201
331
24B
  5
202
331
24C
  5
203
331
24D
  5
204
331
24E
  5
205
331
24F
  5
206
331
250
  5
207
331
251
  5
208
331
252
  5
209
331
253
  5
20A
331
254
  5
20B
331
255
  5
20C
331
256
  5
20D
331
257
  5
20E
331
258
  5
20F
331
259
  5
210
331
25A
  5
211
331
25B
  5
212
331
25C
  5
213
331
25D
  5
214
331
25E
  5
215
331
25F
  5
216
331
260
  5
217
331
261
  5
218
331
262
  5
219
331
263
  5
21A
331
264
  5
21B
331
265
  5
21C
331
266
  5
21D
331
267
  5
21E
331
268
  5
21F
331
269
  5
220
331
26A
  5
221
331
26B
  5
222
331
26C
  5
223
331
26D
  5
224
331
26E
  5
225
331
26F
  5
226
331
270
  5
227
331
271
  5
228
331
272
  5
229
331
273
  5
22A
331
274
  5
22B
331
275
  5
22C
331
276
  5
22D
331
277
  5
22E
331
278
  5
22F
331
279
  5
230
331
27A
  5
231
331
27B
  5
232
331
27C
  5
233
331
27D
  5
234
331
27E
  5
235
331
27F
  5
236
331
280
  5
237
331
281
  5
238
331
282
  5
239
331
284
  5
23A
331
285
  5
23B
331
286
  5
23C
331
287
  5
23D
331
289
  5
23E
331
28A
  5
23F
331
28B
  5
240
331
28C
  5
241
331
28D
  5
402
331
28E
  5
242
331
28F
  5
243
331
290
  5
244
331
291
  5
403
331
292
  5
404
331
293
  5
245
331
294
  5
246
331
295
  5
247
331
296
  5
248
331
297
  5
249
331
298
  5
24A
331
299
  5
405
331
29A
  5
24B
331
29B
  5
24C
331
29C
  5
24D
331
29D
  5
24E
331
29E
  5
24F
331
29F
  5
406
331
2A0
  5
250
331
2A1
  5
251
331
2A2
  5
252
331
2A3
  5
253
331
2A4
  5
254
331
2A5
  5
407
331
2A6
  5
255
331
2A7
  5
256
331
2A8
  5
257
331
2A9
  5
258
331
2AA
  5
259
331
2AB
  5
25A
331
2AC
  5
25B
331
2AD
  5
42A
331
2AE
  5
25C
331
2AF
  5
25D
331
2B0
  5
25E
331
2B1
  5
25F
331
2B2
  5
260
331
2B3
  5
261
331
2B4
  5
262
331
2B5
  5
42B
331
2B6
  5
408
331
2B7
  5
263
331
2B8
  5
264
331
2B9
  5
265
331
2BA
  5
409
331
2BB
  5
266
331
2BC
  5
267
331
2BD
  5
268
331
2BE
  5
269
331
2BF
  5
26A
331
2C0
  5
26B
331
2C1
  5
26C
331
2C2
  5
26D
331
2C3
  5
26E
331
2C4
  5
26F
331
2C5
  5
270
331
2C6
  5
271
331
2C7
  5
272
331
2C8
  5
273
331
2C9
  5
274
331
2CA
  5
275
331
2CB
  5
276
331
2CC
  5
277
331
2CD
  5
278
331
2CE
  5
279
331
2CF
  5
27A
331
2D0
  5
27B
331
2D1
  5
27C
331
2D2
  5
27D
331
2D3
  5
27E
331
2D4
  5
27F
331
2D5
  5
280
331
2D6
  5
281
331
2D7
  5
282
331
2D8
  5
284
331
2D9
  5
285
331
2DA
  5
286
331
2DB
  5
287
331
2DC
  5
289
331
2DD
  5
28A
331
2DE
  5
28B
331
2DF
  5
28C
331
2E0
  5
28D
331
2E1
  5
28E
331
2E2
  5
28F
331
2E3
  5
290
331
2E4
  5
291
331
2E5
  5
292
331
2E6
  5
293
331
2E7
  5
294
331
2E8
  5
295
331
2E9
  5
296
331
2EA
  5
297
331
2EB
  5
298
331
2EC
  5
299
331
2ED
  5
29A
331
2EE
  5
29B
331
2EF
  5
29C
331
2F0
  5
29D
331
2F1
  5
29E
331
2F2
  5
29F
331
2F3
  5
2A0
331
2F4
  5
2A1
331
2F5
  5
2A2
331
2F6
  5
2A3
331
2F7
  5
2A4
331
2F8
  5
2A5
331
2F9
  5
2A6
331
2FA
  5
2A7
331
2FB
  5
2A8
331
2FC
  5
2A9
331
2FD
  5
2AA
331
2FE
  5
42D
331
2FF
  5
40A
331
300
  5
2AB
331
301
  5
2AC
331
302
  5
2AD
331
303
  5
40B
331
304
  5
2AE
331
305
  5
2AF
331
306
  5
40C
331
307
  5
40D
331
308
  5
40E
331
309
  5
2B0
331
30A
  5
2B1
331
30B
  5
2B2
331
30C
  5
2B3
331
30D
  5
2B4
331
30E
  5
2B5
331
30F
  5
2B6
331
310
  5
2B7
331
311
  5
2B8
331
312
  5
2B9
331
313
  5
2BA
331
314
  5
2BB
331
315
  5
2BC
331
316
  5
2BD
331
317
  5
2BE
331
318
  5
2BF
331
319
  5
2C0
331
31A
  5
2C1
331
31B
  5
2C2
331
31C
  5
2C3
331
31D
  5
2C4
331
31E
  5
2C5
331
31F
  5
2C6
331
320
  5
40F
331
321
  5
2C7
331
322
  5
2C8
331
323
  5
2C9
331
324
  5
2CA
331
325
  5
2CB
331
326
  5
2CC
331
327
  5
2CD
331
328
  5
2CE
331
329
  5
2CF
331
32A
  5
2D0
331
32B
  5
2D1
331
32C
  5
2D2
331
32D
  5
2D3
331
32E
  5
2D4
331
32F
  5
2D5
331
330
  5
2D6
331
331
  5
2D7
331
332
  5
2D8
331
333
  5
2D9
331
334
  5
410
331
335
  5
2DA
331
336
  5
2DB
331
337
  5
2DC
331
338
  5
2DD
331
339
  5
2DE
331
33A
  5
2DF
331
33B
  5
2E0
331
33C
  5
2E1
331
33D
  5
2E2
331
33E
  5
2E3
331
33F
  5
2E4
331
340
  5
2E5
331
341
  5
2E6
331
342
  5
2E7
331
343
  5
2E8
331
344
  5
2E9
331
345
  5
2EA
331
346
  5
2EB
331
347
  5
2EC
331
348
  5
411
331
349
  5
2ED
331
34A
  5
2EE
331
34B
  5
2EF
331
34C
  5
2F0
331
34D
  5
2F1
331
34E
  5
2F2
331
34F
  5
2F3
331
350
  5
2F4
331
351
  5
2F5
331
352
  5
2F6
331
353
  5
2F7
331
354
  5
2F8
331
355
  5
2F9
331
356
  5
2FA
331
357
  5
2FB
331
358
  5
2FC
331
359
  5
2FD
331
35A
  5
2FE
331
35B
  5
2FF
331
35C
  5
300
331
35D
  5
301
331
35E
  5
302
331
35F
  5
303
331
360
  5
304
331
361
  5
305
331
362
  5
306
331
363
  5
307
331
364
  5
308
331
365
  5
309
331
366
  5
30A
331
367
  5
30B
331
368
  5
30C
331
369
  5
30D
331
36A
  5
30E
331
36B
  5
30F
331
36C
  5
310
331
36D
  5
311
331
36E
  5
312
331
36F
  5
313
331
370
  5
314
331
371
  5
315
331
372
  5
316
331
373
  5
317
331
375
  5
318
331
376
  5
319
331
377
  5
31A
331
379
  5
31B
331
37A
  5
31C
331
37C
  5
31D
331
37D
  5
31E
331
37F
  5
31F
331
380
  5
320
331
381
  5
321
331
382
  5
322
331
383
  5
323
331
384
  5
324
331
385
  5
325
331
386
  5
326
331
387
  5
327
331
388
  5
328
331
389
  5
329
331
38A
  5
32A
331
38B
  5
32B
331
38C
  5
32C
331
38D
  5
32D
331
38E
  5
32E
331
38F
  5
32F
331
390
  5
330
331
391
  5
331
331
392
  5
332
331
393
  5
333
331
394
  5
334
331
395
  5
335
331
396
  5
336
331
397
  5
337
331
398
  5
338
331
399
  5
339
331
39A
  5
33A
331
39B
  5
33B
331
39C
  5
33C
331
39D
  5
33D
331
39E
  5
33E
331
39F
  5
33F
331
3A0
  5
340
331
3A1
  5
341
331
3A2
  5
342
331
3A3
  5
343
331
3A4
  5
344
331
3A5
  5
345
331
3A6
  5
346
331
3A7
  5
347
331
3A8
  5
348
331
3A9
  5
412
331
3AA
  5
413
331
3AB
  5
414
331
3AC
  5
415
331
3AD
  5
416
331
3AE
  5
417
331
3AF
  5
418
331
3B0
  5
419
331
3B1
  5
41A
331
3B2
  5
41B
331
3B3
  5
41C
331
3B4
  5
41D
331
3B5
  5
41E
331
3B6
  5
41F
331
3B7
  5
420
331
3B8
  5
349
331
3B9
  5
34A
331
3BA
  5
34B
331
3BB
  5
34C
331
3BC
  5
34D
331
3BD
  5
34E
331
3BE
  5
34F
331
3BF
  5
350
331
3C0
  5
351
331
3C1
  5
352
331
3C2
  5
353
331
3C3
  5
354
331
3C4
  5
355
331
3C5
  5
356
331
3C6
  5
357
331
3C7
  5
358
331
3C8
  5
359
331
3C9
  5
35A
331
3CA
  5
35B
331
3CB
  5
35C
331
3CC
  5
35D
331
3CD
  5
35E
331
3CE
  5
35F
331
3CF
  5
360
331
3D0
  5
361
331
3D1
  5
362
331
3D2
  5
363
331
3D3
  5
364
331
3D4
  5
365
331
3D5
  5
366
331
3D6
  5
367
331
3D7
  5
368
331
3D8
  5
369
331
3D9
  5
36A
331
3DA
  5
36B
331
3DB
  5
36C
331
3DC
  5
36D
331
3DD
  5
36E
331
3DE
  5
36F
331
3DF
  5
370
331
3E0
  5
371
331
3E1
  5
372
331
3E2
  5
373
331
3E3
  5
375
331
3E4
  5
376
331
3E5
  5
377
331
3E6
  5
379
331
3E7
  5
37A
331
3E8
  5
37C
331
3E9
  5
37D
331
3EA
  5
37F
331
3EB
  5
380
331
3EC
  5
381
331
3ED
  5
382
331
3EE
  5
383
331
3EF
  5
384
331
3F0
  5
385
331
3F1
  5
386
331
3F2
  5
387
331
3F3
  5
388
331
3F4
  5
389
331
3F5
  5
38A
331
3F6
  5
38B
331
3F7
  5
38C
331
3F8
  5
38D
331
3F9
  5
38E
331
3FA
  5
38F
331
3FB
  5
390
331
3FC
  5
391
331
3FD
  5
392
331
3FE
  5
393
331
3FF
  5
394
331
400
  5
395
331
401
  5
396
331
402
  5
442
331
403
  5
421
331
404
  5
422
331
405
  5
423
331
406
  5
397
331
407
  5
398
331
408
  5
399
331
409
  5
39A
331
40A
  5
39B
331
40B
  5
39C
331
40C
  5
39D
331
40D
  5
39E
331
40E
  5
39F
331
40F
  5
3A0
331
410
  5
3A1
331
411
  5
3A2
331
412
  5
3A3
331
413
  5
3A4
331
414
  5
3A5
331
415
  5
3A6
331
416
  5
3A7
331
417
  5
3A8
331
418
  5
3A9
331
419
  5
3AA
331
41A
  5
3AB
331
41B
  5
3AC
331
41C
  5
3AD
331
41D
  5
3AE
331
41E
  5
3AF
331
41F
  5
3B0
331
420
  5
3B1
331
421
  5
3B2
331
422
  5
3B3
331
423
  5
3B4
331
424
  5
3B5
331
425
  5
3B6
331
426
  5
3B7
331
427
  5
3B8
331
428
  5
3B9
331
429
  5
3BA
331
42A
  5
3BB
331
42B
  5
3BC
331
42C
  5
3BD
331
42D
  5
3BE
331
42E
  5
3BF
331
42F
  5
3C0
331
430
  5
3C1
331
431
  5
3C2
331
432
  5
3C3
331
437
  5
3C4
331
442
  5
424
331
443
  5
425
331
444
  5
426
331
445
  5
427
331
495
  5
428
331
496
  5
429
  0
LAYOUT
  5
4B3
102
{ACAD_REACTORS
330
4AF
330
4AF
102
}
102
{ACAD_XDICTIONARY
360
4B4
102
}
330
4AF
100
AcDbPlotSettings
  1

  2
none_device
  4
Letter_(8.50_x_11.00_Inches)
  6

 40
6.35
 41
6.35
 42
6.350006
 43
6.350006
 44
215.899994
 45
279.399994
 46
0.0
 47
0.0
 48
0.0
 49
0.0
140
0.0
141
0.0
142
1.0
143
1.0
 70
   688
 72
     0
 73
     1
 74
     5
  7

 75
    16
 76
     0
 77
     2
 78
   300
147
1.0
148
0.0
149
0.0
100
AcDbLayout
  1
Layout1
 70
     1
 71
     1
 10
-0.25
 20
-0.25
 11
10.75
 21
8.25
 12
0.0
 22
0.0
 32
0.0
 14
1.049744
 24
0.799667
 34
-0.001526
 15
9.450623
 25
7.200577
 35
0.0
146
0.0
 13
0.0
 23
0.0
 33
0.0
 16
1.0
 26
0.0
 36
0.0
 17
0.0
 27
1.0
 37
0.0
 76
     0
330
4B0
1001
ACAD_PSEXT
1000
None
1000
None
1000
Not applicable
1000
The layout will not be plotted unless a new plotter configuration name is selected.
1070
     0
  0
LAYOUT
  5
4AE
102
{ACAD_REACTORS
330
4AF
330
4AF
102
}
330
4AF
100
AcDbPlotSettings
  1

  2
none_device
  4
ANSI_A_(8.50_x_11.00_Inches)
  6

 40
6.35
 41
19.049999
 42
6.350006
 43
19.049988
 44
215.899994
 45
279.399994
 46
0.0
 47
0.0
 48
0.0
 49
0.0
140
0.0
141
0.0
142
1.0
143
2.584895
 70
 11952
 72
     0
 73
     1
 74
     0
  7

 75
     0
 76
     0
 77
     2
 78
   300
147
0.386863
148
0.0
149
0.0
100
AcDbLayout
  1
Model
 70
     1
 71
     0
 10
0.0
 20
0.0
 11
12.0
 21
9.0
 12
0.0
 22
0.0
 32
0.0
 14
0.0
 24
0.0
 34
0.0
 15
0.0
 25
0.0
 35
0.0
146
0.0
 13
0.0
 23
0.0
 33
0.0
 16
1.0
 26
0.0
 36
0.0
 17
0.0
 27
1.0
 37
0.0
 76
     0
330
4AB
331
49
  0
MLINESTYLE
  5
4A8
102
{ACAD_REACTORS
330
4A9
102
}
330
4A9
100
AcDbMlineStyle
  2
STANDARD
 70
     0
  3

 62
   256
 51
90.0
 52
90.0
 71
     2
 49
0.5
 62
   256
  6
BYLAYER
 49
-0.5
 62
   256
  6
BYLAYER
  0
ACDBPLACEHOLDER
  5
49D
102
{ACAD_REACTORS
330
49E
102
}
330
49E
  0
XRECORD
  5
490
102
{ACAD_REACTORS
330
4C3
102
}
330
4C3
100
AcDbXrecord
280
     1
310
3E4F020000004D6F64656C6572000000000000000000000000000000000000000000000000000000000000000000000000000000000000000000000000000000000000000000000000000000000000000000000000000000000000000000000000000000000000000000000000000000000000000000000000000000000000
310
00000000000000000000000000000000000000000000000000000000000000000000000000000000000000000000000000000000000000000000000000000000000000000000000000000000000000000000000000000000000000000000000000000000000000000000000000000000000000000000000000000000000000
310
00
310
00000000000000000000000000000000000000000000000000000000000000000000000000000000000000000000000000000000000000000000000000000000000000000000000000000000000000000000000000000000000000000000000000000000000000000000000000000000000000000000000000000000000000
310
00000000000000000000000000000000000000000000000000000000000000000000000000000000000000000000000000000000000000000000000000000000000000000000000000000000000000000000000000000000000000000000000000000000000000000000000000000000000000000000000000000000000000
310
00
310
00000000000000000000000000000000000000000000000000000000000000000000000000000000000000000000000000000000000000000000000000000000000000000000000000000000000000000000000000000000000000000000000000000000000000000000000000000000000000000000000000000000000000
310
00000000000000000000000000000000000000000000000000000000000000000000000000000000000000000000000000000000000000000000000000000000000000000000000000000000000000000000000000000000000000000000000000000000000000000000000000000000000000000000000000000000000000
310
00
310
00000000000000000000000000000000000000000000000000000000000000000000000000000000000000000000000000000000000000000000000000000000000000000000000000000000000000000000000000000000000000000000000000000000000000000000000000000000000000000000000000000000000000
310
00000000000000000000000000000000000000000000000000000000000000000000000000000000000000000000000000000000000000000000000000000000000000000000000000000000000000000000000000000000000000000000000000000000000000000000000000000000000000000000000000000000000000
310
00
310
00000000000000000000000000000000000000000000000000000000000000000000000000000000000000000000000000000000000000000000000000000000000000000000000000000000000000000000000000000000000000000000000000000000000000000000000000000000000000000000000000000000000000
310
00000000000000000000000000000000000000000000000000000000000000000000000000000000000000000000000000000000000000000000000000000000000000000000000000000000000000000000000000000000000000000000000000000000000000000000000000000000000000000000000000000000000000
310
00
310
00000000000000000000000000000000000000000000000000000000000000000000000000000000000000000000000000000000000000000000000000000000000000000000000000000000000000000000000000000000000000000000000000000000000000000000000000000000000000000000000000000000000000
310
00000000000000000000000000000000000000000000000000000000000000000000000000000000000000000000000000000000000000000000000000000000000000000000000000000000000000000000000000000000000000000000000000000000000000000000000000000000000000000000000000000000000000
310
00
310
00000000000000000000000000000000000000000000000000000000000000000000000000000000000000000000000000000000000000000000000000000000000000000000000000000000000000000000000000000000000000000000000000000000000000000000000000000000000000000000000000000000000000
310
00000000000000000000000000000000000000000000000000000000000000000000000000000000000000000000000000000000000000000000000000000000000000000000000000000000000000000000000000000000000000000000000000000000000000000000000000000000000000000000000000000000000000
310
00
310
00000000000000000000000000000000000000000000000000000000000000000000000000000000000000000000000000000000000000000000000000000000000000000000000000000000000000000000000000000000000000000000000000000000000000000000000000000000000000000000000000000000000000
310
00000000000000000000000000000000000000000000000000000000000000000000000000000000000000000000000000000000000000000000000000000000000000000000000000000000000000000000000000000000000000000000000000000000000000000000000000000000000000000000000000000000000000
310
00
310
00000000000000000000000000000000000000000000000000000000000000000000000000000000000000000000000000000000000000000000000000000000000000000000000000000000000000000000000000000000000000000000000000000000000000000000000000000000000000000000000000000000000000
310
00000000000000000000000000000000000000000000000000000000000000000000000000000000000000000000000000000000000000000000000000000000000000000000000000000000000000000000000000000000000000000000000000000000000000000000000000000000000000000000000000000000000000
310
00
310
00000000000000000000000000000000000000000000000000000000000000000000000000000000000000000000000000000000000000000000000000000000000000000000000000000000000000000000000000000000000000000000000000000000000000000000000000000000000000000000000000000000000000
310
00000000000000000000000000000000000000000000000000000000000000000000000000000000000000000000000000000000000000000000000000000000000000000000000000000000000000000000000000000000000000000000000000000000000000000000000000000000000000000000000000000000000000
310
00
310
00000000000000000000000000000000000000000000000000000000000000000000000000000000000000000000000000000000000000000000000000000000000000000000000000000000000000000000000000000000000000000000000000000000000000000000000000000000000000000000000000000000000000
310
00000000000000000000000000000000000000000000000000000000000000000000000000000000000000000000000000000000000000000000000000000000000000000000000000000000000000000000000000000000000000000000000000000000000000000000000000000000000000000000000000000000000000
310
00
310
00000000000000000000000000000000000000000000000000000000000000000000000000000000000000000000000000000000000000000000000000000000000000000000000000000000000000000000000000000000000000000000000000000000000000000000000000000000000000000000000000000000000000
310
00000000000000000000000000000000000000000000000000000000000000000000000000000000000000000000000000000000000000000000000000000000000000000000000000000000000000000000000000000000000000000000000000000000000000000000000000000000000000000000000000000000000000
310
00
310
00000000000000000000000000000000000000000000000000000000000000000000000000000000000000000000000000000000000000000000000000000000000000000000000000000000000000000000000000000000000000000000000000000000000000000000000000000000000000000000000000000000000000
310
00000000000000000000000000000000000000000000000000000000000000000000000000000000000000000000000000000000000000000000000000000000000000000000000000000000000000000000000000000000000000000000000000000000000000000000000000000000000000000000000000000000000000
310
00
310
00000000000000000000000000000000000000000000000000000000000000000000000000000000000000000000000000000000000000000000000000000000000000000000000000000000000000000000000000000000000000000000000000000000000000000000000000000000000000
  0
XRECORD
  5
48F
102
{ACAD_REACTORS
330
4C3
102
}
330
4C3
100
AcDbXrecord
280
     1
310
DF56060034040701D0009A9999999999B93F000000000000000000000000000000000400000009000000000000000200000064000000640000000100000001000000190000007B14AE47E17A843F00000000004060409A9999999999B93F00000000004C2D41000000000070F7400000000000942141000000000000000000
310
0000000000000000000000000000000AD482040000000000000000000000000000F03F000000000000000000000000000030402D431CEBE2362A3F00000000000008400000000000000000009807C000000000000000007C1A61B9A711364020000000050000000A000000200000002000000020000000000000000000F03F
310
00
310
0000000000F03F000000000000F03F333333333333D33F333333333333D33F333333333333D33F000000000000F43F000000000000F43F000000000000F03F0200000064000000000000000000000000000840000000000000F83F00000000000000000000000000000000008056409A9999999999B93F0000000000000000
310
00000000000000000000000000000000000000000000000000000000000000000000000000000000000000000000000000000000000000000000000000000000000000000000000000000000000000000000000000000000000000000000000000000000000000000000000000000000000000000000000000000000000000
310
00
310
0000000000000000000000000000000000000000000000000000000000000000000000000000000000000000000000000000000000000000000000000000000000000000000000000000000000000000000000000000000000000000000000000000000000000000000000000000000000000000000000009A9999999999A9
310
3F9100000000000000000000000000000035A781D547960F40000000000000F03F000000000000F03F666666666666164000000000104068F200000000000000000000000000000000000000000000000000000000000000000000000000000000000000000000000000000000000000000000000000000000000000000000
310
00
310
00000000000000000000000000000000000000000000000000000000000000000000000000000000000000000000000000000000000000000000000000000000000000000000000000000000000000000000000000000000000000000000000000000000000000000000000000000000000000000000000000000000000000
310
000000000000000000000000000000000000000000000000000000000000000000000000000000000000000000000000000000000000000000000000FF000000000000000000000000000000000000000000000000000000000000000000000000000000000000000000000000000000000000000000000000000000000000
310
00
310
0000000000000000000000000000000000000000000000000000000000000000000000000000000000000000000000000000000000000000000000000000000000000000
  0
DICTIONARY
  5
4B4
330
4B3
100
AcDbDictionary
280
     1
281
     1
  3
ADSK_XREC_LAYOUTTHUMBNAIL
360
4B5
  0
XRECORD
  5
4B5
102
{ACAD_REACTORS
330
4B4
102
}
330
4B4
100
AcDbXrecord
280
     1
310
28000000B40000008B0000000100080000000000BC61000000000000000000000001000000000000FFFFFF0000000000FFFFFF000000000000000000000000000000000000000000000000000000000000000000330000006600000099000000CC000000FF00000000330000333300006633000099330000CC330000FF3300
310
0000660000336600006666000099660000CC660000FF66000000990000339900006699000099990000CC990000FF99000000CC000033CC000066CC000099CC0000CCCC0000FFCC000000FF000033FF000066FF000099FF0000CCFF0000FFFF000000003300330033006600330099003300CC003300FF003300003333003333
310
33006633330099333300CC333300FF33330000663300336633006666330099663300CC663300FF66330000993300339933006699330099993300CC993300FF99330000CC330033CC330066CC330099CC3300CCCC3300FFCC330000FF330033FF330066FF330099FF3300CCFF3300FFFF330000006600330066006600660099
310
006600CC006600FF00660000336600333366006633660099336600CC336600FF33660000666600336666006666660099666600CC666600FF66660000996600339966006699660099996600CC996600FF99660000CC660033CC660066CC660099CC6600CCCC6600FFCC660000FF660033FF660066FF660099FF6600CCFF6600
310
FFFF660000009900330099006600990099009900CC009900FF00990000339900333399006633990099339900CC339900FF33990000669900336699006666990099669900CC669900FF66990000999900339999006699990099999900CC999900FF99990000CC990033CC990066CC990099CC9900CCCC9900FFCC990000FF99
310
0033FF990066FF990099FF9900CCFF9900FFFF99000000CC003300CC006600CC009900CC00CC00CC00FF00CC000033CC003333CC006633CC009933CC00CC33CC00FF33CC000066CC003366CC006666CC009966CC00CC66CC00FF66CC000099CC003399CC006699CC009999CC00CC99CC00FF99CC0000CCCC0033CCCC0066CC
310
CC0099CCCC00CCCCCC00FFCCCC0000FFCC0033FFCC0066FFCC0099FFCC00CCFFCC00FFFFCC000000FF003300FF006600FF009900FF00CC00FF00FF00FF000033FF003333FF006633FF009933FF00CC33FF00FF33FF000066FF003366FF006666FF009966FF00CC66FF00FF66FF000099FF003399FF006699FF009999FF00CC
310
99FF00FF99FF0000CCFF0033CCFF0066CCFF0099CCFF00CCCCFF00FFCCFF0000FFFF0033FFFF0066FFFF0099FFFF00CCFFFF00FFFFFF00000000000D0D0D001A1A1A00282828003535350043434300505050005D5D5D006B6B6B00787878008686860093939300A1A1A100AEAEAE00BBBBBB00C9C9C900D6D6D600E4E4E400
310
F1F1F100FFFFFF0000000000000000000000000000000000000000000000000000000000000000000000000000000000E2E2E2E2E2E2E2E2E2E2E2E2E2E2E2E2E2E2E2E2E2E2E2E2E2E2E2E2E2E2E2E2E2E2E2E2E2E2E2E2E2E2E2E2E2E2E2E2E2E2E2E2E2E2E2E2E2E2E2E2E2E2E2E2E2E2E2E2E2E2E2E2E2E2E2E2E2E2E2
310
E2E2E2E2E2E2E2E2E2E2E2E2E2E2E2E2E2E2E2E2E2E2E2E2E2E2E2E2E2E2E2E2E2E2E2E2E2E2E2E2E2E2E2E2E2E2E2E2E2E2E2E2E2E2E2E2E2E2E2E2E2E2E2E2E2E2E2E2E2E2E2E2E2E2E2E2E2E2E2E2E2E2E2E2E2E2E2E2E2E2E2E2E2E2E2E2E2E2E2E2EFF5F5F5F5F5F5F5F5F5F5F5F5F5F5F5F5F5F5F5F5F5F5F5F5F5F5
310
F5F5F5F5F5F5F5F5F5F5F5F5F5F5F5F5F5F5F5F5F5F5F5F5F5F5F5F5F5F5F5F5F5F5F5F5F5F5F5F5F5F5F5F5F5F5F5F5F5F5F5F5F5F5F5F5F5F5F5F5F5F5F5F5F5F5F5F5F5F5F5F5F5F5F5F5F5F5F5F5F5F5F5F5F5F5F5F5F5F5F5F5F5F5F5F5F5F5F5F5F5F5F5F5F5F5F5F5F5F5F5F5F5F5F5F5F5F5F5F5F5F5F5F5F5F5F5
310
F5F5F5F5F5F5F5F5F5F5F5F5F5F5F5F5F5F5F5F5F5F5F5F5E2E2EFF5F5F5F5F5F5F5F5F5F5F5F5F5F5F5F5F5F5F5F5F5F5F5F5F5F5F5F5F5F5F5F5F5F5F5F5F5F5F5F5F5F5F5F5F5F5F5F5F5F5F5F5F5F5F5F5F5F5F5F5F5F5F5F5F5F5F5F5F5F5F5F5F5F5F5F5F5F5F5F5F5F5F5F5F5F5F5F5F5F5F5F5F5F5F5F5F5F5F5F5
310
F5F5F5F5F5F5F5F5F5F5F5F5F5F5F5F5F5F5F5F5F5F5F5F5F5F5F5F5F5F5F5F5F5F5F5F5F5F5F5F5F5F5F5F5F5F5F5F5F5F5F5F5F5F5F5F5F5F5F5F5F5F5F5F5F5F5F5F5F5F5F5F5F5F5F5F5F5E2E2EFF5F5F5F5F5F5F5F5F5F5F5F5F5F5F5F5F5F5F5F5F5F5F5F5F5F5F5F5F5F5F5F5F5F5F5F5F5F5F5F5F5F5F5F5F5F5F5
310
F5F5F5F5F5F5F5F5F5F5F5F5F5F5F5F5F5F5F5F5F5F5F5F5F5F5F5F5F5F5F5F5F5F5F5F5F5F5F5F5F5F5F5F5F5F5F5F5F5F5F5F5F5F5F5F5F5F5F5F5F5F5F5F5F5F5F5F5F5F5F5F5F5F5F5F5F5F5F5F5F5F5F5F5F5F5F5F5F5F5F5F5F5F5F5F5F5F5F5F5F5F5F5F5F5F5F5F5F5F5F5F5F5F5F5F5F5F5F5F5F5F5F5F5F5F5F5
310
F5F5F5E2E2EFF5F5F5E2E2E2E2E2E2E2E2F5F5F5F5F5F5F5F5F5E2E2E2E2E2E2E2E2E2E2E2E2E2E2E2E2F5F5F5F5F5F5F5F5E2E2E2E2E2E2E2E2E2E2E2E2E2E2E2E2F5F5F5F5F5F5F5F5F5E2E2E2E2E2E2E2E2E2E2E2E2E2E2E2F5F5F5F5F5F5F5F5F5E2E2E2E2E2E2E2E2E2E2E2E2E2E2E2F5F5F5F5F5F5F5F5F5E2E2E2E2
310
E2E2E2E2E2E2E2E2E2E2E2E2F5F5F5F5F5F5F5F5E2E2E2E2E2E2E2E2E2E2E2E2E2E2E2E2F5F5F5F5F5F5F5F5F5E2E2E2E2E2E2E2E2F5F5F5E2E2EFF5F5F5E2F5F5F5F5F5F5F5F5F5F5F5F5F5F5F5F5F5F5F5F5F5F5F5F5F5F5F5F5F5F5F5F5F5F5F5F5F5F5F5F5F5F5F5F5F5F5F5F5F5F5F5F5F5F5F5F5F5F5F5F5F5F5F5F5
310
F5F5F5F5F5F5F5F5F5F5F5F5F5F5F5F5F5F5F5F5F5F5F5F5F5F5F5F5F5F5F5F5F5F5F5F5F5F5F5F5F5F5F5F5F5F5F5F5F5F5F5F5F5F5F5F5F5F5F5F5F5F5F5F5F5F5F5F5F5F5F5F5F5F5F5F5F5F5F5F5F5F5F5F5F5F5F5F5F5F5F5F5F5F5F5F5F5F5F5F5F5F5F5F5F5E2F5F5F5E2E2EFF5F5F5E2F5F5F5F5F5F5F5F5F5F5F5
310
F5F5F5F5F5F5F5F5F5F5F5F5F5F5F5F5F5F5F5F5F5F5F5F5F5F5F5F5F5F5F5F5F5F5F5F5F5F5F5F5F5F5F5F5F5F5F5F5F5F5F5F5F5F5F5F5F5F5F5F5F5F5F5F5F5F5F5F5F5F5F5F5F5F5F5F5F5F5F5F5F5F5F5F5F5F5F5F5F5F5F5F5F5F5F5F5F5F5F5F5F5F5F5F5F5F5F5F5F5F5F5F5F5F5F5F5F5F5F5F5F5F5F5F5F5F5F5
310
F5F5F5F5F5F5F5F5F5F5F5F5F5F5F5F5F5F5F5F5F5F5F5F5F5F5F5F5F5F5F5E2F5F5F5E2E2EFF5F5F5E2F5F5F5F5F5F5F5F5F5F5F5F5F5F5F5F5F5F5F5F5F5F5F5F5F5F5F5F5F5F5F5F5F5F5F5F5F5F5F5F5F5F5F5F5F5F5F5F5F5F5F5F5F5F5F5F5F5F5F5F5F5F5F5F5F5F5F5F5F5F5F5F5F5F5F5F5F5F5F5F5F5F5F5F5F5
310
F5F5F5F5F5F5F5F5F5F5F5F5F5F5F5F5F5F5F5F5F5F5F5F5F5F5F5F5F5F5F5F5F5F5F5F5F5F5F5F5F5F5F5F5F5F5F5F5F5F5F5F5F5F5F5F5F5F5F5F5F5F5F5F5F5F5F5F5F5F5F5F5F5F5F5F5F5F5F5F5F5F5F5F5E2F5F5F5E2E2EFF5F5F5E2F5F5F5F5F5F5F5F5F5F5F5F5F5F5F5F5F5F5F5F5F5F5F5F5F5F5F5F5F5F5F5F5
310
F5F5F5F5F5F5F5F5F5F5F5F5F5F5F5F5F5F5F5F5F5F5F5F5F5F5F5F5F5F5F5F5F5F5F5F5F5F5F5F5F5F5F5F5F5F5F5F5F5F5F5F5F5F5F5F5F5F5F5F5F5F5F5F5F5F5F5F5F5F5F5F5F5F5F5F5F5F5F5F5F5F5F5F5F5F5F5F5F5F5F5F5F5F5F5F5F5F5F5F5F5F5F5F5F5F5F5F5F5F5F5F5F5F5F5F5F5F5F5F5F5F5F5F5F5F5F5
310
F5F5F5F5F5F5F5F5F5F5E2F5F5F5E2E2EFF5F5F5E2F5F5F5F5F5F5F5F5F5F5F5F5F5F5F5F5F5F5F5F5F5F5F5F5F5F5F5F5F5F5F5F5F5F5F5F5F5F5F5F5F5F5F5F5F5F5F5F5F5F5F5F5F5F5F5F5F5F5F5F5F5F5F5F5F5F5F5F5F5F5F5F5F5F5F5F5F5F5F5F5F5F5F5F5F5F5F5F5F5F5F5F5F5F5F5F5F5F5F5F5F5F5F5F5F5F5
310
F5F5F5F5F5F5F5F5F5F5F5F5F5F5F5F5F5F5F5F5F5F5F5F5F5F5F5F5F5F5F5F5F5F5F5F5F5F5F5F5F5F5F5F5F5F5F5F5F5F5F5F5F5F5F5F5F5F5F5F5F5F5F5E2F5F5F5E2E2EFF5F5F5E2F5F5F5F5F5F5F5F5F5F5F5F5F5F5F5F5F5F5F5F5F5F5F5F5F5F5F5F5F5F5F5F5F5F5F5F5F5F5F5F5F5F5F5F5F5F5F5F5F5F5F5F5F5
310
F5F5F5F5F5F5F5F5F5F5F5F5F5F5F5F5F5F5F5F5F5F5F5F5F5F5F5F5F5F5F5F5F5F5F5F5F5F5F5F5F5F5F5F5F5F5F5F5F5F5F5F5F5F5F5F5F5F5F5F5F5F5F5F5F5F5F5F5F5F5F5F5F5F5F5F5F5F5F5F5F5F5F5F5F5F5F5F5F5F5F5F5F5F5F5F5F5F5F5F5F5F5F5F5F5F5F5F5F5F5F5F5F5F5F5F5E2F5F5F5E2E2EFF5F5F5E2
310
F5F5F5F5F5F5F5F5F5F5F5F5F5F5F5F5F5F5F5F5F5F5F5F5F5F5F5F5F5F5F5F5F5F5F5F5F5F5F5F5F5F5F5F5F5F5F5F5F5F5F5F5F5F5F5F5F5F5F5F5F5F5F5F5F5F5F5F5F5F5F5F5F5F5F5F5F5F5F5F5F5F5F5F5F5F5F5F5F5F5F5F5F5F5F5F5F5F5F5F5F5F5F5F5F5F5F5F5F5F5F5F5F5F5F5F5F5F5F5F5F5F5F5F5F5F5F5
310
F5F5F5F5F5F5F5F5F5F5F5F5F5F5F5F5F5F5F5F5F5F5F5F5F5F5F5F5F5F5F5F5F5F5F5F5F5F5F5F5F5F5E2F5F5F5E2E2EFF5F5F5E2F5F5F5F5F5F5F5F5F5F5F5F5F5F5F5F5F5F5F5F5F5F5F5F5F5F5F5F5F5F5F5F5F5F5F5F5F5F5F5F5F5F5F5F5F5F5F5F5F5F5F5F5F5F5F5F5F5F5F5F5F5F5F5F5F5F5F5F5F5F5F5F5F5F5
310
F5F5F5F5F5F5F5F5F5F5F5F5F5F5F5F5F5F5F5F5F5F5F5F5F5F5F5F5F5F5F5F5F5F5F5F5F5F5F5F5F5F5F5F5F5F5F5F5F5F5F5F5F5F5F5F5F5F5F5F5F5F5F5F5F5F5F5F5F5F5F5F5F5F5F5F5F5F5F5F5F5F5F5F5F5F5F5F5F5F5F5F5F5F5F5E2F5F5F5E2E2EFF5F5F5F5F5F5F5F5F5F5F5F5F5F5F5F5F5F5F5F5F5F5F5F5F5
310
F5F5F5F5F5F5F5F5F5F5F5F5F5F5F5F5F5F5F5F5F5F5F5F5F5F5F5F5F5F5F5F5F5F5F5F5F5F5F5F5F5F5F5F5F5F5F5F5F5F5F5F5F5F5F5F5F5F5F5F5F5F5F5F5F5F5F5F5F5F5F5F5F5F5F5F5F5F5F5F5F5F5F5F5F5F5F5F5F5F5F5F5F5F5F5F5F5F5F5F5F5F5F5F5F5F5F5F5F5F5F5F5F5F5F5F5F5F5F5F5F5F5F5F5F5F5F5
310
F5F5F5F5F5F5F5F5F5F5F5F5F5F5F5F5F5F5F5F5F5F5F5F5F5E2E2EFF5F5F5F5F5F5F5F5F5F5F5F5F5F5F5F5F5F5F5F5F5F5F5F5F5F5F5F5F5F5F5F5F5F5F5F5F5F5F5F5F5F5F5F5F5F5F5F5F5F5F5F5F5F5F5F5F5F5F5F5F5F5F5F5F5F5F5F5F5F5F5F5F5F5F5F5F5F5F5F5F5F5F5F5F5F5F5F5F5F5F5F5F5F5F5F5F5F5F5
310
F5F5F5F5F5F5F5F5F5F5F5F5F5F5F5F5F5F5F5F5F5F5F5F5F5F5F5F5F5F5F5F5F5F5F5F5F5F5F5F5F5F5F5F5F5F5F5F5F5F5F5F5F5F5F5F5F5F5F5F5F5F5F5F5F5F5F5F5F5F5F5F5F5F5F5F5F5F5E2E2EFF5F5F5F5F5F5F5F5F5F5F5F5F5F5F5F5F5F5F5F5F5F5F5F5F5F5F5F5F5F5F5F5F5F5F5F5F5F5F5F5F5F5F5F5F5F5
310
F5F5F5F5F5F5F5F5F5F5F5F5F5F5F5F5F5F5F5F5F5F5F5F5F5F5F5F5F5F5F5F5F5F5F5F5F5F5F5F5F5F5F5F5F5F5F5F5F5F5F5F5F5F5F5F5F5F5F5F5F5F5F5F5F5F5F5F5F5F5F5F5F5F5F5F5F5F5F5F5F5F5F5F5F5F5F5F5F5F5F5F5F5F5F5F5F5F5F5F5F5F5F5F5F5F5F5F5F5F5F5F5F5F5F5F5F5F5F5F5F5F5F5F5F5F5F5
310
F5F5F5F5E2E2EFF5F5F5F5F5F5F5F5F5F5F5F5F5F5F5F5F5F5F5F5F5F5F5F5F5F5F5F5F5F5F5F5F5F5F5F5F5F5F5F5F5F5F5F5F5F5F5F5F5F5F5F5F5F5F5F5F5F5F5F5F5F5F5F5F5F5F5F5F5F5F5F5F5F5F5F5F5F5F5F5F5F5F5F5F5F5F5F5F5F5F5F5F5F5F5F5F5F5F5F5F5F5F5F5F5F5F5F5F5F5F5F5F5F5F5F5F5F5F5F5
310
F5F5F5F5F5F5F5F5F5F5F5F5F5F5F5F5F5F5F5F5F5F5F5F5F5F5F5F5F5F5F5F5F5F5F5F5F5F5F5F5F5F5F5F5F5F5F5F5F5F5F5F5F5F5F5F5F5E2E2EFF5F5F5F5F5F5F5F5F5F5F5F5F5F5F5F5F5F5F5F5E2E2E2E2E2E2E2E2E2E2E2E2E2E2E2E2E2E2E2E2E2E2E2E2E2E2E2E2E2E2E2E2E2E2E2E2E2E2E2E2E2E2E2E2E2E2E2
310
E2E2E2E2E2E2E2E2E2E2E2E2E2E2E2E2E2E2E2E2E2E2E2E2E2E2E2E2E2E2E2E2E2E2E2E2E2E2E2E2E2E2E2E2E2E2E2E2E2E2E2E2E2E2E2E2E2E2E2E2E2E2E2E2E2E2E2E2E2E2E2E2E2E2E2E2E2E2E2E2E2E2E2E2E2E2E2E2E2E2F5F5F5F5F5F5F5F5F5F5F5F5F5F5F5F5F5F5F5F5E2E2EFF5F5F5F5F5F5F5F5F5F5F5F5F5F5
310
F5F5F5F5F5F5E2F5F5F5F5F5F5F5F5F5F5F5F5F5F5F5F5F5F5F5F5F5F5F5F5F5F5F5F5F5F5F5F5F5F5F5F5F5F5F5F5F5F5F5F5F5F5F5F5F5F5F5F5F5F5F5F5F5F5F5F5F5F5F5F5F5F5F5F5F5F5F5F5F5F5F5F5F5F5F5F5F5F5F5F5F5F5F5F5F5F5F5F5F5F5F5F5F5F5F5F5F5F5F5F5F5F5F5F5F5F5F5F5F5F5F5F5F5F5F5F5
310
F5F5F5F5F5F5F5F5F5F5F5F5F5F5F5E2F5F5F5F5F5F5F5F5F5F5F5F5F5F5F5F5F5F5F5F5E2E2EFF5F5F5F5F5F5F5F5F5F5F5F5F5F5F5F5F5F5F5F5E2F5F5F5F5F5F5F5F5F5F5F5F5F5F5F5F5F5F5F5F5F5F5F5F5F5F5F5F5F5F5F5F5F5F5F5F5F5F5F5F5F5F5F5F5F5F5F5F5F5F5F5F5F5F5F5F5F5F5F5F5F5F5F5F5F5F5F5
310
F5F5F5F5F5F5F5F5F5F5F5F5F5F5F5F5F5F5F5F5F5F5F5F5F5F5F5F5F5F5F5F5F5F5F5F5F5F5F5F5F5F5F5F5F5F5F5F5F5F5F5F5F5F5F5F5F5F5F5F5F5F5F5F5F5F5F5F5E2F5F5F5F5F5F5F5F5F5F5F5F5F5F5F5F5F5F5F5F5E2E2EFF5F5F5F5F5F5F5F5F5F5F5F5F5F5F5F5F5F5F5F5E2F5F5F5F5F5F5F5F5F5F5F5F5F5F5
310
F5F5F5F5F5F5F5F5F5F5F5F5F5F5F5F5F5F5F5F5F5F5F5F5F5F5F5F5F5F5F5F5F5F5F5F5F5F5F5F5F5F5F5F5F5F5F5F5F5F5F5F5F5F5F5F5F5F5F5F5F5F5F5F5F5F5F5F5F5F5F5F5F5F5F5F5F5F5F5F5F5F5F5F5F5F5F5F5F5F5F5F5F5F5F5F5F5F5F5F5F5F5F5F5F5F5F5F5F5F5F5F5F5F5F5F5F5F5F5F5F5E2F5F5F5F5F5
310
F5F5F5F5F5F5F5F5F5F5F5F5F5F5F5E2E2EFF5F5F5F5F5F5F5F5F5F5F5F5F5F5F5F5F5F5F5F5E2F5F5F5F5F5F5F5F5F5F5F5F5F5F5F5F5F5F5F5F5F5F5F5F5F5F5F5F5F5F5F5F5F5F5F5F5F5F5F5F5F5F5F5F5F5F5F5F5F5F5F5F5F5F5F5F5F5F5F5F5F5F5F5F5F5F5F5F5F5F5F5F5F5F5F5F5F5F5F5F5F5F5F5F5F5F5F5F5
310
F5F5F5F5F5F5F5F5F5F5F5F5F5F5F5F5F5F5F5F5F5F5F5F5F5F5F5F5F5F5F5F5F5F5F5F5F5F5F5F5F5F5F5F5F5F5F5E2F5F5F5F5F5F5F5F5F5F5F5F5F5F5F5F5F5F5F5F5E2E2EFF5F5F5E2F5F5F5F5F5F5F5F5F5F5F5F5F5F5F5F5E2F5F5F5F5F5F5F5F5F5F5F5F5F5F5F5F5F5F5F5F5F5F5F5F5F5F5F5F5F5F5F5F5F5F5F5
310
F5F5F5F5F5F5F5F5F5F5F5F5F5F5F5F5F5F5F5F5F5F5F5F5F5F5F5F5F5F5F5F5F5F5F5F5F5F5F5F5F5F5F5F5F5F5F5F5F5F5F5F5F5F5F5F5F5F5F5F5F5F5F5F5F5F5F5F5F5F5F5F5F5F5F5F5F5F5F5F5F5F5F5F5F5F5F5F5F5F5F5F5F5F5F5F5F5F5F5F5E2F5F5F5F5F5F5F5F5F5F5F5F5F5F5F5F5E2F5F5F5E2E2EFF5F5F5
310
E2F5F5F5F5F5F5F5F5F5F5F5F5F5F5F5F5E2F5F5F5F5F5F5F5F5F5F5F5F5F5F5F5F5F5F5F5F5F5F5F5F5F5F5F5F5F5F5F5F5F5F5F5F5F5F5F5F5F5F5F5F5F5F5F5F5F5F5F5F5F5F5F5F5F5F5F5F5F5F5F5F5F5F5F5F5F5F5F5F5F5F5F5F5F5F5F5F5F5F5F5F5F5F5F5F5F5F5F5F5F5F5F5F5F5F5F5F5F5F5F5F5F5F5F5F5F5
310
F5F5F5F5F5F5F5F5F5F5F5F5F5F5F5F5F5F5F5F5F5F5F5F5F5F5E2F5F5F5F5F5F5F5F5F5F5F5F5F5F5F5F5E2F5F5F5E2E2EFF5F5F5E2F5F5F5F5F5F5F5F5F5F5F5F5F5F5F5F5E2F5F5F5F5F5F5F5F5F5F5F5F5F5F5F5F5F5F5F5F5F5F5F5F5F5F5F5F5F5F5F5F5F5F5F5F5F5F5F5F5F5F5F5F5F5F5F5F5F5F5F5F5F5F5F5F5
310
F5F5F5F5F5F5F5F5F5F5F5F5F5F5F5F5F5F5F5F5F5F5F5F5F5F5F5F5F5F5F5F5F5F5F5F5F5F5F5F5F5F5F5F5F5F5F5F5F5F5F5F5F5F5F5F5F5F5F5F5F5F5F5F5F5F5F5F5F5F5F5F5F5F5F5F5F5F5F5E2F5F5F5F5F5F5F5F5F5F5F5F5F5F5F5F5E2F5F5F5E2E2EFF5F5F5E2F5F5F5F5F5F5F5F5F5F5F5F5F5F5F5F5E2F5F5F5
310
F5F5F5F5F5F5F5F5F5F5F5F5F5F5F5F5F5F5F5F5F5F5F5F5F5F5F5F5F5F5F5F5F5F5F5F5F5F5F5F5F5F5F5F5F5F5F5F5F5F5F5F5F5F5F5F5F5F5F5F5F5F5F5F5F5F5F5F5F5F5F5F5F5F5F5F5F5F5F5F5F5F5F5F5F5F5F5F5F5F5F5F5F5F5F5F5F5F5F5F5F5F5F5F5F5F5F5F5F5F5F5F5F5F5F5F5F5F5F5F5F5F5F5F5F5F5F5
310
F5F5F5F5F5E2F5F5F5F5F5F5F5F5F5F5F5F5F5F5F5F5E2F5F5F5E2E2EFF5F5F5E2F5F5F5F5F5F5F5F5F5F5F5F5F5F5F5F5E2F5F5F5F5F5F5F5F5F5F5F5F5F5F5F5F5F5F5F5F5F5F5F5F5F5F5F5F5F5F5F5F5F5F5F5F5F5F5F5F5F5F5F5F5F5F5F5F5F5F5F5F5F5F5F5F5F5F5F5F5F5F5F5F5F5F5F5F5F5F5F5F5F5F5F5F5F5
310
F5F5F5F5F5F5F5F5F5F5F5F5F5F5F5F5F5F5F5F5F5F5F5F5F5F5F5F5F5F5F5F5F5F5F5F5F5F5F5F5F5F5F5F5F5F5F5F5F5F5F5F5F5F5F5F5F5F5E2F5F5F5F5F5F5F5F5F5F5F5F5F5F5F5F5E2F5F5F5E2E2EFF5F5F5E2F5F5F5F5F5F5F5F5F5F5F5F5F5F5F5F5E2F5F5F5F5F5F5F5F5F5F5F5F5F5F5F5F5F5F5F5F5F5F5F5F5
310
F5F5F5F5F5F5F5F5F5F5F5F5F5F5F5F5F5F5F5F5F5F5F5F5F5F5F5F5F5F5F5F5F5F5F5F5F5F5F5F5F5F5F5F5F5F5F5F5F5F5F5F5F5F5F5F5F5F5F5F5F5F5F5F5F5F5F5F5F5F5F5F5F5F5F5F5F5F5F5F5F5F5F5F5F5F5F5F5F5F5F5F5F5F5F5F5F5F5F5F5F5F5F5F5F5F5F5F5F5F5F5E2F5F5F5F5F5F5F5F5F5F5F5F5F5F5F5
310
F5E2F5F5F5E2E2EFF5F5F5E2F5F5F5F5F5F5F5F5F5F5F5F5F5F5F5F5E2F5F5F5F5F5F5F5F5F5F5F5F5F5F5F5F5F5F5F5F5F5F5F5F5F5F5F5F5F5F5F5F5F5F5F5F5F5F5F5F5F5F5F5F5F5F5F5F5F5F5F5F5F5F5F5F5F5F5F5F5F5F5F5F5F5F5F5F5F5F5F5F5F5F5F5F5F5F5F5F5F5F5F5F5F5F5F5F5F5F5F5F5F5F5F5F5F5F5
310
F5F5F5F5F5F5F5F5F5F5F5F5F5F5F5F5F5F5F5F5F5F5F5F5F5F5F5F5F5F5F5F5F5F5F5F5F5E2F5F5F5F5F5F5F5F5F5F5F5F5F5F5F5F5E2F5F5F5E2E2EFF5F5F5E2F5F5F5F5F5F5F5F5F5F5F5F5F5F5F5F5E2F5F5F5F5F5F5F5F5F5F5F5F5F5F5F5F5F5F5F5F5F5F5F5F5F5F5F5F5F5F5F5F5F5F5F5F5F5F5F5F5F5F5F5F5F5
310
F5F5F5F5F5F5F5F5F5F5F5F5F5F5F5F5F5F5F5F5F5F5F5F5F5F5F5F5F5F5F5F5F5F5F5F5F5F5F5F5F5F5F5F5F5F5F5F5F5F5F5F5F5F5F5F5F5F5F5F5F5F5F5F5F5F5F5F5F5F5F5F5F5F5F5F5F5F5F5F5F5F5F5F5F5F5F5F5F5F5E2F5F5F5F5F5F5F5F5F5F5F5F5F5F5F5F5E2F5F5F5E2E2EFF5F5F5E2F5F5F5F5F5F5F5F5F5
310
F5F5F5F5F5F5F5E2F5F5F5F5F5F5F5F5F5F5F5F5F5F5F5F5F5F5F5F5F5F5F5F5F5F5F5F5F5F5F5F5F5F5F5F5F5F5F5F5F5F5F5F5F5F5F5F5F5F5F5F5F5F5F5F5F5F5F5F5F5F5F5F5F5F5F5F5F5F5F5F5F5F5F5F5F5F5F5F5F5F5F5F5F5F5F5F5F5F5F5F5F5F5F5F5F5F5F5F5F5F5F5F5F5F5F5F5F5F5F5F5F5F5F5F5F5F5F5
310
F5F5F5F5F5F5F5F5F5F5F5F5F5F5F5F5E2F5F5F5F5F5F5F5F5F5F5F5F5F5F5F5F5E2F5F5F5E2E2EFF5F5F5E2F5F5F5F5F5F5F5F5F5F5F5F5F5F5F5F5E2F5F5F5F5F5F5F5F5F5F5F5F5F5F5F5F5F5F5F5F5F5F5F5F5F5F5F5F5F5F5F5F5F5F5F5F5F5F5F5F5F5F5F5F5F5F5F5F5F5F5F5F5F5F5F5F5F5F5F5F5F5F5F5F5F5F5
310
F5F5F5F5F5F5F5F5F5F5F5F5F5F5F5F5F5F5F5F5F5F5F5F5F5F5F5F5F5F5F5F5F5F5F5F5F5F5F5F5F5F5F5F5F5F5F5F5F5F5F5F5F5F5F5F5F5F5F5F5F5F5F5F5F5F5F5F5F5E2F5F5F5F5F5F5F5F5F5F5F5F5F5F5F5F5E2F5F5F5E2E2EFF5F5F5E2F5F5F5F5F5F5F5F5F5F5F5F5F5F5F5F5E2F5F5F5F5F5F5F5F5F5F5F5F5F5
310
F5F5F5F5F5F5F5F5F5F5F5F5F5F5F5F5F5F5F5F5F5F5F5F5F5F5F5F5F5F5F5F5F5F5F5F5F5F5F5F5F5F5F5F5F5F5F5F5F5F5F5F5F5F5F5F5F5F5F5F5F5F5F5F5F5F5F5F5F5F5F5F5F5F5F5F5F5F5F5F5F5F5F5F5F5F5F5F5F5F5F5F5F5F5F5F5F5F5F5F5F5F5F5F5F5F5F5F5F5F5F5F5F5F5F5F5F5F5F5F5F5F5E2F5F5F5F5
310
F5F5F5F5F5F5F5F5F5F5F5F5E2F5F5F5E2E2EFF5F5F5E2F5F5F5F5F5F5F5F5F5F5F5F5F5F5F5F5E2F5F5F5F5F5F5F5F5F5F5F5F5F5F5F5F5F5F5F5F5F5F5F5F5F5F5F5F5F5F5F5F5F5F5F5F5F5F5F5F5F5F5F5F5F5F5F5F5F5F5F5F5F5F5F5F5F5F5F5F5F5F5F5F5F5F5F5F5F5F5F5F5F5F5F5F5F5F5F5F5F5F5F5F5F5F5F5
310
F5F5F5F5F5F5F5F5F5F5F5F5F5F5F5F5F5F5F5F5F5F5F5F5F5F5F5F5F5F5F5F5F5F5F5F5F5F5F5F5F5F5F5F5F5F5F5F5E2F5F5F5F5F5F5F5F5F5F5F5F5F5F5F5F5E2F5F5F5E2E2EFF5F5F5E2F5F5F5F5F5F5F5F5F5F5F5F5F5F5F5F5E2F5F5F5F5F5F5F5F5F5F5F5F5F5F5F5F5F5F5F5F5F5F5F5F5F5F5F5F5F5F5F5F5F5F5
310
F5F5F5F5F5F5F5F5F5F5F5F5F5F5F5F5F5F5F5F5F5F5F5F5F5F5F5F5F5F5F5F5F5F5F5F5F5F5F5F5F5F5F5F5F5F5F5F5F5F5F5F5F5F5F5F5F5F5F5F5F5F5F5F5F5F5F5F5F5F5F5F5F5F5F5F5F5F5F5F5F5F5F5F5F5F5F5F5F5F5F5F5F5F5F5F5F5F5F5F5F5E2F5F5F5F5F5F5F5F5F5F5F5F5F5F5F5F5E2F5F5F5E2E2EFF5F5
310
F5E2F5F5F5F5F5F5F5F5F5F5F5F5F5F5F5F5E2F5F5F5F5F5F5F5F5F5F5F5F5F5F5F5F5F5F5F5F5F5F5F5F5F5F5F5F5F5F5F5F5F5F5F5F5F5F5F5F5F5F5F5F5F5F5F5F5F5F5F5F5F5F5F5F5F5F5F5F5F5F5F5F5F5F5F5F5F5F5F5F5F5F5F5F5F5F5F5F5F5F5F5F5F5F5F5F5F5F5F5F5F5F5F5F5F5F5F5F5F5F5F5F5F5F5F5F5
310
F5F5F5F5F5F5F5F5F5F5F5F5F5F5F5F5F5F5F5F5F5F5F5F5F5F5F5E2F5F5F5F5F5F5F5F5F5F5F5F5F5F5F5F5E2F5F5F5E2E2EFF5F5F5E2F5F5F5F5F5F5F5F5F5F5F5F5F5F5F5F5E2F5F5F5F5F5F5F5F5F5F5F5F5F5F5F5F5F5F5F5F5F5F5F5F5F5F5F5F5F5F5F5F5F5F5F5F5F5F5F5F5F5F5F5F5F5F5F5F5F5F5F5F5F5F5F5
310
F5F5F5F5F5F5F5F5F5F5F5F5F5F5F5F5F5F5F5F5F5F5F5F5F5F5F5F5F5F5F5F5F5F5F5F5F5F5F5F5F5F5F5F5F5F5F5F5F5F5F5F5F5F5F5F5F5F5F5F5F5F5F5F5F5F5F5F5F5F5F5F5F5F5F5F5F5F5F5F5E2F5F5F5F5F5F5F5F5F5F5F5F5F5F5F5F5E2F5F5F5E2E2EFF5F5F5E2F5F5F5F5F5F5F5F5F5F5F5F5F5F5F5F5E2F5F5
310
F5F5F5F5F5F5F5F5F5F5F5F5F5F5F5F5F5F5F5F5F5F5F5F5F5F5F5F5F5F5F5F5F5F5F5F5F5F5F5F5F5F5F5F5F5F5F5F5F5F5F5F5F5F5F5F5F5F5F5F5F5F5F5F5F5F5F5F5F5F5F5F5F5F5F5F5F5F5F5F5F5F5F5F5F5F5F5F5F5F5F5F5F5F5F5F5F5F5F5F5F5F5F5F5F5F5F5F5F5F5F5F5F5F5F5F5F5F5F5F5F5F5F5F5F5F5F5
310
F5F5F5F5F5F5E2F5F5F5F5F5F5F5F5F5F5F5F5F5F5F5F5E2F5F5F5E2E2EFF5F5F5E2F5F5F5F5F5F5F5F5F5F5F5F5F5F5F5F5E2F5F5F5F5F5F5F5F5F5F5F5F5F5F5F5F5F5F5F5F5F5F5F5F5F5F5F5F5F5F5F5F5F5F5F5F5F5F5F5F5F5F5F5F5F5F5F5F5F5F5F5F5F5F5F5F5F5F5F5F5F5F5F5F5F5F5F5F5F5F5F5F5F5F5F5F5
310
F5F5F5F5F5F5F5F5F5F5F5F5F5F5F5F5F5F5F5F5F5F5F5F5F5F5F5F5F5F5F5F5F5F5F5F5F5F5F5F5F5F5F5F5F5F5F5F5F5F5F5F5F5F5F5F5F5F5F5E2F5F5F5F5F5F5F5F5F5F5F5F5F5F5F5F5E2F5F5F5E2E2EFF5F5F5F5F5F5F5F5F5F5F5F5F5F5F5F5F5F5F5F5E2F5F5F5F5F5F5F5F5F5F5F5F5F5F5F5F5F5F5F5F5F5F5F5
310
F5F5F5F5F5F5F5F5F5F5F5F5F5F5F5F5F5F5F5F5F5F5F5F5F5F5F5F5F5F5F5F5F5F5F5F5F5F5F5F5F5F5F5F5F5F5F5F5F5F5F5F5F5F5F5F5F5F5F5F5F5F5F5F5F5F5F5F5F5F5F5F5F5F5F5F5F5F5F5F5F5F5F5F5F5F5F5F5F5F5F5F5F5F5F5F5F5F5F5F5F5F5F5F5F5F5F5F5F5F5F5F5E2F5F5F5F5F5F5F5F5F5F5F5F5F5F5
310
F5F5F5F5F5F5E2E2EFF5F5F5F5F5F5F5F5F5F5F5F5F5F5F5F5F5F5F5F5E2F5F5F5F5F5F5F5F5F5F5F5F5F5F5F5F5F5F5F5F5F5F5F5F5F5F5F5F5F5F5F5F5F5F5F5F5F5F5F5F5F5F5F5F5F5F5F5F5F5F5F5F5F5F5F5F5F5F5F5F5F5F5F5F5F5F5F5F5F5F5F5F5F5F5F5F5F5F5F5F5F5F5F5F5F5F5F5F5F5F5F5F5F5F5F5F5F5
310
F5F5F5F5F5F5F5F5F5F5F5F5F5F5F5F5F5F5F5F5F5F5F5F5F5F5F5F5F5F5F5F5F5F5F5F5F5F5E2F5F5F5F5F5F5F5F5F5F5F5F5F5F5F5F5F5F5F5F5E2E2EFF5F5F5F5F5F5F5F5F5F5F5F5F5F5F5F5F5F5F5F5E2F5F5F5F5F5F5F5F5F5F5F5F5F5F5F5F5F5F5F5F5F5F5F5F5F5F5F5F5F5F5F5F5F5F5F5F5F5F5F5F5F5F5F5F5
310
F5F5F5F5F5F5F5F5F5F5F5F5F5F5F5F5F5F5F5F5F5F5F5F5F5F5F5F5F5F5F5F5F5F5F5F5F5F5F5F5F5F5F5F5F5F5F5F5F5F5F5F5F5F5F5F5F5F5F5F5F5F5F5F5F5F5F5F5F5F5F5F5F5F5F5F5F5F5F5F5F5F5F5F5F5F5F5F5F5F5F5E2F5F5F5F5F5F5F5F5F5F5F5F5F5F5F5F5F5F5F5F5E2E2EFF5F5F5F5F5F5F5F5F5F5F5F5
310
F5F5F5F5F5F5F5F5E2F5F5F5F5F5F5F5F5F5F5F5F5F5F5F5F5F5F5F5F5F5F5F5F5F5F5F5F5F5F5F5F5F5F5F5F5F5F5F5F5F5F5F5F5F5F5F5F5F5F5F5F5F5F5F5F5F5F5F5F5F5F5F5F5F5F5F5F5F5F5F5F5F5F5F5F5F5F5F5F5F5F5F5F5F5F5F5F5F5F5F5F5F5F5F5F5F5F5F5F5F5F5F5F5F5F5F5F5F5F5F5F5F5F5F5F5F5F5
310
F5F5F5F5F5F5F5F5F5F5F5F5F5F5F5F5F5E2F5F5F5F5F5F5F5F5F5F5F5F5F5F5F5F5F5F5F5F5E2E2EFF5F5F5F5F5F5F5F5F5F5F5F5F5F5F5F5F5F5F5F5E2F5F5F5F5F5F5F5F5F5F5F5F5F5F5F5F5F5F5F5F5F5F5F5F5F5F5F5F5F5F5F5F5F5F5F5F5F5F5F5F5F5F5F5F5F5F5F5F5F5F5F5F5F5F5F5F5F5F5F5F5F5F5F5F5F5
310
F5F5F5F5F5F5F5F5F5F5F5F5F5F5F5F5F5F5F5F5F5F5F5F5F5F5F5F5F5F5F5F5F5F5F5F5F5F5F5F5F5F5F5F5F5F5F5F5F5F5F5F5F5F5F5F5F5F5F5F5F5F5F5F5F5F5F5F5F5F5E2F5F5F5F5F5F5F5F5F5F5F5F5F5F5F5F5F5F5F5F5E2E2EFF5F5F5F5F5F5F5F5F5F5F5F5F5F5F5F5F5F5F5F5E2F5F5F5F5F5F5F5F5F5F5F5F5
310
F5F5F5F5F5F5F5F5F5F5F5F5F5F5F5F5F5F5F5F5F5F5F5F5F5F5F5F5F5F5F5F5F5F5F5F5F5F5F5F5F5F5F5F5F5F5F5F5F5F5F5F5F5F5F5F5F5F5F5F5F5F5F5F5F5F5F5F5F5F5F5F5F5F5F5F5F5F5F5F5F5F5F5F5F5F5F5F5F5F5F5F5F5F5F5F5F5F5F5F5F5F5F5F5F5F5F5F5F5F5F5F5F5F5F5F5F5F5F5F5F5F5F5E2F5F5F5
310
F5F5F5F5F5F5F5F5F5F5F5F5F5F5F5F5F5E2E2EFF5F5F5F5F5F5F5F5F5F5F5F5F5F5F5F5F5F5F5F5E2F5F5F5F5F5F5F5F5F5F5F5F5F5F5F5F5F5F5F5F5F5F5F5F5F5F5F5F5F5F5F5F5F5F5F5F5F5F5F5F5F5F5F5F5F5F5F5F5F5F5F5F5F5F5F5F5F5F5F5F5F5F5F5F5F5F5F5F5F5F5F5F5F5F5F5F5F5F5F5F5F5F5F5F5F5F5
310
F5F5F5F5F5F5F5F5F5F5F5F5F5F5F5F5F5F5F5F5F5F5F5F5F5F5F5F5F5F5F5F5F5F5F5F5F5F5F5F5F5F5F5F5F5F5F5F5F5E2F5F5F5F5F5F5F5F5F5F5F5F5F5F5F5F5F5F5F5F5E2E2EFF5F5F5F5F5F5F5F5F5F5F5F5F5F5F5F5F5F5F5F5E2F5F5F5F5F5F5F5F5F5F5F5F5F5F5F5F5F5F5F5F5F5F5F5F5F5F5F5F5F5F5F5F5F5
310
F5F5F5F5F5F5F5F5F5F5F5F5F5F5F5F5F5F5F5F5F5F5F5F5F5F5F5F5F5F5F5F5F5F5F5F5F5F5F5F5F5F5F5F5F5F5F5F5F5F5F5F5F5F5F5F5F5F5F5F5F5F5F5F5F5F5F5F5F5F5F5F5F5F5F5F5F5F5F5F5F5F5F5F5F5F5F5F5F5F5F5F5F5F5F5F5F5F5F5F5F5F5E2F5F5F5F5F5F5F5F5F5F5F5F5F5F5F5F5F5F5F5F5E2E2EFF5
310
F5F5F5F5F5F5F5F5F5F5F5F5F5F5F5F5F5F5F5E2F5F5F5F5F5F5F5F5F5F5F5F5F5F5F5F5F5F5F5F5F5F5F5F5F5F5F5F5F5F5F5F5F5F5F5F5F5F5F5F5F5F5F5F5F5F5F5F5F5F5F5F5F5F5F5F5F5F5F5F5F5F5F5F5F5F5F5F5F5F5F5F5F5F5F5F5F5F5F5F5F5F5F5F5F5F5F5F5F5F5F5F5F5F5F5F5F5F5F5F5F5F5F5F5F5F5F5
310
F5F5F5F5F5F5F5F5F5F5F5F5F5F5F5F5F5F5F5F5F5F5F5F5F5F5F5F5E2F5F5F5F5F5F5F5F5F5F5F5F5F5F5F5F5F5F5F5F5E2E2EFF5F5F5E2F5F5F5F5F5F5F5F5F5F5F5F5F5F5F5F5E2F5F5F5F5F5F5F5F5F5F5F5F5F5F5F5F5F5F5F5F5F5F5F5F5F5F5F5F5F5F5F5F5F5F5F5F5F5F5F5F5F5F5F5F5F5F5F5F5F5F5F5F5F5F5
310
F5F5F5F5F5F5F5F5F5F5F5F5F5F5F5F5F5F5F5F5F5F5F5F5F5F5F5F5F5F5F5F5F5F5F5F5F5F5F5F5F5F5F5F5F5F5F5F5F5F5F5F5F5F5F5F5F5F5F5F5F5F5F5F5F5F5F5F5F5F5F5F5F5F5F5F5F5F5F5F5F5E2F5F5F5F5F5F5F5F5F5F5F5F5F5F5F5F5E2F5F5F5E2E2EFF5F5F5E2F5F5F5F5F5F5F5F5F5F5F5F5F5F5F5F5E2F5
310
F5F5F5F5F5F5F5F5F5F5F5F5F5F5F5F5F5F5F5F5F5F5F5F5F5F5F5F5F5F5F5F5F5F5F5F5F5F5F5F5F5F5F5F5F5F5F5F5F5F5F5F5F5F5F5F5F5F5F5F5F5F5F5F5F5F5F5F5F5F5F5F5F5F5F5F5F5F5F5F5F5F5F5F5F5F5F5F5F5F5F5F5F5F5F5F5F5F5F5F5F5F5F5F5F5F5F5F5F5F5F5F5F5F5F5F5F5F5F5F5F5F5F5F5F5F5F5
310
F5F5F5F5F5F5F5E2F5F5F5F5F5F5F5F5F5F5F5F5F5F5F5F5E2F5F5F5E2E2EFF5F5F5E2F5F5F5F5F5F5F5F5F5F5F5F5F5F5F5F5E2F5F5F5F5F5F5F5F5F5F5F5F5F5F5F5F5F5F5F5F5F5F5F5F5F5F5F5F5F5F5F5F5F5F5F5F5F5F5F5F5F5F5F5F5F5F5F5F5F5F5F5F5F5F5F5F5F5F5F5F5F5F5F5F5F5F5F5F5F5F5F5F5F5F5F5
310
F5F5F5F5F5F5F5F5F5F5F5F5F5F5F5F5F5F5F5F5F5F5F5F5F5F5F5F5F5F5F5F5F5F5F5F5F5F5F5F5F5F5F5F5F5F5F5F5F5F5F5F5F5F5F5F5F5F5F5F5E2F5F5F5F5F5F5F5F5F5F5F5F5F5F5F5F5E2F5F5F5E2E2EFF5F5F5E2F5F5F5F5F5F5F5F5F5F5F5F5F5F5F5F5E2F5F5F5F5F5F5F5F5F5F5F5F5F5F5F5F5F5F5F5F5F5F5
310
F5F5F5F5F5F5F5F5F5F5F5F5F5F5F5F5F5F5F5F5F5F5F5F5F5F5F5F5F5F5F5F5F5F5F5F5F5F5F5F5F5F5F5F5F5F5F5F5F5F5F5F5F5F5F5F5F5F5F5F5F5F5F5F5F5F5F5F5F5F5F5F5F5F5F5F5F5F5F5F5F5F5F5F5F5F5F5F5F5F5F5F5F5F5F5F5F5F5F5F5F5F5F5F5F5F5F5F5F5F5F5F5F5E2F5F5F5F5F5F5F5F5F5F5F5F5F5
310
F5F5F5E2F5F5F5E2E2EFF5F5F5E2F5F5F5F5F5F5F5F5F5F5F5F5F5F5F5F5E2F5F5F5F5F5F5F5F5F5F5F5F5F5F5F5F5F5F5F5F5F5F5F5F5F5F5F5F5F5F5F5F5F5F5F5F5F5F5F5F5F5F5F5F5F5F5F5F5F5F5F5F5F5F5F5F5F5F5F5F5F5F5F5F5F5F5F5F5F5F5F5F5F5F5F5F5F5F5F5F5F5F5F5F5F5F5F5F5F5F5F5F5F5F5F5F5
310
F5F5F5F5F5F5F5F5F5F5F5F5F5F5F5F5F5F5F5F5F5F5F5F5F5F5F5F5F5F5F5F5F5F5F5F5F5F5F5E2F5F5F5F5F5F5F5F5F5F5F5F5F5F5F5F5E2F5F5F5E2E2EFF5F5F5E2F5F5F5F5F5F5F5F5F5F5F5F5F5F5F5F5E2F5F5F5F5F5F5F5F5F5F5F5F5F5F5F5F5F5F5F5F5F5F5F5F5F5F5F5F5F5F5F5F5F5F5F5F5F5F5F5F5F5F5F5
310
F5F5F5F5F5F5F5F5F5F5F5F5F5F5F5F5F5F5F5F5F5F5F5F5F5F5F5F5F5F5F5F5F5F5F5F5F5F5F5F5F5F5F5F5F5F5F5F5F5F5F5F5F5F5F5F5F5F5F5F5F5F5F5F5F5F5F5F5F5F5F5F5F5F5F5F5F5F5F5F5F5F5F5F5F5F5F5F5F5F5F5F5E2F5F5F5F5F5F5F5F5F5F5F5F5F5F5F5F5E2F5F5F5E2E2EFF5F5F5E2F5F5F5F5F5F5F5
310
F5F5F5F5F5F5F5F5F5E2F5F5F5F5F5F5F5F5F5F5F5F5F5F5F5F5F5F5F5F5F5F5F5F5F5F5F5F5F5F5F5F5F5F5F5F5F5F5F5F5F5F5F5F5F5F5F5F5F5F5F5F5F5F5F5F5F5F5F5F5F5F5F5F5F5F5F5F5F5F5F5F5F5F5F5F5F5F5F5F5F5F5F5F5F5F5F5F5F5F5F5F5F5F5F5F5F5F5F5F5F5F5F5F5F5F5F5F5F5F5F5F5F5F5F5F5F5
310
F5F5F5F5F5F5F5F5F5F5F5F5F5F5F5F5F5F5E2F5F5F5F5F5F5F5F5F5F5F5F5F5F5F5F5E2F5F5F5E2E2EFF5F5F5E2F5F5F5F5F5F5F5F5F5F5F5F5F5F5F5F5E2F5F5F5F5F5F5F5F5F5F5F5F5F5F5F5F5F5F5F5F5F5F5F5F5F5F5F5F5F5F5F5F5F5F5F5F5F5F5F5F5F5F5F5F5F5F5F5F5F5F5F5F5F5F5F5F5F5F5F5F5F5F5F5F5
310
F5F5F5F5F5F5F5F5F5F5F5F5F5F5F5F5F5F5F5F5F5F5F5F5F5F5F5F5F5F5F5F5F5F5F5F5F5F5F5F5F5F5F5F5F5F5F5F5F5F5F5F5F5F5F5F5F5F5F5F5F5F5F5F5F5F5F5F5F5F5F5E2F5F5F5F5F5F5F5F5F5F5F5F5F5F5F5F5E2F5F5F5E2E2EFF5F5F5E2F5F5F5F5F5F5F5F5F5F5F5F5F5F5F5F5E2F5F5F5F5F5F5F5F5F5F5F5
310
F5F5F5F5F5F5F5F5F5F5F5F5F5F5F5F5F5F5F5F5F5F5F5F5F5F5F5F5F5F5F5F5F5F5F5F5F5F5F5F5F5F5F5F5F5F5F5F5F5F5F5F5F5F5F5F5F5F5F5F5F5F5F5F5F5F5F5F5F5F5F5F5F5F5F5F5F5F5F5F5F5F5F5F5F5F5F5F5F5F5F5F5F5F5F5F5F5F5F5F5F5F5F5F5F5F5F5F5F5F5F5F5F5F5F5F5F5F5F5F5F5F5F5F5E2F5F5
310
F5F5F5F5F5F5F5F5F5F5F5F5F5F5E2F5F5F5E2E2EFF5F5F5E2F5F5F5F5F5F5F5F5F5F5F5F5F5F5F5F5E2F5F5F5F5F5F5F5F5F5F5F5F5F5F5F5F5F5F5F5F5F5F5F5F5F5F5F5F5F5F5F5F5F5F5F5F5F5F5F5F5F5F5F5F5F5F5F5F5F5F5F5F5F5F5F5F5F5F5F5F5F5F5F5F5F5F5F5F5F5F5F5F5F5F5F5F5F5F5F5F5F5F5F5F5F5
310
F5F5F5F5F5F5F5F5F5F5F5F5F5F5F5F5F5F5F5F5F5F5F5F5F5F5F5F5F5F5F5F5F5F5F5F5F5F5F5F5F5F5F5F5F5F5F5F5F5F5E2F5F5F5F5F5F5F5F5F5F5F5F5F5F5F5F5E2F5F5F5E2E2EFF5F5F5E2F5F5F5F5F5F5F5F5F5F5F5F5F5F5F5F5E2F5F5F5F5F5F5F5F5F5F5F5F5F5F5F5F5F5F5F5F5F5F5F5F5F5F5F5F5F5F5F5F5
310
F5F5F5F5F5F5F5F5F5F5F5F5F5F5F5F5F5F5F5F5F5F5F5F5F5F5F5F5F5F5F5F5F5F5F5F5F5F5F5F5F5F5F5F5F5F5F5F5F5F5F5F5F5F5F5F5F5F5F5F5F5F5F5F5F5F5F5F5F5F5F5F5F5F5F5F5F5F5F5F5F5F5F5F5F5F5F5F5F5F5F5F5F5F5F5F5F5F5F5F5F5F5F5E2F5F5F5F5F5F5F5F5F5F5F5F5F5F5F5F5E2F5F5F5E2E2EF
310
F5F5F5E2F5F5F5F5F5F5F5F5F5F5F5F5F5F5F5F5E2F5F5F5F5F5F5F5F5F5F5F5F5F5F5F5F5F5F5F5F5F5F5F5F5F5F5F5F5F5F5F5F5F5F5F5F5F5F5F5F5F5F5F5F5F5F5F5F5F5F5F5F5F5F5F5F5F5F5F5F5F5F5F5F5F5F5F5F5F5F5F5F5F5F5F5F5F5F5F5F5F5F5F5F5F5F5F5F5F5F5F5F5F5F5F5F5F5F5F5F5F5F5F5F5F5F5
310
F5F5F5F5F5F5F5F5F5F5F5F5F5F5F5F5F5F5F5F5F5F5F5F5F5F5F5F5F5E2F5F5F5F5F5F5F5F5F5F5F5F5F5F5F5F5E2F5F5F5E2E2EFF5F5F5E2F5F5F5F5F5F5F5F5F5F5F5F5F5F5F5F5E2F5F5F5F5F5F5F5F5F5F5F5F5F5F5F5F5F5F5F5F5F5F5F5F5F5F5F5F5F5F5F5F5F5F5F5F5F5F5F5F5F5F5F5F5F5F5F5F5F5F5F5F5F5
310
F5F5F5F5F5F5F5F5F5F5F5F5F5F5F5F5F5F5F5F5F5F5F5F5F5F5F5F5F5F5F5F5F5F5F5F5F5F5F5F5F5F5F5F5F5F5F5F5F5F5F5F5F5F5F5F5F5F5F5F5F5F5F5F5F5F5F5F5F5F5F5F5F5F5F5F5F5F5F5F5F5F5E2F5F5F5F5F5F5F5F5F5F5F5F5F5F5F5F5E2F5F5F5E2E2EFF5F5F5E2F5F5F5F5F5F5F5F5F5F5F5F5F5F5F5F5E2
310
F5F5F5F5F5F5F5F5F5F5F5F5F5F5F5F5F5F5F5F5F5F5F5F5F5F5F5F5F5F5F5F5F5F5F5F5F5F5F5F5F5F5F5F5F5F5F5F5F5F5F5F5F5F5F5F5F5F5F5F5F5F5F5F5F5F5F5F5F5F5F5F5F5F5F5F5F5F5F5F5F5F5F5F5F5F5F5F5F5F5F5F5F5F5F5F5F5F5F5F5F5F5F5F5F5F5F5F5F5F5F5F5F5F5F5F5F5F5F5F5F5F5F5F5F5F5F5
310
F5F5F5F5F5F5F5F5E2F5F5F5F5F5F5F5F5F5F5F5F5F5F5F5F5E2F5F5F5E2E2EFF5F5F5E2F5F5F5F5F5F5F5F5F5F5F5F5F5F5F5F5E2F5F5F5F5F5F5F5F5F5F5F5F5F5F5F5F5F5F5F5F5F5F5F5F5F5F5F5F5F5F5F5F5F5F5F5F5F5F5F5F5F5F5F5F5F5F5F5F5F5F5F5F5F5F5F5F5F5F5F5F5F5F5F5F5F5F5F5F5F5F5F5F5F5F5
310
F5F5F5F5F5F5F5F5F5F5F5F5F5F5F5F5F5F5F5F5F5F5F5F5F5F5F5F5F5F5F5F5F5F5F5F5F5F5F5F5F5F5F5F5F5F5F5F5F5F5F5F5F5F5F5F5F5F5F5F5F5E2F5F5F5F5F5F5F5F5F5F5F5F5F5F5F5F5E2F5F5F5E2E2EFF5F5F5E2F5F5F5F5F5F5F5F5F5F5F5F5F5F5F5F5E2F5F5F5F5F5F5F5F5F5F5F5F5F5F5F5F5F5F5F5F5F5
310
F5F5F5F5F5F5F5F5F5F5F5F5F5F5F5F5F5F5F5F5F5F5F5F5F5F5F5F5F5F5F5F5F5F5F5F5F5F5F5F5F5F5F5F5F5F5F5F5F5F5F5F5F5F5F5F5F5F5F5F5F5F5F5F5F5F5F5F5F5F5F5F5F5F5F5F5F5F5F5F5F5F5F5F5F5F5F5F5F5F5F5F5F5F5F5F5F5F5F5F5F5F5F5F5F5F5F5F5F5F5F5F5F5F5E2F5F5F5F5F5F5F5F5F5F5F5F5
310
F5F5F5F5E2F5F5F5E2E2EFF5F5F5E2F5F5F5F5F5F5F5F5F5F5F5F5F5F5F5F5E2F5F5F5F5F5F5F5F5F5F5F5F5F5F5F5F5F5F5F5F5F5F5F5F5F5F5F5F5F5F5F5F5F5F5F5F5F5F5F5F5F5F5F5F5F5F5F5F5F5F5F5F5F5F5F5F5F5F5F5F5F5F5F5F5F5F5F5F5F5F5F5F5F5F5F5F5F5F5F5F5F5F5F5F5F5F5F5F5F5F5F5F5F5F5F5
310
F5F5F5F5F5F5F5F5F5F5F5F5F5F5F5F5F5F5F5F5F5F5F5F5F5F5F5F5F5F5F5F5F5F5F5F5F5F5F5F5E2F5F5F5F5F5F5F5F5F5F5F5F5F5F5F5F5E2F5F5F5E2E2EFF5F5F5F5F5F5F5F5F5F5F5F5F5F5F5F5F5F5F5F5E2F5F5F5F5F5F5F5F5F5F5F5F5F5F5F5F5F5F5F5F5F5F5F5F5F5F5F5F5F5F5F5F5F5F5F5F5F5F5F5F5F5F5
310
F5F5F5F5F5F5F5F5F5F5F5F5F5F5F5F5F5F5F5F5F5F5F5F5F5F5F5F5F5F5F5F5F5F5F5F5F5F5F5F5F5F5F5F5F5F5F5F5F5F5F5F5F5F5F5F5F5F5F5F5F5F5F5F5F5F5F5F5F5F5F5F5F5F5F5F5F5F5F5F5F5F5F5F5F5F5F5F5F5F5F5F5F5E2F5F5F5F5F5F5F5F5F5F5F5F5F5F5F5F5F5F5F5F5E2E2EFF5F5F5F5F5F5F5F5F5F5
310
F5F5F5F5F5F5F5F5F5F5E2F5F5F5F5F5F5F5F5F5F5F5F5F5F5F5F5F5F5F5F5F5F5F5F5F5F5F5F5F5F5F5F5F5F5F5F5F5F5F5F5F5F5F5F5F5F5F5F5F5F5F5F5F5F5F5F5F5F5F5F5F5F5F5F5F5F5F5F5F5F5F5F5F5F5F5F5F5F5F5F5F5F5F5F5F5F5F5F5F5F5F5F5F5F5F5F5F5F5F5F5F5F5F5F5F5F5F5F5F5F5F5F5F5F5F5F5
310
F5F5F5F5F5F5F5F5F5F5F5F5F5F5F5F5F5F5F5E2F5F5F5F5F5F5F5F5F5F5F5F5F5F5F5F5F5F5F5F5E2E2EFF5F5F5F5F5F5F5F5F5F5F5F5F5F5F5F5F5F5F5F5E2F5F5F5F5F5F5F5F5F5F5F5F5F5F5F5F5F5F5F5F5F5F5F5F5F5F5F5F5F5F5F5F5F5F5F5F5F5F5F5F5F5F5F5F5F5F5F5F5F5F5F5F5F5F5F5F5F5F5F5F5F5F5F5
310
F5F5F5F5F5F5F5F5F5F5F5F5F5F5F5F5F5F5F5F5F5F5F5F5F5F5F5F5F5F5F5F5F5F5F5F5F5F5F5F5F5F5F5F5F5F5F5F5F5F5F5F5F5F5F5F5F5F5F5F5F5F5F5F5F5F5F5F5F5F5F5F5E2F5F5F5F5F5F5F5F5F5F5F5F5F5F5F5F5F5F5F5F5E2E2EFF5F5F5F5F5F5F5F5F5F5F5F5F5F5F5F5F5F5F5F5E2F5F5F5F5F5F5F5F5F5F5
310
F5F5F5F5F5F5F5F5F5F5F5F5F5F5F5F5F5F5F5F5F5F5F5F5F5F5F5F5F5F5F5F5F5F5F5F5F5F5F5F5F5F5F5F5F5F5F5F5F5F5F5F5F5F5F5F5F5F5F5F5F5F5F5F5F5F5F5F5F5F5F5F5F5F5F5F5F5F5F5F5F5F5F5F5F5F5F5F5F5F5F5F5F5F5F5F5F5F5F5F5F5F5F5F5F5F5F5F5F5F5F5F5F5F5F5F5F5F5F5F5F5F5F5F5F5E2F5
310
F5F5F5F5F5F5F5F5F5F5F5F5F5F5F5F5F5F5F5E2E2EFF5F5F5F5F5F5F5F5F5F5F5F5F5F5F5F5F5F5F5F5E2F5F5F5F5F5F5F5F5F5F5F5F5F5F5F5F5F5F5F5F5F5F5F5F5F5F5F5F5F5F5F5F5F5F5F5F5F5F5F5F5F5F5F5F5F5F5F5F5F5F5F5F5F5F5F5F5F5F5F5F5F5F5F5F5F5F5F5F5F5F5F5F5F5F5F5F5F5F5F5F5F5F5F5F5
310
F5F5F5F5F5F5F5F5F5F5F5F5F5F5F5F5F5F5F5F5F5F5F5F5F5F5F5F5F5F5F5F5F5F5F5F5F5F5F5F5F5F5F5F5F5F5F5F5F5F5F5E2F5F5F5F5F5F5F5F5F5F5F5F5F5F5F5F5F5F5F5F5E2E2EFF5F5F5F5F5F5F5F5F5F5F5F5F5F5F5F5F5F5F5F5E2F5F5F5F5F5F5F5F5F5F5F5F5F5F5F5F5F5F5F5F5F5F5F5F5F5F5F5F5F5F5F5
310
F5F5F5F5F5F5F5F5F5F5F5F5F5F5F5F5F5F5F5F5F5F5F5F5F5F5F5F5F5F5F5F5F5F5F5F5F5F5F5F5F5F5F5F5F5F5F5F5F5F5F5F5F5F5F5F5F5F5F5F5F5F5F5F5F5F5F5F5F5F5F5F5F5F5F5F5F5F5F5F5F5F5F5F5F5F5F5F5F5F5F5F5F5F5F5F5F5F5F5F5F5F5F5F5E2F5F5F5F5F5F5F5F5F5F5F5F5F5F5F5F5F5F5F5F5E2E2
310
EFF5F5F5F5F5F5F5F5F5F5F5F5F5F5F5F5F5F5F5F5E2F5F5F5F5F5F5F5F5F5F5F5F5F5F5F5F5F5F5F5F5F5F5F5F5F5F5F5F5F5F5F5F5F5F5F5F5F5F5F5F5F5F5F5F5F5F5F5F5F5F5F5F5F5F5F5F5F5F5F5F5F5F5F5F5F5F5F5F5F5F5F5F5F5F5F5F5F5F5F5F5F5F5F5F5F5F5F5F5F5F5F5F5F5F5F5F5F5F5F5F5F5F5F5F5F5
310
F5F5F5F5F5F5F5F5F5F5F5F5F5F5F5F5F5F5F5F5F5F5F5F5F5F5F5F5F5F5E2F5F5F5F5F5F5F5F5F5F5F5F5F5F5F5F5F5F5F5F5E2E2EFF5F5F5F5F5F5F5F5F5F5F5F5F5F5F5F5F5F5F5F5E2F5F5F5F5F5F5F5F5F5F5F5F5F5F5F5F5F5F5F5F5F5F5F5F5F5F5F5F5F5F5F5F5F5F5F5F5F5F5F5F5F5F5F5F5F5F5F5F5F5F5F5F5
310
F5F5F5F5F5F5F5F5F5F5F5F5F5F5F5F5F5F5F5F5F5F5F5F5F5F5F5F5F5F5F5F5F5F5F5F5F5F5F5F5F5F5F5F5F5F5F5F5F5F5F5F5F5F5F5F5F5F5F5F5F5F5F5F5F5F5F5F5F5F5F5F5F5F5F5F5F5F5F5F5F5F5F5E2F5F5F5F5F5F5F5F5F5F5F5F5F5F5F5F5F5F5F5F5E2E2EFF5F5F5F5F5F5F5F5F5F5F5F5F5F5F5F5F5F5F5F5
310
E2F5F5F5F5F5F5F5F5F5F5F5F5F5F5F5F5F5F5F5F5F5F5F5F5F5F5F5F5F5F5F5F5F5F5F5F5F5F5F5F5F5F5F5F5F5F5F5F5F5F5F5F5F5F5F5F5F5F5F5F5F5F5F5F5F5F5F5F5F5F5F5F5F5F5F5F5F5F5F5F5F5F5F5F5F5F5F5F5F5F5F5F5F5F5F5F5F5F5F5F5F5F5F5F5F5F5F5F5F5F5F5F5F5F5F5F5F5F5F5F5F5F5F5F5F5F5
310
F5F5F5F5F5F5F5F5F5E2F5F5F5F5F5F5F5F5F5F5F5F5F5F5F5F5F5F5F5F5E2E2EFF5F5F5E2F5F5F5F5F5F5F5F5F5F5F5F5F5F5F5F5E2F5F5F5F5F5F5F5F5F5F5F5F5F5F5F5F5F5F5F5F5F5F5F5F5F5F5F5F5F5F5F5F5F5F5F5F5F5F5F5F5F5F5F5F5F5F5F5F5F5F5F5F5F5F5F5F5F5F5F5F5F5F5F5F5F5F5F5F5F5F5F5F5F5
310
F5F5F5F5F5F5F5F5F5F5F5F5F5F5F5F5F5F5F5F5F5F5F5F5F5F5F5F5F5F5F5F5F5F5F5F5F5F5F5F5F5F5F5F5F5F5F5F5F5F5F5F5F5F5F5F5F5F5F5F5F5F5E2F5F5F5F5F5F5F5F5F5F5F5F5F5F5F5F5E2F5F5F5E2E2EFF5F5F5E2F5F5F5F5F5F5F5F5F5F5F5F5F5F5F5F5E2F5F5F5F5F5F5F5F5F5F5F5F5F5F5F5F5F5F5F5F5
310
F5F5F5F5F5F5F5F5F5F5F5F5F5F5F5F5F5F5F5F5F5F5F5F5F5F5F5F5F5F5F5F5F5F5F5F5F5F5F5F5F5F5F5F5F5F5F5F5F5F5F5F5F5F5F5F5F5F5F5F5F5F5F5F5F5F5F5F5F5F5F5F5F5F5F5F5F5F5F5F5F5F5F5F5F5F5F5F5F5F5F5F5F5F5F5F5F5F5F5F5F5F5F5F5F5F5F5F5F5F5F5F5F5F5F5E2F5F5F5F5F5F5F5F5F5F5F5
310
F5F5F5F5F5E2F5F5F5E2E2EFF5F5F5E2F5F5F5F5F5F5F5F5F5F5F5F5F5F5F5F5E2F5F5F5F5F5F5F5F5F5F5F5F5F5F5F5F5F5F5F5F5F5F5F5F5F5F5F5F5F5F5F5F5F5F5F5F5F5F5F5F5F5F5F5F5F5F5F5F5F5F5F5F5F5F5F5F5F5F5F5F5F5F5F5F5F5F5F5F5F5F5F5F5F5F5F5F5F5F5F5F5F5F5F5F5F5F5F5F5F5F5F5F5F5F5
310
F5F5F5F5F5F5F5F5F5F5F5F5F5F5F5F5F5F5F5F5F5F5F5F5F5F5F5F5F5F5F5F5F5F5F5F5F5F5F5F5F5E2F5F5F5F5F5F5F5F5F5F5F5F5F5F5F5F5E2F5F5F5E2E2EFF5F5F5E2F5F5F5F5F5F5F5F5F5F5F5F5F5F5F5F5E2F5F5F5F5F5F5F5F5F5F5F5F5F5F5F5F5F5F5F5F5F5F5F5F5F5F5F5F5F5F5F5F5F5F5F5F5F5F5F5F5F5
310
F5F5F5F5F5F5F5F5F5F5F5F5F5F5F5F5F5F5F5F5F5F5F5F5F5F5F5F5F5F5F5F5F5F5F5F5F5F5F5F5F5F5F5F5F5F5F5F5F5F5F5F5F5F5F5F5F5F5F5F5F5F5F5F5F5F5F5F5F5F5F5F5F5F5F5F5F5F5F5F5F5F5F5F5F5F5F5F5F5F5F5F5F5F5E2F5F5F5F5F5F5F5F5F5F5F5F5F5F5F5F5E2F5F5F5E2E2EFF5F5F5E2F5F5F5F5F5
310
F5F5F5F5F5F5F5F5F5F5F5E2F5F5F5F5F5F5F5F5F5F5F5F5F5F5F5F5F5F5F5F5F5F5F5F5F5F5F5F5F5F5F5F5F5F5F5F5F5F5F5F5F5F5F5F5F5F5F5F5F5F5F5F5F5F5F5F5F5F5F5F5F5F5F5F5F5F5F5F5F5F5F5F5F5F5F5F5F5F5F5F5F5F5F5F5F5F5F5F5F5F5F5F5F5F5F5F5F5F5F5F5F5F5F5F5F5F5F5F5F5F5F5F5F5F5F5
310
F5F5F5F5F5F5F5F5F5F5F5F5F5F5F5F5F5F5F5F5E2F5F5F5F5F5F5F5F5F5F5F5F5F5F5F5F5E2F5F5F5E2E2EFF5F5F5E2F5F5F5F5F5F5F5F5F5F5F5F5F5F5F5F5E2F5F5F5F5F5F5F5F5F5F5F5F5F5F5F5F5F5F5F5F5F5F5F5F5F5F5F5F5F5F5F5F5F5F5F5F5F5F5F5F5F5F5F5F5F5F5F5F5F5F5F5F5F5F5F5F5F5F5F5F5F5F5
310
F5F5F5F5F5F5F5F5F5F5F5F5F5F5F5F5F5F5F5F5F5F5F5F5F5F5F5F5F5F5F5F5F5F5F5F5F5F5F5F5F5F5F5F5F5F5F5F5F5F5F5F5F5F5F5F5F5F5F5F5F5F5F5F5F5F5F5F5F5F5F5F5F5E2F5F5F5F5F5F5F5F5F5F5F5F5F5F5F5F5E2F5F5F5E2E2EFF5F5F5E2F5F5F5F5F5F5F5F5F5F5F5F5F5F5F5F5E2F5F5F5F5F5F5F5F5F5
310
F5F5F5F5F5F5F5F5F5F5F5F5F5F5F5F5F5F5F5F5F5F5F5F5F5F5F5F5F5F5F5F5F5F5F5F5F5F5F5F5F5F5F5F5F5F5F5F5F5F5F5F5F5F5F5F5F5F5F5F5F5F5F5F5F5F5F5F5F5F5F5F5F5F5F5F5F5F5F5F5F5F5F5F5F5F5F5F5F5F5F5F5F5F5F5F5F5F5F5F5F5F5F5F5F5F5F5F5F5F5F5F5F5F5F5F5F5F5F5F5F5F5F5F5F5F5E2
310
F5F5F5F5F5F5F5F5F5F5F5F5F5F5F5F5E2F5F5F5E2E2EFF5F5F5E2F5F5F5F5F5F5F5F5F5F5F5F5F5F5F5F5E2F5F5F5F5F5F5F5F5F5F5F5F5F5F5F5F5F5F5F5F5F5F5F5F5F5F5F5F5F5F5F5F5F5F5F5F5F5F5F5F5F5F5F5F5F5F5F5F5F5F5F5F5F5F5F5F5F5F5F5F5F5F5F5F5F5F5F5F5F5F5F5F5F5F5F5F5F5F5F5F5F5F5F5
310
F5F5F5F5F5F5F5F5F5F5F5F5F5F5F5F5F5F5F5F5F5F5F5F5F5F5F5F5F5F5F5F5F5F5F5F5F5F5F5F5F5F5F5F5F5F5F5F5F5F5F5F5E2F5F5F5F5F5F5F5F5F5F5F5F5F5F5F5F5E2F5F5F5E2E2EFF5F5F5E2F5F5F5F5F5F5F5F5F5F5F5F5F5F5F5F5E2F5F5F5F5F5F5F5F5F5F5F5F5F5F5F5F5F5F5F5F5F5F5F5F5F5F5F5F5F5F5
310
F5F5F5F5F5F5F5F5F5F5F5F5F5F5F5F5F5F5F5F5F5F5F5F5F5F5F5F5F5F5F5F5F5F5F5F5F5F5F5F5F5F5F5F5F5F5F5F5F5F5F5F5F5F5F5F5F5F5F5F5F5F5F5F5F5F5F5F5F5F5F5F5F5F5F5F5F5F5F5F5F5F5F5F5F5F5F5F5F5F5F5F5F5F5F5F5F5F5F5F5F5F5F5F5F5E2F5F5F5F5F5F5F5F5F5F5F5F5F5F5F5F5E2F5F5F5E2
310
E2EFF5F5F5E2F5F5F5F5F5F5F5F5F5F5F5F5F5F5F5F5E2F5F5F5F5F5F5F5F5F5F5F5F5F5F5F5F5F5F5F5F5F5F5F5F5F5F5F5F5F5F5F5F5F5F5F5F5F5F5F5F5F5F5F5F5F5F5F5F5F5F5F5F5F5F5F5F5F5F5F5F5F5F5F5F5F5F5F5F5F5F5F5F5F5F5F5F5F5F5F5F5F5F5F5F5F5F5F5F5F5F5F5F5F5F5F5F5F5F5F5F5F5F5F5F5
310
F5F5F5F5F5F5F5F5F5F5F5F5F5F5F5F5F5F5F5F5F5F5F5F5F5F5F5F5F5F5F5E2F5F5F5F5F5F5F5F5F5F5F5F5F5F5F5F5E2F5F5F5E2E2EFF5F5F5E2F5F5F5F5F5F5F5F5F5F5F5F5F5F5F5F5E2F5F5F5F5F5F5F5F5F5F5F5F5F5F5F5F5F5F5F5F5F5F5F5F5F5F5F5F5F5F5F5F5F5F5F5F5F5F5F5F5F5F5F5F5F5F5F5F5F5F5F5
310
F5F5F5F5F5F5F5F5F5F5F5F5F5F5F5F5F5F5F5F5F5F5F5F5F5F5F5F5F5F5F5F5F5F5F5F5F5F5F5F5F5F5F5F5F5F5F5F5F5F5F5F5F5F5F5F5F5F5F5F5F5F5F5F5F5F5F5F5F5F5F5F5F5F5F5F5F5F5F5F5F5F5F5F5E2F5F5F5F5F5F5F5F5F5F5F5F5F5F5F5F5E2F5F5F5E2E2EFF5F5F5E2F5F5F5F5F5F5F5F5F5F5F5F5F5F5F5
310
F5E2F5F5F5F5F5F5F5F5F5F5F5F5F5F5F5F5F5F5F5F5F5F5F5F5F5F5F5F5F5F5F5F5F5F5F5F5F5F5F5F5F5F5F5F5F5F5F5F5F5F5F5F5F5F5F5F5F5F5F5F5F5F5F5F5F5F5F5F5F5F5F5F5F5F5F5F5F5F5F5F5F5F5F5F5F5F5F5F5F5F5F5F5F5F5F5F5F5F5F5F5F5F5F5F5F5F5F5F5F5F5F5F5F5F5F5F5F5F5F5F5F5F5F5F5F5
310
F5F5F5F5F5F5F5F5F5F5E2F5F5F5F5F5F5F5F5F5F5F5F5F5F5F5F5E2F5F5F5E2E2EFF5F5F5E2F5F5F5F5F5F5F5F5F5F5F5F5F5F5F5F5E2F5F5F5F5F5F5F5F5F5F5F5F5F5F5F5F5F5F5F5F5F5F5F5F5F5F5F5F5F5F5F5F5F5F5F5F5F5F5F5F5F5F5F5F5F5F5F5F5F5F5F5F5F5F5F5F5F5F5F5F5F5F5F5F5F5F5F5F5F5F5F5F5
310
F5F5F5F5F5F5F5F5F5F5F5F5F5F5F5F5F5F5F5F5F5F5F5F5F5F5F5F5F5F5F5F5F5F5F5F5F5F5F5F5F5F5F5F5F5F5F5F5F5F5F5F5F5F5F5F5F5F5F5F5F5F5F5E2F5F5F5F5F5F5F5F5F5F5F5F5F5F5F5F5E2F5F5F5E2E2EFF5F5F5E2F5F5F5F5F5F5F5F5F5F5F5F5F5F5F5F5E2F5F5F5F5F5F5F5F5F5F5F5F5F5F5F5F5F5F5F5
310
F5F5F5F5F5F5F5F5F5F5F5F5F5F5F5F5F5F5F5F5F5F5F5F5F5F5F5F5F5F5F5F5F5F5F5F5F5F5F5F5F5F5F5F5F5F5F5F5F5F5F5F5F5F5F5F5F5F5F5F5F5F5F5F5F5F5F5F5F5F5F5F5F5F5F5F5F5F5F5F5F5F5F5F5F5F5F5F5F5F5F5F5F5F5F5F5F5F5F5F5F5F5F5F5F5F5F5F5F5F5F5F5F5F5F5F5E2F5F5F5F5F5F5F5F5F5F5
310
F5F5F5F5F5F5E2F5F5F5E2E2EFF5F5F5E2F5F5F5F5F5F5F5F5F5F5F5F5F5F5F5F5E2F5F5F5F5F5F5F5F5F5F5F5F5F5F5F5F5F5F5F5F5F5F5F5F5F5F5F5F5F5F5F5F5F5F5F5F5F5F5F5F5F5F5F5F5F5F5F5F5F5F5F5F5F5F5F5F5F5F5F5F5F5F5F5F5F5F5F5F5F5F5F5F5F5F5F5F5F5F5F5F5F5F5F5F5F5F5F5F5F5F5F5F5F5
310
F5F5F5F5F5F5F5F5F5F5F5F5F5F5F5F5F5F5F5F5F5F5F5F5F5F5F5F5F5F5F5F5F5F5F5F5F5F5F5F5F5F5E2F5F5F5F5F5F5F5F5F5F5F5F5F5F5F5F5E2F5F5F5E2E2EFF5F5F5E2F5F5F5F5F5F5F5F5F5F5F5F5F5F5F5F5E2F5F5F5F5F5F5F5F5F5F5F5F5F5F5F5F5F5F5F5F5F5F5F5F5F5F5F5F5F5F5F5F5F5F5F5F5F5F5F5F5
310
F5F5F5F5F5F5F5F5F5F5F5F5F5F5F5F5F5F5F5F5F5F5F5F5F5F5F5F5F5F5F5F5F5F5F5F5F5F5F5F5F5F5F5F5F5F5F5F5F5F5F5F5F5F5F5F5F5F5F5F5F5F5F5F5F5F5F5F5F5F5F5F5F5F5F5F5F5F5F5F5F5F5F5F5F5F5F5F5F5F5F5F5F5F5F5E2F5F5F5F5F5F5F5F5F5F5F5F5F5F5F5F5E2F5F5F5E2E2EFF5F5F5E2F5F5F5F5
310
F5F5F5F5F5F5F5F5F5F5F5F5E2F5F5F5F5F5F5F5F5F5F5F5F5F5F5F5F5F5F5F5F5F5F5F5F5F5F5F5F5F5F5F5F5F5F5F5F5F5F5F5F5F5F5F5F5F5F5F5F5F5F5F5F5F5F5F5F5F5F5F5F5F5F5F5F5F5F5F5F5F5F5F5F5F5F5F5F5F5F5F5F5F5F5F5F5F5F5F5F5F5F5F5F5F5F5F5F5F5F5F5F5F5F5F5F5F5F5F5F5F5F5F5F5F5F5
310
F5F5F5F5F5F5F5F5F5F5F5F5F5F5F5F5F5F5F5F5F5E2F5F5F5F5F5F5F5F5F5F5F5F5F5F5F5F5E2F5F5F5E2E2EFF5F5F5F5F5F5F5F5F5F5F5F5F5F5F5F5F5F5F5F5E2F5F5F5F5F5F5F5F5F5F5F5F5F5F5F5F5F5F5F5F5F5F5F5F5F5F5F5F5F5F5F5F5F5F5F5F5F5F5F5F5F5F5F5F5F5F5F5F5F5F5F5F5F5F5F5F5F5F5F5F5F5
310
F5F5F5F5F5F5F5F5F5F5F5F5F5F5F5F5F5F5F5F5F5F5F5F5F5F5F5F5F5F5F5F5F5F5F5F5F5F5F5F5F5F5F5F5F5F5F5F5F5F5F5F5F5F5F5F5F5F5F5F5F5F5F5F5F5F5F5F5F5F5F5F5F5F5E2F5F5F5F5F5F5F5F5F5F5F5F5F5F5F5F5F5F5F5F5E2E2EFF5F5F5F5F5F5F5F5F5F5F5F5F5F5F5F5F5F5F5F5E2F5F5F5F5F5F5F5F5
310
F5F5F5F5F5F5F5F5F5F5F5F5F5F5F5F5F5F5F5F5F5F5F5F5F5F5F5F5F5F5F5F5F5F5F5F5F5F5F5F5F5F5F5F5F5F5F5F5F5F5F5F5F5F5F5F5F5F5F5F5F5F5F5F5F5F5F5F5F5F5F5F5F5F5F5F5F5F5F5F5F5F5F5F5F5F5F5F5F5F5F5F5F5F5F5F5F5F5F5F5F5F5F5F5F5F5F5F5F5F5F5F5F5F5F5F5F5F5F5F5F5F5F5F5F5F5F5
310
E2F5F5F5F5F5F5F5F5F5F5F5F5F5F5F5F5F5F5F5F5E2E2EFF5F5F5F5F5F5F5F5F5F5F5F5F5F5F5F5F5F5F5F5E2F5F5F5F5F5F5F5F5F5F5F5F5F5F5F5F5F5F5F5F5F5F5F5F5F5F5F5F5F5F5F5F5F5F5F5F5F5F5F5F5F5F5F5F5F5F5F5F5F5F5F5F5F5F5F5F5F5F5F5F5F5F5F5F5F5F5F5F5F5F5F5F5F5F5F5F5F5F5F5F5F5F5
310
F5F5F5F5F5F5F5F5F5F5F5F5F5F5F5F5F5F5F5F5F5F5F5F5F5F5F5F5F5F5F5F5F5F5F5F5F5F5F5F5F5F5F5F5F5F5F5F5F5F5F5F5F5E2F5F5F5F5F5F5F5F5F5F5F5F5F5F5F5F5F5F5F5F5E2E2EFF5F5F5F5F5F5F5F5F5F5F5F5F5F5F5F5F5F5F5F5E2F5F5F5F5F5F5F5F5F5F5F5F5F5F5F5F5F5F5F5F5F5F5F5F5F5F5F5F5F5
310
F5F5F5F5F5F5F5F5F5F5F5F5F5F5F5F5F5F5F5F5F5F5F5F5F5F5F5F5F5F5F5F5F5F5F5F5F5F5F5F5F5F5F5F5F5F5F5F5F5F5F5F5F5F5F5F5F5F5F5F5F5F5F5F5F5F5F5F5F5F5F5F5F5F5F5F5F5F5F5F5F5F5F5F5F5F5F5F5F5F5F5F5F5F5F5F5F5F5F5F5F5F5F5F5F5F5E2F5F5F5F5F5F5F5F5F5F5F5F5F5F5F5F5F5F5F5F5
310
E2E2EFF5F5F5F5F5F5F5F5F5F5F5F5F5F5F5F5F5F5F5F5E2F5F5F5F5F5F5F5F5F5F5F5F5F5F5F5F5F5F5F5F5F5F5F5F5F5F5F5F5F5F5F5F5F5F5F5F5F5F5F5F5F5F5F5F5F5F5F5F5F5F5F5F5F5F5F5F5F5F5F5F5F5F5F5F5F5F5F5F5F5F5F5F5F5F5F5F5F5F5F5F5F5F5F5F5F5F5F5F5F5F5F5F5F5F5F5F5F5F5F5F5F5F5F5
310
F5F5F5F5F5F5F5F5F5F5F5F5F5F5F5F5F5F5F5F5F5F5F5F5F5F5F5F5F5F5F5F5E2F5F5F5F5F5F5F5F5F5F5F5F5F5F5F5F5F5F5F5F5E2E2EFF5F5F5F5F5F5F5F5F5F5F5F5F5F5F5F5F5F5F5F5E2F5F5F5F5F5F5F5F5F5F5F5F5F5F5F5F5F5F5F5F5F5F5F5F5F5F5F5F5F5F5F5F5F5F5F5F5F5F5F5F5F5F5F5F5F5F5F5F5F5F5
310
F5F5F5F5F5F5F5F5F5F5F5F5F5F5F5F5F5F5F5F5F5F5F5F5F5F5F5F5F5F5F5F5F5F5F5F5F5F5F5F5F5F5F5F5F5F5F5F5F5F5F5F5F5F5F5F5F5F5F5F5F5F5F5F5F5F5F5F5F5F5F5F5F5F5F5F5F5F5F5F5F5F5F5F5F5E2F5F5F5F5F5F5F5F5F5F5F5F5F5F5F5F5F5F5F5F5E2E2EFF5F5F5F5F5F5F5F5F5F5F5F5F5F5F5F5F5F5
310
F5F5E2F5F5F5F5F5F5F5F5F5F5F5F5F5F5F5F5F5F5F5F5F5F5F5F5F5F5F5F5F5F5F5F5F5F5F5F5F5F5F5F5F5F5F5F5F5F5F5F5F5F5F5F5F5F5F5F5F5F5F5F5F5F5F5F5F5F5F5F5F5F5F5F5F5F5F5F5F5F5F5F5F5F5F5F5F5F5F5F5F5F5F5F5F5F5F5F5F5F5F5F5F5F5F5F5F5F5F5F5F5F5F5F5F5F5F5F5F5F5F5F5F5F5F5F5
310
F5F5F5F5F5F5F5F5F5F5F5E2F5F5F5F5F5F5F5F5F5F5F5F5F5F5F5F5F5F5F5F5E2E2EFF5F5F5F5F5F5F5F5F5F5F5F5F5F5F5F5F5F5F5F5E2F5F5F5F5F5F5F5F5F5F5F5F5F5F5F5F5F5F5F5F5F5F5F5F5F5F5F5F5F5F5F5F5F5F5F5F5F5F5F5F5F5F5F5F5F5F5F5F5F5F5F5F5F5F5F5F5F5F5F5F5F5F5F5F5F5F5F5F5F5F5F5
310
F5F5F5F5F5F5F5F5F5F5F5F5F5F5F5F5F5F5F5F5F5F5F5F5F5F5F5F5F5F5F5F5F5F5F5F5F5F5F5F5F5F5F5F5F5F5F5F5F5F5F5F5F5F5F5F5F5F5F5F5F5F5F5F5E2F5F5F5F5F5F5F5F5F5F5F5F5F5F5F5F5F5F5F5F5E2E2EFF5F5F5F5F5F5F5F5F5F5F5F5F5F5F5F5F5F5F5F5E2F5F5F5F5F5F5F5F5F5F5F5F5F5F5F5F5F5F5
310
F5F5F5F5F5F5F5F5F5F5F5F5F5F5F5F5F5F5F5F5F5F5F5F5F5F5F5F5F5F5F5F5F5F5F5F5F5F5F5F5F5F5F5F5F5F5F5F5F5F5F5F5F5F5F5F5F5F5F5F5F5F5F5F5F5F5F5F5F5F5F5F5F5F5F5F5F5F5F5F5F5F5F5F5F5F5F5F5F5F5F5F5F5F5F5F5F5F5F5F5F5F5F5F5F5F5F5F5F5F5F5F5F5F5F5F5F5E2F5F5F5F5F5F5F5F5F5
310
F5F5F5F5F5F5F5F5F5F5F5E2E2EFF5F5F5E2F5F5F5F5F5F5F5F5F5F5F5F5F5F5F5F5E2F5F5F5F5F5F5F5F5F5F5F5F5F5F5F5F5F5F5F5F5F5F5F5F5F5F5F5F5F5F5F5F5F5F5F5F5F5F5F5F5F5F5F5F5F5F5F5F5F5F5F5F5F5F5F5F5F5F5F5F5F5F5F5F5F5F5F5F5F5F5F5F5F5F5F5F5F5F5F5F5F5F5F5F5F5F5F5F5F5F5F5F5
310
F5F5F5F5F5F5F5F5F5F5F5F5F5F5F5F5F5F5F5F5F5F5F5F5F5F5F5F5F5F5F5F5F5F5F5F5F5F5F5F5F5F5F5E2F5F5F5F5F5F5F5F5F5F5F5F5F5F5F5F5E2F5F5F5E2E2EFF5F5F5E2F5F5F5F5F5F5F5F5F5F5F5F5F5F5F5F5E2F5F5F5F5F5F5F5F5F5F5F5F5F5F5F5F5F5F5F5F5F5F5F5F5F5F5F5F5F5F5F5F5F5F5F5F5F5F5F5
310
F5F5F5F5F5F5F5F5F5F5F5F5F5F5F5F5F5F5F5F5F5F5F5F5F5F5F5F5F5F5F5F5F5F5F5F5F5F5F5F5F5F5F5F5F5F5F5F5F5F5F5F5F5F5F5F5F5F5F5F5F5F5F5F5F5F5F5F5F5F5F5F5F5F5F5F5F5F5F5F5F5F5F5F5F5F5F5F5F5F5F5F5F5F5F5F5E2F5F5F5F5F5F5F5F5F5F5F5F5F5F5F5F5E2F5F5F5E2E2EFF5F5F5E2F5F5F5
310
F5F5F5F5F5F5F5F5F5F5F5F5F5E2F5F5F5F5F5F5F5F5F5F5F5F5F5F5F5F5F5F5F5F5F5F5F5F5F5F5F5F5F5F5F5F5F5F5F5F5F5F5F5F5F5F5F5F5F5F5F5F5F5F5F5F5F5F5F5F5F5F5F5F5F5F5F5F5F5F5F5F5F5F5F5F5F5F5F5F5F5F5F5F5F5F5F5F5F5F5F5F5F5F5F5F5F5F5F5F5F5F5F5F5F5F5F5F5F5F5F5F5F5F5F5F5F5
310
F5F5F5F5F5F5F5F5F5F5F5F5F5F5F5F5F5F5F5F5F5F5E2F5F5F5F5F5F5F5F5F5F5F5F5F5F5F5F5E2F5F5F5E2E2EFF5F5F5E2F5F5F5F5F5F5F5F5F5F5F5F5F5F5F5F5E2F5F5F5F5F5F5F5F5F5F5F5F5F5F5F5F5F5F5F5F5F5F5F5F5F5F5F5F5F5F5F5F5F5F5F5F5F5F5F5F5F5F5F5F5F5F5F5F5F5F5F5F5F5F5F5F5F5F5F5F5
310
F5F5F5F5F5F5F5F5F5F5F5F5F5F5F5F5F5F5F5F5F5F5F5F5F5F5F5F5F5F5F5F5F5F5F5F5F5F5F5F5F5F5F5F5F5F5F5F5F5F5F5F5F5F5F5F5F5F5F5F5F5F5F5F5F5F5F5F5F5F5F5F5F5F5F5E2F5F5F5F5F5F5F5F5F5F5F5F5F5F5F5F5E2F5F5F5E2E2EFF5F5F5E2F5F5F5F5F5F5F5F5F5F5F5F5F5F5F5F5E2F5F5F5F5F5F5F5
310
F5F5F5F5F5F5F5F5F5F5F5F5F5F5F5F5F5F5F5F5F5F5F5F5F5F5F5F5F5F5F5F5F5F5F5F5F5F5F5F5F5F5F5F5F5F5F5F5F5F5F5F5F5F5F5F5F5F5F5F5F5F5F5F5F5F5F5F5F5F5F5F5F5F5F5F5F5F5F5F5F5F5F5F5F5F5F5F5F5F5F5F5F5F5F5F5F5F5F5F5F5F5F5F5F5F5F5F5F5F5F5F5F5F5F5F5F5F5F5F5F5F5F5F5F5F5F5
310
F5E2F5F5F5F5F5F5F5F5F5F5F5F5F5F5F5F5E2F5F5F5E2E2EFF5F5F5E2F5F5F5F5F5F5F5F5F5F5F5F5F5F5F5F5E2F5F5F5F5F5F5F5F5F5F5F5F5F5F5F5F5F5F5F5F5F5F5F5F5F5F5F5F5F5F5F5F5F5F5F5F5F5F5F5F5F5F5F5F5F5F5F5F5F5F5F5F5F5F5F5F5F5F5F5F5F5F5F5F5F5F5F5F5F5F5F5F5F5F5F5F5F5F5F5F5F5
310
F5F5F5F5F5F5F5F5F5F5F5F5F5F5F5F5F5F5F5F5F5F5F5F5F5F5F5F5F5F5F5F5F5F5F5F5F5F5F5F5F5F5F5F5F5F5F5F5F5F5F5F5F5F5E2F5F5F5F5F5F5F5F5F5F5F5F5F5F5F5F5E2F5F5F5E2E2EFF5F5F5E2F5F5F5F5F5F5F5F5F5F5F5F5F5F5F5F5E2F5F5F5F5F5F5F5F5F5F5F5F5F5F5F5F5F5F5F5F5F5F5F5F5F5F5F5F5
310
F5F5F5F5F5F5F5F5F5F5F5F5F5F5F5F5F5F5F5F5F5F5F5F5F5F5F5F5F5F5F5F5F5F5F5F5F5F5F5F5F5F5F5F5F5F5F5F5F5F5F5F5F5F5F5F5F5F5F5F5F5F5F5F5F5F5F5F5F5F5F5F5F5F5F5F5F5F5F5F5F5F5F5F5F5F5F5F5F5F5F5F5F5F5F5F5F5F5F5F5F5F5F5F5F5F5F5E2F5F5F5F5F5F5F5F5F5F5F5F5F5F5F5F5E2F5F5
310
F5E2E2EFF5F5F5E2F5F5F5F5F5F5F5F5F5F5F5F5F5F5F5F5E2F5F5F5F5F5F5F5F5F5F5F5F5F5F5F5F5F5F5F5F5F5F5F5F5F5F5F5F5F5F5F5F5F5F5F5F5F5F5F5F5F5F5F5F5F5F5F5F5F5F5F5F5F5F5F5F5F5F5F5F5F5F5F5F5F5F5F5F5F5F5F5F5F5F5F5F5F5F5F5F5F5F5F5F5F5F5F5F5F5F5F5F5F5F5F5F5F5F5F5F5F5F5
310
F5F5F5F5F5F5F5F5F5F5F5F5F5F5F5F5F5F5F5F5F5F5F5F5F5F5F5F5F5F5F5F5F5E2F5F5F5F5F5F5F5F5F5F5F5F5F5F5F5F5E2F5F5F5E2E2EFF5F5F5E2F5F5F5F5F5F5F5F5F5F5F5F5F5F5F5F5E2F5F5F5F5F5F5F5F5F5F5F5F5F5F5F5F5F5F5F5F5F5F5F5F5F5F5F5F5F5F5F5F5F5F5F5F5F5F5F5F5F5F5F5F5F5F5F5F5F5
310
F5F5F5F5F5F5F5F5F5F5F5F5F5F5F5F5F5F5F5F5F5F5F5F5F5F5F5F5F5F5F5F5F5F5F5F5F5F5F5F5F5F5F5F5F5F5F5F5F5F5F5F5F5F5F5F5F5F5F5F5F5F5F5F5F5F5F5F5F5F5F5F5F5F5F5F5F5F5F5F5F5F5F5F5F5F5E2F5F5F5F5F5F5F5F5F5F5F5F5F5F5F5F5E2F5F5F5E2E2EFF5F5F5E2F5F5F5F5F5F5F5F5F5F5F5F5F5
310
F5F5F5E2F5F5F5F5F5F5F5F5F5F5F5F5F5F5F5F5F5F5F5F5F5F5F5F5F5F5F5F5F5F5F5F5F5F5F5F5F5F5F5F5F5F5F5F5F5F5F5F5F5F5F5F5F5F5F5F5F5F5F5F5F5F5F5F5F5F5F5F5F5F5F5F5F5F5F5F5F5F5F5F5F5F5F5F5F5F5F5F5F5F5F5F5F5F5F5F5F5F5F5F5F5F5F5F5F5F5F5F5F5F5F5F5F5F5F5F5F5F5F5F5F5F5F5
310
F5F5F5F5F5F5F5F5F5F5F5F5E2F5F5F5F5F5F5F5F5F5F5F5F5F5F5F5F5E2F5F5F5E2E2EFF5F5F5E2F5F5F5F5F5F5F5F5F5F5F5F5F5F5F5F5E2F5F5F5F5F5F5F5F5F5F5F5F5F5F5F5F5F5F5F5F5F5F5F5F5F5F5F5F5F5F5F5F5F5F5F5F5F5F5F5F5F5F5F5F5F5F5F5F5F5F5F5F5F5F5F5F5F5F5F5F5F5F5F5F5F5F5F5F5F5F5
310
F5F5F5F5F5F5F5F5F5F5F5F5F5F5F5F5F5F5F5F5F5F5F5F5F5F5F5F5F5F5F5F5F5F5F5F5F5F5F5F5F5F5F5F5F5F5F5F5F5F5F5F5F5F5F5F5F5F5F5F5F5F5F5F5F5E2F5F5F5F5F5F5F5F5F5F5F5F5F5F5F5F5E2F5F5F5E2E2EFF5F5F5E2F5F5F5F5F5F5F5F5F5F5F5F5F5F5F5F5E2F5F5F5F5F5F5F5F5F5F5F5F5F5F5F5F5F5
310
F5F5F5F5F5F5F5F5F5F5F5F5F5F5F5F5F5F5F5F5F5F5F5F5F5F5F5F5F5F5F5F5F5F5F5F5F5F5F5F5F5F5F5F5F5F5F5F5F5F5F5F5F5F5F5F5F5F5F5F5F5F5F5F5F5F5F5F5F5F5F5F5F5F5F5F5F5F5F5F5F5F5F5F5F5F5F5F5F5F5F5F5F5F5F5F5F5F5F5F5F5F5F5F5F5F5F5F5F5F5F5F5F5F5F5F5F5F5E2F5F5F5F5F5F5F5F5
310
F5F5F5F5F5F5F5F5E2F5F5F5E2E2EFF5F5F5E2F5F5F5F5F5F5F5F5F5F5F5F5F5F5F5F5E2F5F5F5F5F5F5F5F5F5F5F5F5F5F5F5F5F5F5F5F5F5F5F5F5F5F5F5F5F5F5F5F5F5F5F5F5F5F5F5F5F5F5F5F5F5F5F5F5F5F5F5F5F5F5F5F5F5F5F5F5F5F5F5F5F5F5F5F5F5F5F5F5F5F5F5F5F5F5F5F5F5F5F5F5F5F5F5F5F5F5F5
310
F5F5F5F5F5F5F5F5F5F5F5F5F5F5F5F5F5F5F5F5F5F5F5F5F5F5F5F5F5F5F5F5F5F5F5F5F5F5F5F5F5F5F5F5E2F5F5F5F5F5F5F5F5F5F5F5F5F5F5F5F5E2F5F5F5E2E2EFF5F5F5E2F5F5F5F5F5F5F5F5F5F5F5F5F5F5F5F5E2F5F5F5F5F5F5F5F5F5F5F5F5F5F5F5F5F5F5F5F5F5F5F5F5F5F5F5F5F5F5F5F5F5F5F5F5F5F5
310
F5F5F5F5F5F5F5F5F5F5F5F5F5F5F5F5F5F5F5F5F5F5F5F5F5F5F5F5F5F5F5F5F5F5F5F5F5F5F5F5F5F5F5F5F5F5F5F5F5F5F5F5F5F5F5F5F5F5F5F5F5F5F5F5F5F5F5F5F5F5F5F5F5F5F5F5F5F5F5F5F5F5F5F5F5F5F5F5F5F5F5F5F5F5F5F5F5E2F5F5F5F5F5F5F5F5F5F5F5F5F5F5F5F5E2F5F5F5E2E2EFF5F5F5E2F5F5
310
F5F5F5F5F5F5F5F5F5F5F5F5F5F5E2F5F5F5F5F5F5F5F5F5F5F5F5F5F5F5F5F5F5F5F5F5F5F5F5F5F5F5F5F5F5F5F5F5F5F5F5F5F5F5F5F5F5F5F5F5F5F5F5F5F5F5F5F5F5F5F5F5F5F5F5F5F5F5F5F5F5F5F5F5F5F5F5F5F5F5F5F5F5F5F5F5F5F5F5F5F5F5F5F5F5F5F5F5F5F5F5F5F5F5F5F5F5F5F5F5F5F5F5F5F5F5F5
310
F5F5F5F5F5F5F5F5F5F5F5F5F5F5F5F5F5F5F5F5F5F5F5E2F5F5F5F5F5F5F5F5F5F5F5F5F5F5F5F5E2F5F5F5E2E2EFF5F5F5E2F5F5F5F5F5F5F5F5F5F5F5F5F5F5F5F5E2F5F5F5F5F5F5F5F5F5F5F5F5F5F5F5F5F5F5F5F5F5F5F5F5F5F5F5F5F5F5F5F5F5F5F5F5F5F5F5F5F5F5F5F5F5F5F5F5F5F5F5F5F5F5F5F5F5F5F5
310
F5F5F5F5F5F5F5F5F5F5F5F5F5F5F5F5F5F5F5F5F5F5F5F5F5F5F5F5F5F5F5F5F5F5F5F5F5F5F5F5F5F5F5F5F5F5F5F5F5F5F5F5F5F5F5F5F5F5F5F5F5F5F5F5F5F5F5F5F5F5F5F5F5F5F5F5E2F5F5F5F5F5F5F5F5F5F5F5F5F5F5F5F5E2F5F5F5E2E2EFF5F5F5E2F5F5F5F5F5F5F5F5F5F5F5F5F5F5F5F5E2F5F5F5F5F5F5
310
F5F5F5F5F5F5F5F5F5F5F5F5F5F5F5F5F5F5F5F5F5F5F5F5F5F5F5F5F5F5F5F5F5F5F5F5F5F5F5F5F5F5F5F5F5F5F5F5F5F5F5F5F5F5F5F5F5F5F5F5F5F5F5F5F5F5F5F5F5F5F5F5F5F5F5F5F5F5F5F5F5F5F5F5F5F5F5F5F5F5F5F5F5F5F5F5F5F5F5F5F5F5F5F5F5F5F5F5F5F5F5F5F5F5F5F5F5F5F5F5F5F5F5F5F5F5F5
310
F5F5E2F5F5F5F5F5F5F5F5F5F5F5F5F5F5F5F5E2F5F5F5E2E2EFF5F5F5F5F5F5F5F5F5F5F5F5F5F5F5F5F5F5F5F5E2F5F5F5F5F5F5F5F5F5F5F5F5F5F5F5F5F5F5F5F5F5F5F5F5F5F5F5F5F5F5F5F5F5F5F5F5F5F5F5F5F5F5F5F5F5F5F5F5F5F5F5F5F5F5F5F5F5F5F5F5F5F5F5F5F5F5F5F5F5F5F5F5F5F5F5F5F5F5F5F5
310
F5F5F5F5F5F5F5F5F5F5F5F5F5F5F5F5F5F5F5F5F5F5F5F5F5F5F5F5F5F5F5F5F5F5F5F5F5F5F5F5F5F5F5F5F5F5F5F5F5F5F5F5F5F5F5E2F5F5F5F5F5F5F5F5F5F5F5F5F5F5F5F5F5F5F5F5E2E2EFF5F5F5F5F5F5F5F5F5F5F5F5F5F5F5F5F5F5F5F5E2F5F5F5F5F5F5F5F5F5F5F5F5F5F5F5F5F5F5F5F5F5F5F5F5F5F5F5
310
F5F5F5F5F5F5F5F5F5F5F5F5F5F5F5F5F5F5F5F5F5F5F5F5F5F5F5F5F5F5F5F5F5F5F5F5F5F5F5F5F5F5F5F5F5F5F5F5F5F5F5F5F5F5F5F5F5F5F5F5F5F5F5F5F5F5F5F5F5F5F5F5F5F5F5F5F5F5F5F5F5F5F5F5F5F5F5F5F5F5F5F5F5F5F5F5F5F5F5F5F5F5F5F5F5F5F5F5E2F5F5F5F5F5F5F5F5F5F5F5F5F5F5F5F5F5F5
310
F5F5E2E2EFF5F5F5F5F5F5F5F5F5F5F5F5F5F5F5F5F5F5F5F5E2F5F5F5F5F5F5F5F5F5F5F5F5F5F5F5F5F5F5F5F5F5F5F5F5F5F5F5F5F5F5F5F5F5F5F5F5F5F5F5F5F5F5F5F5F5F5F5F5F5F5F5F5F5F5F5F5F5F5F5F5F5F5F5F5F5F5F5F5F5F5F5F5F5F5F5F5F5F5F5F5F5F5F5F5F5F5F5F5F5F5F5F5F5F5F5F5F5F5F5F5F5
310
F5F5F5F5F5F5F5F5F5F5F5F5F5F5F5F5F5F5F5F5F5F5F5F5F5F5F5F5F5F5F5F5F5F5E2F5F5F5F5F5F5F5F5F5F5F5F5F5F5F5F5F5F5F5F5E2E2EFF5F5F5F5F5F5F5F5F5F5F5F5F5F5F5F5F5F5F5F5E2F5F5F5F5F5F5F5F5F5F5F5F5F5F5F5F5F5F5F5F5F5F5F5F5F5F5F5F5F5F5F5F5F5F5F5F5F5F5F5F5F5F5F5F5F5F5F5F5
310
F5F5F5F5F5F5F5F5F5F5F5F5F5F5F5F5F5F5F5F5F5F5F5F5F5F5F5F5F5F5F5F5F5F5F5F5F5F5F5F5F5F5F5F5F5F5F5F5F5F5F5F5F5F5F5F5F5F5F5F5F5F5F5F5F5F5F5F5F5F5F5F5F5F5F5F5F5F5F5F5F5F5F5F5F5F5F5E2F5F5F5F5F5F5F5F5F5F5F5F5F5F5F5F5F5F5F5F5E2E2EFF5F5F5F5F5F5F5F5F5F5F5F5F5F5F5F5
310
F5F5F5F5E2E2E2E2E2E2E2E2E2E2E2E2E2E2E2E2E2E2E2E2E2E2E2E2E2E2E2E2E2E2E2E2E2E2E2E2E2E2E2E2E2E2E2E2E2E2E2E2E2E2E2E2E2E2E2E2E2E2E2E2E2E2E2E2E2E2E2E2E2E2E2E2E2E2E2E2E2E2E2E2E2E2E2E2E2E2E2E2E2E2E2E2E2E2E2E2E2E2E2E2E2E2E2E2E2E2E2E2E2E2E2E2E2E2E2E2E2E2E2E2E2E2E2
310
E2E2E2E2E2E2E2E2E2E2E2E2E2E2F5F5F5F5F5F5F5F5F5F5F5F5F5F5F5F5F5F5F5F5E2E2EFF5F5F5F5F5F5F5F5F5F5F5F5F5F5F5F5F5F5F5F5F5F5F5F5F5F5F5F5F5F5F5F5F5F5F5F5F5F5F5F5F5F5F5F5F5F5F5F5F5F5F5F5F5F5F5F5F5F5F5F5F5F5F5F5F5F5F5F5F5F5F5F5F5F5F5F5F5F5F5F5F5F5F5F5F5F5F5F5F5F5
310
F5F5F5F5F5F5F5F5F5F5F5F5F5F5F5F5F5F5F5F5F5F5F5F5F5F5F5F5F5F5F5F5F5F5F5F5F5F5F5F5F5F5F5F5F5F5F5F5F5F5F5F5F5F5F5F5F5F5F5F5F5F5F5F5F5F5F5F5F5F5F5F5F5F5F5F5F5F5F5F5F5F5F5F5F5F5F5E2E2EFF5F5F5F5F5F5F5F5F5F5F5F5F5F5F5F5F5F5F5F5F5F5F5F5F5F5F5F5F5F5F5F5F5F5F5F5F5
310
F5F5F5F5F5F5F5F5F5F5F5F5F5F5F5F5F5F5F5F5F5F5F5F5F5F5F5F5F5F5F5F5F5F5F5F5F5F5F5F5F5F5F5F5F5F5F5F5F5F5F5F5F5F5F5F5F5F5F5F5F5F5F5F5F5F5F5F5F5F5F5F5F5F5F5F5F5F5F5F5F5F5F5F5F5F5F5F5F5F5F5F5F5F5F5F5F5F5F5F5F5F5F5F5F5F5F5F5F5F5F5F5F5F5F5F5F5F5F5F5F5F5F5F5F5F5F5
310
F5F5F5F5F5F5F5F5F5F5F5F5F5E2E2EFF5F5F5F5F5F5F5F5F5F5F5F5F5F5F5F5F5F5F5F5F5F5F5F5F5F5F5F5F5F5F5F5F5F5F5F5F5F5F5F5F5F5F5F5F5F5F5F5F5F5F5F5F5F5F5F5F5F5F5F5F5F5F5F5F5F5F5F5F5F5F5F5F5F5F5F5F5F5F5F5F5F5F5F5F5F5F5F5F5F5F5F5F5F5F5F5F5F5F5F5F5F5F5F5F5F5F5F5F5F5F5
310
F5F5F5F5F5F5F5F5F5F5F5F5F5F5F5F5F5F5F5F5F5F5F5F5F5F5F5F5F5F5F5F5F5F5F5F5F5F5F5F5F5F5F5F5F5F5F5F5F5F5F5F5F5F5F5F5F5F5F5F5F5F5F5F5F5F5E2E2EFF5F5F5F5F5F5F5F5F5F5F5F5F5F5F5F5F5F5F5F5F5F5F5F5F5F5F5F5F5F5F5F5F5F5F5F5F5F5F5F5F5F5F5F5F5F5F5F5F5F5F5F5F5F5F5F5F5F5
310
F5F5F5F5F5F5F5F5F5F5F5F5F5F5F5F5F5F5F5F5F5F5F5F5F5F5F5F5F5F5F5F5F5F5F5F5F5F5F5F5F5F5F5F5F5F5F5F5F5F5F5F5F5F5F5F5F5F5F5F5F5F5F5F5F5F5F5F5F5F5F5F5F5F5F5F5F5F5F5F5F5F5F5F5F5F5F5F5F5F5F5F5F5F5F5F5F5F5F5F5F5F5F5F5F5F5F5F5F5F5F5F5F5F5F5F5F5F5F5E2E2EFF5F5F5E2F5
310
F5F5F5F5F5F5F5F5F5F5F5F5F5F5F5F5F5F5F5F5F5F5F5F5F5F5F5F5F5F5F5F5F5F5F5F5F5F5F5F5F5F5F5F5F5F5F5F5F5F5F5F5F5F5F5F5F5F5F5F5F5F5F5F5F5F5F5F5F5F5F5F5F5F5F5F5F5F5F5F5F5F5F5F5F5F5F5F5F5F5F5F5F5F5F5F5F5F5F5F5F5F5F5F5F5F5F5F5F5F5F5F5F5F5F5F5F5F5F5F5F5F5F5F5F5F5F5
310
F5F5F5F5F5F5F5F5F5F5F5F5F5F5F5F5F5F5F5F5F5F5F5F5F5F5F5F5F5F5F5F5F5F5F5F5F5F5F5F5F5E2F5F5F5E2E2EFF5F5F5E2F5F5F5F5F5F5F5F5F5F5F5F5F5F5F5F5F5F5F5F5F5F5F5F5F5F5F5F5F5F5F5F5F5F5F5F5F5F5F5F5F5F5F5F5F5F5F5F5F5F5F5F5F5F5F5F5F5F5F5F5F5F5F5F5F5F5F5F5F5F5F5F5F5F5F5
310
F5F5F5F5F5F5F5F5F5F5F5F5F5F5F5F5F5F5F5F5F5F5F5F5F5F5F5F5F5F5F5F5F5F5F5F5F5F5F5F5F5F5F5F5F5F5F5F5F5F5F5F5F5F5F5F5F5F5F5F5F5F5F5F5F5F5F5F5F5F5F5F5F5F5F5F5F5F5F5F5F5F5F5F5F5F5F5F5F5F5F5F5F5F5E2F5F5F5E2E2EFF5F5F5E2F5F5F5F5F5F5F5F5F5F5F5F5F5F5F5F5F5F5F5F5F5F5
310
F5F5F5F5F5F5F5F5F5F5F5F5F5F5F5F5F5F5F5F5F5F5F5F5F5F5F5F5F5F5F5F5F5F5F5F5F5F5F5F5F5F5F5F5F5F5F5F5F5F5F5F5F5F5F5F5F5F5F5F5F5F5F5F5F5F5F5F5F5F5F5F5F5F5F5F5F5F5F5F5F5F5F5F5F5F5F5F5F5F5F5F5F5F5F5F5F5F5F5F5F5F5F5F5F5F5F5F5F5F5F5F5F5F5F5F5F5F5F5F5F5F5F5F5F5F5F5
310
F5F5F5F5F5F5F5F5F5F5F5F5F5F5F5F5F5F5F5F5E2F5F5F5E2E2EFF5F5F5E2F5F5F5F5F5F5F5F5F5F5F5F5F5F5F5F5F5F5F5F5F5F5F5F5F5F5F5F5F5F5F5F5F5F5F5F5F5F5F5F5F5F5F5F5F5F5F5F5F5F5F5F5F5F5F5F5F5F5F5F5F5F5F5F5F5F5F5F5F5F5F5F5F5F5F5F5F5F5F5F5F5F5F5F5F5F5F5F5F5F5F5F5F5F5F5F5
310
F5F5F5F5F5F5F5F5F5F5F5F5F5F5F5F5F5F5F5F5F5F5F5F5F5F5F5F5F5F5F5F5F5F5F5F5F5F5F5F5F5F5F5F5F5F5F5F5F5F5F5F5F5F5F5F5F5F5F5F5F5F5F5F5F5F5F5F5F5F5F5F5F5E2F5F5F5E2E2EFF5F5F5E2F5F5F5F5F5F5F5F5F5F5F5F5F5F5F5F5F5F5F5F5F5F5F5F5F5F5F5F5F5F5F5F5F5F5F5F5F5F5F5F5F5F5F5
310
F5F5F5F5F5F5F5F5F5F5F5F5F5F5F5F5F5F5F5F5F5F5F5F5F5F5F5F5F5F5F5F5F5F5F5F5F5F5F5F5F5F5F5F5F5F5F5F5F5F5F5F5F5F5F5F5F5F5F5F5F5F5F5F5F5F5F5F5F5F5F5F5F5F5F5F5F5F5F5F5F5F5F5F5F5F5F5F5F5F5F5F5F5F5F5F5F5F5F5F5F5F5F5F5F5F5F5F5F5F5F5F5F5F5F5F5F5F5F5F5F5F5F5F5F5F5E2
310
F5F5F5E2E2EFF5F5F5E2F5F5F5F5F5F5F5F5F5F5F5F5F5F5F5F5F5F5F5F5F5F5F5F5F5F5F5F5F5F5F5F5F5F5F5F5F5F5F5F5F5F5F5F5F5F5F5F5F5F5F5F5F5F5F5F5F5F5F5F5F5F5F5F5F5F5F5F5F5F5F5F5F5F5F5F5F5F5F5F5F5F5F5F5F5F5F5F5F5F5F5F5F5F5F5F5F5F5F5F5F5F5F5F5F5F5F5F5F5F5F5F5F5F5F5F5F5
310
F5F5F5F5F5F5F5F5F5F5F5F5F5F5F5F5F5F5F5F5F5F5F5F5F5F5F5F5F5F5F5F5F5F5F5F5F5F5F5F5F5F5F5F5F5F5F5F5F5F5F5F5E2F5F5F5E2E2EFF5F5F5E2F5F5F5F5F5F5F5F5F5F5F5F5F5F5F5F5F5F5F5F5F5F5F5F5F5F5F5F5F5F5F5F5F5F5F5F5F5F5F5F5F5F5F5F5F5F5F5F5F5F5F5F5F5F5F5F5F5F5F5F5F5F5F5F5
310
F5F5F5F5F5F5F5F5F5F5F5F5F5F5F5F5F5F5F5F5F5F5F5F5F5F5F5F5F5F5F5F5F5F5F5F5F5F5F5F5F5F5F5F5F5F5F5F5F5F5F5F5F5F5F5F5F5F5F5F5F5F5F5F5F5F5F5F5F5F5F5F5F5F5F5F5F5F5F5F5F5F5F5F5F5F5F5F5F5F5F5F5F5F5F5F5F5F5F5F5F5F5F5F5F5E2F5F5F5E2E2EFF5F5F5E2F5F5F5F5F5F5F5F5F5F5F5
310
F5F5F5F5F5F5F5F5F5F5F5F5F5F5F5F5F5F5F5F5F5F5F5F5F5F5F5F5F5F5F5F5F5F5F5F5F5F5F5F5F5F5F5F5F5F5F5F5F5F5F5F5F5F5F5F5F5F5F5F5F5F5F5F5F5F5F5F5F5F5F5F5F5F5F5F5F5F5F5F5F5F5F5F5F5F5F5F5F5F5F5F5F5F5F5F5F5F5F5F5F5F5F5F5F5F5F5F5F5F5F5F5F5F5F5F5F5F5F5F5F5F5F5F5F5F5F5
310
F5F5F5F5F5F5F5F5F5F5F5F5F5F5F5F5F5F5F5F5F5F5F5F5F5F5F5F5F5F5F5E2F5F5F5E2E2EFF5F5F5E2E2E2E2E2E2E2E2F5F5F5F5F5F5F5F5F5E2E2E2E2E2E2E2E2E2E2E2E2E2E2E2E2F5F5F5F5F5F5F5F5E2E2E2E2E2E2E2E2E2E2E2E2E2E2E2E2F5F5F5F5F5F5F5F5F5E2E2E2E2E2E2E2E2E2E2E2E2E2E2E2F5F5F5F5F5
310
F5F5F5F5E2E2E2E2E2E2E2E2E2E2E2E2E2E2E2F5F5F5F5F5F5F5F5F5E2E2E2E2E2E2E2E2E2E2E2E2E2E2E2E2F5F5F5F5F5F5F5F5E2E2E2E2E2E2E2E2E2E2E2E2E2E2E2E2F5F5F5F5F5F5F5F5F5E2E2E2E2E2E2E2E2F5F5F5E2E2EFF5F5F5F5F5F5F5F5F5F5F5F5F5F5F5F5F5F5F5F5F5F5F5F5F5F5F5F5F5F5F5F5F5F5F5F5
310
F5F5F5F5F5F5F5F5F5F5F5F5F5F5F5F5F5F5F5F5F5F5F5F5F5F5F5F5F5F5F5F5F5F5F5F5F5F5F5F5F5F5F5F5F5F5F5F5F5F5F5F5F5F5F5F5F5F5F5F5F5F5F5F5F5F5F5F5F5F5F5F5F5F5F5F5F5F5F5F5F5F5F5F5F5F5F5F5F5F5F5F5F5F5F5F5F5F5F5F5F5F5F5F5F5F5F5F5F5F5F5F5F5F5F5F5F5F5F5F5F5F5F5F5F5F5F5
310
F5F5F5F5F5F5F5F5F5F5F5F5F5F5E2E2EFF5F5F5F5F5F5F5F5F5F5F5F5F5F5F5F5F5F5F5F5F5F5F5F5F5F5F5F5F5F5F5F5F5F5F5F5F5F5F5F5F5F5F5F5F5F5F5F5F5F5F5F5F5F5F5F5F5F5F5F5F5F5F5F5F5F5F5F5F5F5F5F5F5F5F5F5F5F5F5F5F5F5F5F5F5F5F5F5F5F5F5F5F5F5F5F5F5F5F5F5F5F5F5F5F5F5F5F5F5F5
310
F5F5F5F5F5F5F5F5F5F5F5F5F5F5F5F5F5F5F5F5F5F5F5F5F5F5F5F5F5F5F5F5F5F5F5F5F5F5F5F5F5F5F5F5F5F5F5F5F5F5F5F5F5F5F5F5F5F5F5F5F5F5F5F5F5F5F5E2EFEFF5F5F5F5F5F5F5F5F5F5F5F5F5F5F5F5F5F5F5F5F5F5F5F5F5F5F5F5F5F5F5F5F5F5F5F5F5F5F5F5F5F5F5F5F5F5F5F5F5F5F5F5F5F5F5F5F5
310
F5F5F5F5F5F5F5F5F5F5F5F5F5F5F5F5F5F5F5F5F5F5F5F5F5F5F5F5F5F5F5F5F5F5F5F5F5F5F5F5F5F5F5F5F5F5F5F5F5F5F5F5F5F5F5F5F5F5F5F5F5F5F5F5F5F5F5F5F5F5F5F5F5F5F5F5F5F5F5F5F5F5F5F5F5F5F5F5F5F5F5F5F5F5F5F5F5F5F5F5F5F5F5F5F5F5F5F5F5F5F5F5F5F5F5F5F5F5F5F5E2EFEFE2E2E2E2
310
E2E2E2E2E2E2E2E2E2E2E2E2E2E2E2E2E2E2E2E2E2E2E2E2E2E2E2E2E2E2E2E2E2E2E2E2E2E2E2E2E2E2E2E2E2E2E2E2E2E2E2E2E2E2E2E2E2E2E2E2E2E2E2E2E2E2E2E2E2E2E2E2E2E2E2E2E2E2E2E2E2E2E2E2E2E2E2E2E2E2E2E2E2E2E2E2E2E2E2E2E2E2E2E2E2E2E2E2E2E2E2E2E2E2E2E2E2E2E2E2E2E2E2E2E2E2E2
310
E2E2E2E2E2E2E2E2E2E2E2E2E2E2E2E2E2E2E2E2E2E2E2E2E2E2E2E2E2E2E2E2E2E2E2E2E2E2E2E2E2E2E2E2E2E2E2EFEF
  0
ENDSEC
  0
EOF
