  0
SECTION
  2
HEADER
  9
$ACADVER
  1
AC1018
  9
$ACADMAINTVER
 70
     0
  9
$DWGCODEPAGE
  3
ANSI_1252
  9
$AUTHOR
  1
g6edxjah
  9
$LASTSAVEDBY
  1
g6edxjah
  9
$INSBASE
 10
0.0
 20
0.0
 30
0.0
  9
$EXTMIN
 10
67.110604
 20
-45.904438
 30
0.0
  9
$EXTMAX
 10
78.111479
 20
-37.40376
 30
0.0
  9
$LIMMIN
 10
44.805951
 20
-69.459189
  9
$LIMMAX
 10
100.416132
 20
-13.849009
  9
$ORTHOMODE
 70
     0
  9
$REGENMODE
 70
     1
  9
$FILLMODE
 70
     1
  9
$QTEXTMODE
 70
     0
  9
$MIRRTEXT
 70
     0
  9
$LTSCALE
 40
1.0
  9
$ATTMODE
 70
     1
  9
$TEXTSIZE
 40
0.069615
  9
$TRACEWID
 40
0.05
  9
$TEXTSTYLE
  7
Standard
  9
$CLAYER
  8
Level 10
  9
$CELTYPE
  6
Continuous
  9
$CECOLOR
 62
     7
  9
$CELTSCALE
 40
1.0
  9
$DISPSILH
 70
     0
  9
$DIMSCALE
 40
1.0
  9
$DIMASZ
 40
0.069615
  9
$DIMEXO
 40
0.034807
  9
$DIMDLI
 40
0.0
  9
$DIMRND
 40
0.0
  9
$DIMDLE
 40
0.0
  9
$DIMEXE
 40
0.034807
  9
$DIMTP
 40
0.0
  9
$DIMTM
 40
0.0
  9
$DIMTXT
 40
0.069615
  9
$DIMCEN
 40
0.09
  9
$DIMTSZ
 40
0.0
  9
$DIMTOL
 70
     0
  9
$DIMLIM
 70
     0
  9
$DIMTIH
 70
     0
  9
$DIMTOH
 70
     0
  9
$DIMSE1
 70
     0
  9
$DIMSE2
 70
     0
  9
$DIMTAD
 70
     1
  9
$DIMZIN
 70
    11
  9
$DIMBLK
  1
TerminatorOpen_0.5
  9
$DIMASO
 70
     1
  9
$DIMSHO
 70
     1
  9
$DIMPOST
  1

  9
$DIMAPOST
  1

  9
$DIMALT
 70
     0
  9
$DIMALTD
 70
     4
  9
$DIMALTF
 40
25.4
  9
$DIMLFAC
 40
1.0
  9
$DIMTOFL
 70
     0
  9
$DIMTVP
 40
0.0
  9
$DIMTIX
 70
     0
  9
$DIMSOXD
 70
     0
  9
$DIMSAH
 70
     0
  9
$DIMBLK1
  1

  9
$DIMBLK2
  1

  9
$DIMSTYLE
  2
Standard
  9
$DIMCLRD
 70
     0
  9
$DIMCLRE
 70
     0
  9
$DIMCLRT
 70
     0
  9
$DIMTFAC
 40
1.0
  9
$DIMGAP
 40
0.034807
  9
$DIMJUST
 70
     0
  9
$DIMSD1
 70
     0
  9
$DIMSD2
 70
     0
  9
$DIMTOLJ
 70
     0
  9
$DIMTZIN
 70
    11
  9
$DIMALTZ
 70
    15
  9
$DIMALTTZ
 70
    15
  9
$DIMUPT
 70
     0
  9
$DIMDEC
 70
     4
  9
$DIMTDEC
 70
     4
  9
$DIMALTU
 70
     2
  9
$DIMALTTD
 70
     4
  9
$DIMTXSTY
  7
Style-Arial
  9
$DIMAUNIT
 70
     0
  9
$DIMADEC
 70
     4
  9
$DIMALTRND
 40
0.0
  9
$DIMAZIN
 70
     3
  9
$DIMDSEP
 70
    46
  9
$DIMATFIT
 70
     1
  9
$DIMFRAC
 70
     0
  9
$DIMLDRBLK
  1
TerminatorOpen_0.5
  9
$DIMLUNIT
 70
     2
  9
$DIMLWD
 70
    -2
  9
$DIMLWE
 70
    -2
  9
$DIMTMOVE
 70
     0
  9
$LUNITS
 70
     2
  9
$LUPREC
 70
     4
  9
$SKETCHINC
 40
0.1
  9
$FILLETRAD
 40
0.0
  9
$AUNITS
 70
     0
  9
$AUPREC
 70
     4
  9
$MENU
  1
.
  9
$ELEVATION
 40
0.0
  9
$PELEVATION
 40
0.0
  9
$THICKNESS
 40
0.0
  9
$LIMCHECK
 70
     0
  9
$CHAMFERA
 40
0.0
  9
$CHAMFERB
 40
0.0
  9
$CHAMFERC
 40
0.0
  9
$CHAMFERD
 40
0.0
  9
$SKPOLY
 70
     0
  9
$TDCREATE
 40
2455364.372687812
  9
$TDUCREATE
 40
2455364.581021146
  9
$TDUPDATE
 40
2455364.372687812
  9
$TDUUPDATE
 40
2455364.581021146
  9
$TDINDWG
 40
0.0
  9
$TDUSRTIMER
 40
0.0006630093
  9
$USRTIMER
 70
     1
  9
$ANGBASE
 50
0.0
  9
$ANGDIR
 70
     0
  9
$PDMODE
 70
     0
  9
$PDSIZE
 40
0.0
  9
$PLINEWID
 40
0.0
  9
$SPLFRAME
 70
     0
  9
$SPLINETYPE
 70
     6
  9
$SPLINESEGS
 70
     8
  9
$HANDSEED
  5
36C
  9
$SURFTAB1
 70
     6
  9
$SURFTAB2
 70
     6
  9
$SURFTYPE
 70
     6
  9
$SURFU
 70
     6
  9
$SURFV
 70
     6
  9
$UCSBASE
  2

  9
$UCSNAME
  2

  9
$UCSORG
 10
0.0
 20
0.0
 30
0.0
  9
$UCSXDIR
 10
1.0
 20
0.0
 30
0.0
  9
$UCSYDIR
 10
0.0
 20
1.0
 30
0.0
  9
$UCSORTHOREF
  2

  9
$UCSORTHOVIEW
 70
     0
  9
$UCSORGTOP
 10
0.0
 20
0.0
 30
0.0
  9
$UCSORGBOTTOM
 10
0.0
 20
0.0
 30
0.0
  9
$UCSORGLEFT
 10
0.0
 20
0.0
 30
0.0
  9
$UCSORGRIGHT
 10
0.0
 20
0.0
 30
0.0
  9
$UCSORGFRONT
 10
0.0
 20
0.0
 30
0.0
  9
$UCSORGBACK
 10
0.0
 20
0.0
 30
0.0
  9
$PUCSBASE
  2

  9
$PUCSNAME
  2

  9
$PUCSORG
 10
0.0
 20
0.0
 30
0.0
  9
$PUCSXDIR
 10
1.0
 20
0.0
 30
0.0
  9
$PUCSYDIR
 10
0.0
 20
1.0
 30
0.0
  9
$PUCSORTHOREF
  2

  9
$PUCSORTHOVIEW
 70
     0
  9
$PUCSORGTOP
 10
0.0
 20
0.0
 30
0.0
  9
$PUCSORGBOTTOM
 10
0.0
 20
0.0
 30
0.0
  9
$PUCSORGLEFT
 10
0.0
 20
0.0
 30
0.0
  9
$PUCSORGRIGHT
 10
0.0
 20
0.0
 30
0.0
  9
$PUCSORGFRONT
 10
0.0
 20
0.0
 30
0.0
  9
$PUCSORGBACK
 10
0.0
 20
0.0
 30
0.0
  9
$USERI1
 70
     0
  9
$USERI2
 70
     0
  9
$USERI3
 70
     0
  9
$USERI4
 70
     0
  9
$USERI5
 70
     0
  9
$USERR1
 40
0.0
  9
$USERR2
 40
0.0
  9
$USERR3
 40
0.0
  9
$USERR4
 40
0.0
  9
$USERR5
 40
0.0
  9
$WORLDVIEW
 70
     1
  9
$SHADEDGE
 70
     3
  9
$SHADEDIF
 70
    70
  9
$TILEMODE
 70
     1
  9
$MAXACTVP
 70
    64
  9
$PINSBASE
 10
0.0
 20
0.0
 30
0.0
  9
$PLIMCHECK
 70
     0
  9
$PEXTMIN
 10
1.049744
 20
0.799667
 30
-0.001526
  9
$PEXTMAX
 10
9.450623
 20
7.200577
 30
0.0
  9
$PLIMMIN
 10
-0.25
 20
-0.25
  9
$PLIMMAX
 10
10.75
 20
8.25
  9
$UNITMODE
 70
     0
  9
$VISRETAIN
 70
     1
  9
$PLINEGEN
 70
     0
  9
$PSLTSCALE
 70
     0
  9
$TREEDEPTH
 70
  3020
  9
$CMLSTYLE
  2
Standard
  9
$CMLJUST
 70
     0
  9
$CMLSCALE
 40
1.0
  9
$PROXYGRAPHICS
 70
     1
  9
$MEASUREMENT
 70
     0
  9
$CELWEIGHT
370
    13
  9
$ENDCAPS
280
     0
  9
$JOINSTYLE
280
     0
  9
$LWDISPLAY
290
     1
  9
$INSUNITS
 70
     2
  9
$HYPERLINKBASE
  1

  9
$STYLESHEET
  1

  9
$XEDIT
290
     1
  9
$CEPSNTYPE
380
     0
  9
$PSTYLEMODE
290
     1
  9
$FINGERPRINTGUID
  2
{02C0BBB5-38A7-4FBF-829E-00875EC88963}
  9
$VERSIONGUID
  2
{82C521FC-BF81-46B3-825E-420B6BD93A99}
  9
$EXTNAMES
290
     1
  9
$PSVPSCALE
 40
0.0
  9
$OLESTARTUP
290
     0
  9
$SORTENTS
280
   127
  9
$INDEXCTL
280
     0
  9
$HIDETEXT
280
     1
  9
$XCLIPFRAME
290
     0
  9
$HALOGAP
280
     0
  9
$OBSCOLOR
 70
   257
  9
$OBSLTYPE
280
     0
  9
$INTERSECTIONDISPLAY
280
     0
  9
$INTERSECTIONCOLOR
 70
   257
  9
$DIMASSOC
280
     1
  9
$PROJECTNAME
  1

  0
ENDSEC
  0
SECTION
  2
CLASSES
  0
CLASS
  1
ACDBDICTIONARYWDFLT
  2
AcDbDictionaryWithDefault
  3
ObjectDBX Classes
 90
        0
 91
        3
280
     0
281
     0
  0
CLASS
  1
SORTENTSTABLE
  2
AcDbSortentsTable
  3
ObjectDBX Classes
 90
        0
 91
        3
280
     0
281
     0
  0
ENDSEC
  0
SECTION
  2
TABLES
  0
TABLE
  2
VPORT
  5
352
330
0
100
AcDbSymbolTable
 70
     4
  0
VPORT
  5
49
330
352
100
AcDbSymbolTableRecord
100
AcDbViewportTableRecord
  2
*ACTIVE
 70
     0
 10
0.0
 20
0.0
 11
1.0
 21
1.0
 12
72.611042
 22
-41.654099
 13
0.0
 23
0.0
 14
0.083333
 24
0.083333
 15
0.083333
 25
0.083333
 16
0.0
 26
0.0
 36
1.0
 17
0.0
 27
0.0
 37
0.0
 40
8.840704
 41
1.884937
 42
50.0
 43
0.0
 44
0.0
 50
0.0
 51
0.0
 71
     0
 72
   100
 73
     1
 74
     2
 75
     0
 76
     0
 77
     0
 78
     1
281
     0
 65
     1
110
0.0
120
0.0
130
0.0
111
1.0
121
0.0
131
0.0
112
0.0
122
1.0
132
0.0
 79
     0
146
0.0
  0
ENDTAB
  0
TABLE
  2
LTYPE
  5
339
330
0
100
AcDbSymbolTable
 70
     2
  0
LTYPE
  5
33A
330
339
100
AcDbSymbolTableRecord
100
AcDbLinetypeTableRecord
  2
ByBlock
 70
     0
  3

 72
    65
 73
     0
 40
0.0
  0
LTYPE
  5
33B
330
339
100
AcDbSymbolTableRecord
100
AcDbLinetypeTableRecord
  2
ByLayer
 70
     0
  3

 72
    65
 73
     0
 40
0.0
  0
LTYPE
  5
338
330
339
100
AcDbSymbolTableRecord
100
AcDbLinetypeTableRecord
  2
Continuous
 70
     0
  3
Solid line
 72
    65
 73
     0
 40
0.0
  0
LTYPE
  5
366
330
339
100
AcDbSymbolTableRecord
100
AcDbLinetypeTableRecord
  2
DGN Style 2
 70
     0
  3
Dgn Style 2
 72
    65
 73
     2
 40
0.166642
 49
0.099985
 74
     0
 49
-0.066657
 74
     0
  0
ENDTAB
  0
TABLE
  2
LAYER
  5
332
102
{ACAD_XDICTIONARY
360
333
102
}
330
0
100
AcDbSymbolTable
 70
    64
  0
LAYER
  5
331
330
332
100
AcDbSymbolTableRecord
100
AcDbLayerTableRecord
  2
0
 70
     0
 62
     7
  6
Continuous
370
    -3
390
335
  0
LAYER
  5
7
330
332
100
AcDbSymbolTableRecord
100
AcDbLayerTableRecord
  2
Level 1
 70
     0
 62
     7
  6
Continuous
370
     0
390
335
  0
LAYER
  5
8
330
332
100
AcDbSymbolTableRecord
100
AcDbLayerTableRecord
  2
2-30K
 70
     0
 62
     7
  6
Continuous
370
     0
390
335
1001
AcAecLayerStandard
1000

1000
2-30K
  0
LAYER
  5
9
330
332
100
AcDbSymbolTableRecord
100
AcDbLayerTableRecord
  2
DIM
 70
     0
 62
     7
  6
Continuous
370
     0
390
335
1001
AcAecLayerStandard
1000

1000
DIM
  0
LAYER
  5
A
330
332
100
AcDbSymbolTableRecord
100
AcDbLayerTableRecord
  2
LEGEND
 70
     0
 62
     7
  6
Continuous
370
     0
390
335
1001
AcAecLayerStandard
1000

1000
LEGEND
  0
LAYER
  5
B
330
332
100
AcDbSymbolTableRecord
100
AcDbLayerTableRecord
  2
HATCH
 70
     0
 62
     7
  6
Continuous
370
     0
390
335
1001
AcAecLayerStandard
1000

1000
HATCH
  0
LAYER
  5
C
330
332
100
AcDbSymbolTableRecord
100
AcDbLayerTableRecord
  2
TEXT
 70
     0
 62
     7
  6
Continuous
370
     0
390
335
1001
AcAecLayerStandard
1000

1000
TEXT
  0
LAYER
  5
D
330
332
100
AcDbSymbolTableRecord
100
AcDbLayerTableRecord
  2
TITLE
 70
     0
 62
     7
  6
Continuous
370
     0
390
335
1001
AcAecLayerStandard
1000

1000
TITLE
  0
LAYER
  5
E
330
332
100
AcDbSymbolTableRecord
100
AcDbLayerTableRecord
  2
Level 8
 70
     0
 62
     7
  6
Continuous
370
     0
390
335
  0
LAYER
  5
F
330
332
100
AcDbSymbolTableRecord
100
AcDbLayerTableRecord
  2
Level 9
 70
     0
 62
     7
  6
Continuous
370
     0
390
335
  0
LAYER
  5
10
330
332
100
AcDbSymbolTableRecord
100
AcDbLayerTableRecord
  2
Level 10
 70
     0
 62
     7
  6
Continuous
370
     0
390
335
  0
LAYER
  5
11
330
332
100
AcDbSymbolTableRecord
100
AcDbLayerTableRecord
  2
Level 11
 70
     0
 62
     7
  6
Continuous
370
     0
390
335
  0
LAYER
  5
12
330
332
100
AcDbSymbolTableRecord
100
AcDbLayerTableRecord
  2
Level 12
 70
     0
 62
     7
  6
Continuous
370
     0
390
335
  0
LAYER
  5
13
330
332
100
AcDbSymbolTableRecord
100
AcDbLayerTableRecord
  2
Level 13
 70
     0
 62
     7
  6
Continuous
370
     0
390
335
  0
LAYER
  5
14
330
332
100
AcDbSymbolTableRecord
100
AcDbLayerTableRecord
  2
Level 14
 70
     0
 62
     7
  6
Continuous
370
     0
390
335
  0
LAYER
  5
15
330
332
100
AcDbSymbolTableRecord
100
AcDbLayerTableRecord
  2
Level 15
 70
     0
 62
     7
  6
Continuous
370
     0
390
335
  0
LAYER
  5
16
330
332
100
AcDbSymbolTableRecord
100
AcDbLayerTableRecord
  2
Level 16
 70
     0
 62
     7
  6
Continuous
370
     0
390
335
  0
LAYER
  5
17
330
332
100
AcDbSymbolTableRecord
100
AcDbLayerTableRecord
  2
Level 17
 70
     0
 62
     7
  6
Continuous
370
     0
390
335
  0
LAYER
  5
18
330
332
100
AcDbSymbolTableRecord
100
AcDbLayerTableRecord
  2
Level 18
 70
     0
 62
     7
  6
Continuous
370
     0
390
335
  0
LAYER
  5
19
330
332
100
AcDbSymbolTableRecord
100
AcDbLayerTableRecord
  2
Level 19
 70
     0
 62
     7
  6
Continuous
370
     0
390
335
  0
LAYER
  5
1A
330
332
100
AcDbSymbolTableRecord
100
AcDbLayerTableRecord
  2
Level 20
 70
     0
 62
     7
  6
Continuous
370
     0
390
335
  0
LAYER
  5
1B
330
332
100
AcDbSymbolTableRecord
100
AcDbLayerTableRecord
  2
Level 21
 70
     0
 62
     7
  6
Continuous
370
     0
390
335
  0
LAYER
  5
1C
330
332
100
AcDbSymbolTableRecord
100
AcDbLayerTableRecord
  2
Level 22
 70
     0
 62
     7
  6
Continuous
370
     0
390
335
  0
LAYER
  5
1D
330
332
100
AcDbSymbolTableRecord
100
AcDbLayerTableRecord
  2
Level 23
 70
     0
 62
     7
  6
Continuous
370
     0
390
335
  0
LAYER
  5
1E
330
332
100
AcDbSymbolTableRecord
100
AcDbLayerTableRecord
  2
Level 24
 70
     0
 62
     7
  6
Continuous
370
     0
390
335
  0
LAYER
  5
1F
330
332
100
AcDbSymbolTableRecord
100
AcDbLayerTableRecord
  2
Level 25
 70
     0
 62
     7
  6
Continuous
370
     0
390
335
  0
LAYER
  5
20
330
332
100
AcDbSymbolTableRecord
100
AcDbLayerTableRecord
  2
Level 26
 70
     0
 62
     7
  6
Continuous
370
     0
390
335
  0
LAYER
  5
21
330
332
100
AcDbSymbolTableRecord
100
AcDbLayerTableRecord
  2
Level 27
 70
     0
 62
     7
  6
Continuous
370
     0
390
335
  0
LAYER
  5
22
330
332
100
AcDbSymbolTableRecord
100
AcDbLayerTableRecord
  2
Level 28
 70
     0
 62
     7
  6
Continuous
370
     0
390
335
  0
LAYER
  5
23
330
332
100
AcDbSymbolTableRecord
100
AcDbLayerTableRecord
  2
Level 29
 70
     0
 62
     7
  6
Continuous
370
     0
390
335
  0
LAYER
  5
24
330
332
100
AcDbSymbolTableRecord
100
AcDbLayerTableRecord
  2
Level 30
 70
     0
 62
     7
  6
Continuous
370
     0
390
335
  0
LAYER
  5
25
330
332
100
AcDbSymbolTableRecord
100
AcDbLayerTableRecord
  2
Level 31
 70
     0
 62
     7
  6
Continuous
370
     0
390
335
  0
LAYER
  5
26
330
332
100
AcDbSymbolTableRecord
100
AcDbLayerTableRecord
  2
Level 32
 70
     0
 62
     7
  6
Continuous
370
     0
390
335
  0
LAYER
  5
27
330
332
100
AcDbSymbolTableRecord
100
AcDbLayerTableRecord
  2
Level 33
 70
     0
 62
     7
  6
Continuous
370
     0
390
335
  0
LAYER
  5
28
330
332
100
AcDbSymbolTableRecord
100
AcDbLayerTableRecord
  2
Level 34
 70
     0
 62
     7
  6
Continuous
370
     0
390
335
  0
LAYER
  5
29
330
332
100
AcDbSymbolTableRecord
100
AcDbLayerTableRecord
  2
Level 35
 70
     0
 62
     7
  6
Continuous
370
     0
390
335
  0
LAYER
  5
2A
330
332
100
AcDbSymbolTableRecord
100
AcDbLayerTableRecord
  2
Level 36
 70
     0
 62
     7
  6
Continuous
370
     0
390
335
  0
LAYER
  5
2B
330
332
100
AcDbSymbolTableRecord
100
AcDbLayerTableRecord
  2
Level 37
 70
     0
 62
     7
  6
Continuous
370
     0
390
335
  0
LAYER
  5
2C
330
332
100
AcDbSymbolTableRecord
100
AcDbLayerTableRecord
  2
Level 38
 70
     0
 62
     7
  6
Continuous
370
     0
390
335
  0
LAYER
  5
2D
330
332
100
AcDbSymbolTableRecord
100
AcDbLayerTableRecord
  2
Level 39
 70
     0
 62
     7
  6
Continuous
370
     0
390
335
  0
LAYER
  5
2E
330
332
100
AcDbSymbolTableRecord
100
AcDbLayerTableRecord
  2
Level 40
 70
     0
 62
     7
  6
Continuous
370
     0
390
335
  0
LAYER
  5
2F
330
332
100
AcDbSymbolTableRecord
100
AcDbLayerTableRecord
  2
Level 41
 70
     0
 62
     7
  6
Continuous
370
     0
390
335
  0
LAYER
  5
30
330
332
100
AcDbSymbolTableRecord
100
AcDbLayerTableRecord
  2
Level 42
 70
     0
 62
     7
  6
Continuous
370
     0
390
335
  0
LAYER
  5
31
330
332
100
AcDbSymbolTableRecord
100
AcDbLayerTableRecord
  2
Level 43
 70
     0
 62
     7
  6
Continuous
370
     0
390
335
  0
LAYER
  5
32
330
332
100
AcDbSymbolTableRecord
100
AcDbLayerTableRecord
  2
Level 44
 70
     0
 62
     7
  6
Continuous
370
     0
390
335
  0
LAYER
  5
33
330
332
100
AcDbSymbolTableRecord
100
AcDbLayerTableRecord
  2
Level 45
 70
     0
 62
     7
  6
Continuous
370
     0
390
335
  0
LAYER
  5
34
330
332
100
AcDbSymbolTableRecord
100
AcDbLayerTableRecord
  2
Level 46
 70
     0
 62
     7
  6
Continuous
370
     0
390
335
  0
LAYER
  5
35
330
332
100
AcDbSymbolTableRecord
100
AcDbLayerTableRecord
  2
Level 47
 70
     0
 62
     7
  6
Continuous
370
     0
390
335
  0
LAYER
  5
36
330
332
100
AcDbSymbolTableRecord
100
AcDbLayerTableRecord
  2
Level 48
 70
     0
 62
     7
  6
Continuous
370
     0
390
335
  0
LAYER
  5
37
330
332
100
AcDbSymbolTableRecord
100
AcDbLayerTableRecord
  2
Level 49
 70
     0
 62
     7
  6
Continuous
370
     0
390
335
  0
LAYER
  5
38
330
332
100
AcDbSymbolTableRecord
100
AcDbLayerTableRecord
  2
Level 50
 70
     0
 62
     7
  6
Continuous
370
     0
390
335
  0
LAYER
  5
39
330
332
100
AcDbSymbolTableRecord
100
AcDbLayerTableRecord
  2
Level 51
 70
     0
 62
     7
  6
Continuous
370
     0
390
335
  0
LAYER
  5
3A
330
332
100
AcDbSymbolTableRecord
100
AcDbLayerTableRecord
  2
Level 52
 70
     0
 62
     7
  6
Continuous
370
     0
390
335
  0
LAYER
  5
3B
330
332
100
AcDbSymbolTableRecord
100
AcDbLayerTableRecord
  2
Level 53
 70
     0
 62
     7
  6
Continuous
370
     0
390
335
  0
LAYER
  5
3C
330
332
100
AcDbSymbolTableRecord
100
AcDbLayerTableRecord
  2
Level 54
 70
     0
 62
     7
  6
Continuous
370
     0
390
335
  0
LAYER
  5
3D
330
332
100
AcDbSymbolTableRecord
100
AcDbLayerTableRecord
  2
Level 55
 70
     0
 62
     7
  6
Continuous
370
     0
390
335
  0
LAYER
  5
3E
330
332
100
AcDbSymbolTableRecord
100
AcDbLayerTableRecord
  2
Level 56
 70
     0
 62
     7
  6
Continuous
370
     0
390
335
  0
LAYER
  5
3F
330
332
100
AcDbSymbolTableRecord
100
AcDbLayerTableRecord
  2
Level 57
 70
     0
 62
     7
  6
Continuous
370
     0
390
335
  0
LAYER
  5
40
330
332
100
AcDbSymbolTableRecord
100
AcDbLayerTableRecord
  2
Level 58
 70
     0
 62
     7
  6
Continuous
370
     0
390
335
  0
LAYER
  5
41
330
332
100
AcDbSymbolTableRecord
100
AcDbLayerTableRecord
  2
Level 59
 70
     0
 62
     7
  6
Continuous
370
     0
390
335
  0
LAYER
  5
42
330
332
100
AcDbSymbolTableRecord
100
AcDbLayerTableRecord
  2
Level 60
 70
     0
 62
     7
  6
Continuous
370
     0
390
335
  0
LAYER
  5
43
330
332
100
AcDbSymbolTableRecord
100
AcDbLayerTableRecord
  2
Level 61
 70
     0
 62
     7
  6
Continuous
370
     0
390
335
  0
LAYER
  5
44
330
332
100
AcDbSymbolTableRecord
100
AcDbLayerTableRecord
  2
Level 62
 70
     0
 62
     7
  6
Continuous
370
     0
390
335
  0
LAYER
  5
45
330
332
100
AcDbSymbolTableRecord
100
AcDbLayerTableRecord
  2
_0
 70
     0
 62
     7
  6
Continuous
370
     0
390
335
1001
AcAecLayerStandard
1000

1000
0
  0
ENDTAB
  0
TABLE
  2
STYLE
  5
33D
330
0
100
AcDbSymbolTable
 70
     2
  0
STYLE
  5
33C
330
33D
100
AcDbSymbolTableRecord
100
AcDbTextStyleTableRecord
  2
Standard
 70
     0
 40
0.0
 41
1.0
 50
0.0
 71
     0
 42
0.069615
  3
txt
  4

  0
STYLE
  5
35C
330
33D
100
AcDbSymbolTableRecord
100
AcDbTextStyleTableRecord
  2
Style-Arial
 70
     0
 40
0.0
 41
1.0
 50
0.0
 71
     0
 42
0.2
  3

  4

1001
ACAD
1000
Arial
1071
       39
  0
ENDTAB
  0
TABLE
  2
VIEW
  5
350
330
0
100
AcDbSymbolTable
 70
     0
  0
ENDTAB
  0
TABLE
  2
UCS
  5
351
330
0
100
AcDbSymbolTable
 70
     0
  0
ENDTAB
  0
TABLE
  2
APPID
  5
34F
330
0
100
AcDbSymbolTable
 70
     3
  0
APPID
  5
357
330
34F
100
AcDbSymbolTableRecord
100
AcDbRegAppTableRecord
  2
ACAD
 70
     0
  0
APPID
  5
34E
330
34F
100
AcDbSymbolTableRecord
100
AcDbRegAppTableRecord
  2
ACAD_PSEXT
 70
     0
  0
APPID
  5
359
330
34F
100
AcDbSymbolTableRecord
100
AcDbRegAppTableRecord
  2
AcAecLayerStandard
 70
     0
  0
ENDTAB
  0
TABLE
  2
DIMSTYLE
  5
33F
330
0
100
AcDbSymbolTable
 70
     1
100
AcDbDimStyleTable
  0
DIMSTYLE
105
33E
330
33F
100
AcDbSymbolTableRecord
100
AcDbDimStyleTableRecord
  2
Standard
 70
     0
340
33C
  0
ENDTAB
  0
TABLE
  2
BLOCK_RECORD
  5
342
330
0
100
AcDbSymbolTable
 70
     1
  0
BLOCK_RECORD
  5
343
102
{ACAD_XDICTIONARY
360
367
102
}
330
342
100
AcDbSymbolTableRecord
100
AcDbBlockTableRecord
  2
*Model_Space
340
346
  0
BLOCK_RECORD
  5
348
330
342
100
AcDbSymbolTableRecord
100
AcDbBlockTableRecord
  2
*Paper_Space
340
34B
  0
BLOCK_RECORD
  5
35D
330
342
100
AcDbSymbolTableRecord
100
AcDbBlockTableRecord
  2
TerminatorOpen_0.5
340
0
  0
ENDTAB
  0
ENDSEC
  0
SECTION
  2
BLOCKS
  0
BLOCK
  5
344
330
343
100
AcDbEntity
  8
0
100
AcDbBlockBegin
  2
*Model_Space
 70
     0
 71
     0
 10
0.0
 20
0.0
 30
0.0
  3
*Model_Space
  1

  0
ENDBLK
  5
345
330
343
100
AcDbEntity
  8
0
100
AcDbBlockEnd
  0
BLOCK
  5
349
330
348
100
AcDbEntity
 67
     1
  8
0
100
AcDbBlockBegin
  2
*Paper_Space
 70
     0
 71
     0
 10
0.0
 20
0.0
 30
0.0
  3
*Paper_Space
  1

  0
ENDBLK
  5
34A
330
348
100
AcDbEntity
 67
     1
  8
0
100
AcDbBlockEnd
  0
BLOCK
  5
361
330
35D
100
AcDbEntity
  8
0
100
AcDbBlockBegin
  2
TerminatorOpen_0.5
 70
     0
 71
     0
 10
0.0
 20
0.0
 30
0.0
  3
TerminatorOpen_0.5
  1

  0
LINE
  5
35E
330
35D
100
AcDbEntity
  8
0
  6
ByBlock
 62
     0
370
    -2
100
AcDbLine
 10
0.0
 20
0.0
 30
0.0
 11
-1.0
 21
0.0
 31
0.0
  0
LINE
  5
35F
330
35D
100
AcDbEntity
  8
0
  6
ByBlock
 62
     0
370
    -2
100
AcDbLine
 10
0.0
 20
0.0
 30
0.0
 11
-1.0
 21
0.25
 31
0.0
  0
LINE
  5
360
330
35D
100
AcDbEntity
  8
0
  6
ByBlock
 62
     0
370
    -2
100
AcDbLine
 10
0.0
 20
0.0
 30
0.0
 11
-1.0
 21
-0.25
 31
0.0
  0
ENDBLK
  5
362
330
35D
100
AcDbEntity
  8
0
100
AcDbBlockEnd
  0
ENDSEC
  0
SECTION
  2
ENTITIES
  0
LINE
  5
5B
330
343
100
AcDbEntity
  8
_0
  6
Continuous
 62
     7
370
    13
100
AcDbLine
 10
78.111479
 20
-45.904438
 30
0.0
 11
77.904927
 21
-45.904438
 31
0.0
  0
POINT
  5
5C
330
343
100
AcDbEntity
  8
_0
  6
Continuous
 62
     7
370
    13
100
AcDbPoint
 10
68.097583
 20
-38.028813
 30
0.0
  0
LINE
  5
5D
330
343
100
AcDbEntity
  8
_0
  6
Continuous
 62
     7
370
    13
100
AcDbLine
 10
78.111479
 20
-37.40376
 30
0.0
 11
77.904927
 21
-37.40376
 31
0.0
  0
LINE
  5
5E
330
343
100
AcDbEntity
  8
_0
  6
Continuous
 62
     7
370
    13
100
AcDbLine
 10
78.111479
 20
-45.904438
 30
0.0
 11
78.111479
 21
-45.697885
 31
0.0
  0
LINE
  5
5F
330
343
100
AcDbEntity
  8
_0
  6
Continuous
 62
     7
370
    13
100
AcDbLine
 10
67.110604
 20
-45.904438
 30
0.0
 11
67.110604
 21
-45.697885
 31
0.0
  0
LINE
  5
60
330
343
100
AcDbEntity
  8
_0
  6
Continuous
 62
     7
370
    13
100
AcDbLine
 10
78.111479
 20
-37.610323
 30
0.0
 11
78.111479
 21
-37.40376
 31
0.0
  0
LINE
  5
61
330
343
100
AcDbEntity
  8
_0
  6
Continuous
 62
     7
370
    13
100
AcDbLine
 10
67.317156
 20
-45.904438
 30
0.0
 11
67.110604
 21
-45.904438
 31
0.0
  0
LINE
  5
62
330
343
100
AcDbEntity
  8
_0
  6
Continuous
 62
     7
370
    13
100
AcDbLine
 10
67.317156
 20
-37.40376
 30
0.0
 11
67.110604
 21
-37.40376
 31
0.0
  0
LINE
  5
63
330
343
100
AcDbEntity
  8
_0
  6
Continuous
 62
     7
370
    13
100
AcDbLine
 10
67.110604
 20
-37.610323
 30
0.0
 11
67.110604
 21
-37.40376
 31
0.0
  0
LINE
  5
64
330
343
100
AcDbEntity
  8
DIM
  6
Continuous
 62
     7
370
    13
100
AcDbLine
 10
77.198313
 20
-45.279396
 30
0.0
 11
77.198313
 21
-38.028813
 31
0.0
  0
LINE
  5
65
330
343
100
AcDbEntity
  8
DIM
  6
Continuous
 62
     7
370
    13
100
AcDbLine
 10
68.097583
 20
-38.028813
 30
0.0
 11
77.198313
 21
-38.028813
 31
0.0
  0
LINE
  5
66
330
343
100
AcDbEntity
  8
DIM
  6
Continuous
 62
     7
370
    13
100
AcDbLine
 10
68.097583
 20
-45.279396
 30
0.0
 11
68.097583
 21
-38.028813
 31
0.0
  0
LINE
  5
69
330
343
100
AcDbEntity
  8
DIM
  6
Continuous
 62
     7
370
    13
100
AcDbLine
 10
68.097583
 20
-44.779354
 30
0.0
 11
77.198313
 21
-44.779354
 31
0.0
  0
LINE
  5
6A
330
343
100
AcDbEntity
  8
DIM
  6
Continuous
 62
     7
370
    13
100
AcDbLine
 10
68.097583
 20
-45.279396
 30
0.0
 11
77.198313
 21
-45.279396
 31
0.0
  0
LINE
  5
6C
330
343
100
AcDbEntity
  8
DIM
  6
Continuous
 62
     7
370
    13
100
AcDbLine
 10
74.998135
 20
-45.279396
 30
0.0
 11
74.998135
 21
-44.779354
 31
0.0
  0
LINE
  5
6E
330
343
100
AcDbEntity
  8
DIM
  6
Continuous
 62
     7
370
    13
100
AcDbLine
 10
76.098229
 20
-45.279396
 30
0.0
 11
76.098229
 21
-44.779354
 31
0.0
  0
SPLINE
  5
71
330
343
100
AcDbEntity
  8
_0
  6
Continuous
 62
     7
370
     0
100
AcDbSpline
210
0.0
220
0.0
230
1.0
 70
     8
 71
     3
 72
    14
 73
    10
 74
     0
 42
0.0000000001
 43
0.00000001
 40
0.0
 40
0.0
 40
0.0
 40
0.0
 40
0.1428571428571428
 40
0.2857142857142857
 40
0.4285714285714285
 40
0.5714285714285714
 40
0.7142857142857142
 40
0.857142857142857
 40
1.0
 40
1.0
 40
1.0
 40
1.0
 10
69.07140625
 20
-42.60669791666667
 30
0.0
 10
69.02530208333333
 20
-42.63163541666667
 30
0.0
 10
69.02713541666667
 20
-42.65397916666667
 30
0.0
 10
69.06365625
 20
-42.66658333333334
 30
0.0
 10
69.07140625
 20
-42.67823958333333
 30
0.0
 10
69.07140625
 20
-42.73717708333333
 30
0.0
 10
69.06365625
 20
-42.74882291666667
 30
0.0
 10
69.02713541666667
 20
-42.7614375
 30
0.0
 10
69.02530208333333
 20
-42.78378125
 30
0.0
 10
69.07140625
 20
-42.80871875
 30
0.0
  0
LINE
  5
73
330
343
100
AcDbEntity
  8
_0
  6
Continuous
 62
     7
370
    13
100
AcDbLine
 10
69.069906
 20
-42.807854
 30
0.0
 11
69.669948
 21
-42.807854
 31
0.0
  0
LINE
  5
74
330
343
100
AcDbEntity
  8
_0
  6
Continuous
 62
     7
370
    13
100
AcDbLine
 10
69.069427
 20
-42.607833
 30
0.0
 11
69.669479
 21
-42.607833
 31
0.0
  0
LINE
  5
75
330
343
100
AcDbEntity
  8
_0
  6
Continuous
 62
     7
370
    13
100
AcDbLine
 10
69.029844
 20
-42.641062
 30
0.0
 11
69.666948
 21
-42.641062
 31
0.0
  0
LINE
  5
76
330
343
100
AcDbEntity
  8
_0
  6
Continuous
 62
     7
370
    13
100
AcDbLine
 10
69.069094
 20
-42.679833
 30
0.0
 11
69.672062
 21
-42.679833
 31
0.0
  0
LINE
  5
77
330
343
100
AcDbEntity
  8
_0
  6
Continuous
 62
     7
370
    13
100
AcDbLine
 10
69.02926
 20
-42.772594
 30
0.0
 11
69.659594
 21
-42.772594
 31
0.0
  0
LINE
  5
78
330
343
100
AcDbEntity
  8
_0
  6
Continuous
 62
     7
370
    13
100
AcDbLine
 10
69.068885
 20
-42.736604
 30
0.0
 11
69.668719
 21
-42.736604
 31
0.0
  0
LINE
  5
79
330
343
100
AcDbEntity
  8
_0
  6
Continuous
 62
     7
370
    13
100
AcDbLine
 10
72.280802
 20
-43.115427
 30
0.0
 11
69.669479
 21
-42.607833
 31
0.0
  0
LINE
  5
7A
330
343
100
AcDbEntity
  8
_0
  6
Continuous
 62
     7
370
    13
100
AcDbLine
 10
72.025833
 20
-43.265792
 30
0.0
 11
69.669948
 21
-42.807854
 31
0.0
  0
LINE
  5
7B
330
343
100
AcDbEntity
  8
_0
  6
Continuous
 62
     7
370
    13
100
AcDbLine
 10
72.068229
 20
-43.240792
 30
0.0
 11
69.659594
 21
-42.772594
 31
0.0
  0
LINE
  5
7C
330
343
100
AcDbEntity
  8
_0
  6
Continuous
 62
     7
370
    13
100
AcDbLine
 10
72.116406
 20
-43.212385
 30
0.0
 11
69.668719
 21
-42.736604
 31
0.0
  0
LINE
  5
7D
330
343
100
AcDbEntity
  8
_0
  6
Continuous
 62
     7
370
    13
100
AcDbLine
 10
72.189625
 20
-43.169198
 30
0.0
 11
69.672062
 21
-42.679833
 31
0.0
  0
LINE
  5
7E
330
343
100
AcDbEntity
  8
_0
  6
Continuous
 62
     7
370
    13
100
AcDbLine
 10
72.237802
 20
-43.140792
 30
0.0
 11
69.666948
 21
-42.641062
 31
0.0
  0
LWPOLYLINE
  5
7F
330
343
100
AcDbEntity
  8
_0
  6
Continuous
 62
     7
370
     0
100
AcDbPolyline
 90
       23
 70
   128
 43
0.0
 10
72.415625
 20
-43.141802
 10
72.400458
 20
-43.150531
 10
72.389219
 20
-43.158083
 10
72.381417
 20
-43.164594
 10
72.376562
 20
-43.170167
 10
72.374177
 20
-43.174937
 10
72.373781
 20
-43.179021
 10
72.374875
 20
-43.182531
 10
72.37699
 20
-43.185604
 10
72.379688
 20
-43.188323
 10
72.382792
 20
-43.19076
 10
72.386177
 20
-43.192948
 10
72.389719
 20
-43.194938
 10
72.393302
 20
-43.19674
 10
72.396812
 20
-43.198417
 10
72.400104
 20
-43.20001
 10
72.403083
 20
-43.201531
 10
72.405625
 20
-43.203052
 10
72.407771
 20
-43.204667
 10
72.409542
 20
-43.206437
 10
72.41099
 20
-43.208479
 10
72.412146
 20
-43.210896
 10
72.413135
 20
-43.213958
  0
LINE
  5
80
330
343
100
AcDbEntity
  8
_0
  6
Continuous
 62
     7
370
    13
100
AcDbLine
 10
71.620083
 20
-43.457906
 30
0.0
 11
69.669948
 21
-43.078833
 31
0.0
  0
LINE
  5
81
330
343
100
AcDbEntity
  8
_0
  6
Continuous
 62
     7
370
    13
100
AcDbLine
 10
69.069906
 20
-43.078833
 30
0.0
 11
69.669948
 21
-43.078833
 31
0.0
  0
LINE
  5
82
330
343
100
AcDbEntity
  8
_0
  6
Continuous
 62
     7
370
    13
100
AcDbLine
 10
72.683448
 20
-42.830792
 30
0.0
 11
72.220635
 21
-43.103729
 31
0.0
  0
LINE
  5
83
330
343
100
AcDbEntity
  8
_0
  6
Continuous
 62
     7
370
    13
100
AcDbLine
 10
71.374656
 20
-43.410198
 30
0.0
 11
71.374656
 21
-43.139219
 31
0.0
  0
LINE
  5
84
330
343
100
AcDbEntity
  8
_0
  6
DGN Style 2
 62
     7
370
    13
100
AcDbLine
 10
71.774687
 20
-43.66625
 30
0.0
 11
71.774687
 21
-43.366729
 31
0.0
  0
LINE
  5
85
330
343
100
AcDbEntity
  8
_0
  6
Continuous
 62
     7
370
    13
100
AcDbLine
 10
71.274646
 20
-43.39076
 30
0.0
 11
71.274646
 21
-43.119771
 31
0.0
  0
LINE
  5
86
330
343
100
AcDbEntity
  8
_0
  6
Continuous
 62
     7
370
    13
100
AcDbLine
 10
71.174635
 20
-43.371323
 30
0.0
 11
71.174635
 21
-43.100333
 31
0.0
  0
LINE
  5
87
330
343
100
AcDbEntity
  8
_0
  6
Continuous
 62
     7
370
    13
100
AcDbLine
 10
71.074625
 20
-43.351875
 30
0.0
 11
71.074625
 21
-43.080896
 31
0.0
  0
LINE
  5
88
330
343
100
AcDbEntity
  8
_0
  6
Continuous
 62
     7
370
    13
100
AcDbLine
 10
70.974625
 20
-43.332437
 30
0.0
 11
70.974625
 21
-43.061448
 31
0.0
  0
LINE
  5
89
330
343
100
AcDbEntity
  8
_0
  6
Continuous
 62
     7
370
    13
100
AcDbLine
 10
70.874615
 20
-43.313
 30
0.0
 11
70.874615
 21
-43.04201
 31
0.0
  0
LINE
  5
8A
330
343
100
AcDbEntity
  8
_0
  6
Continuous
 62
     7
370
    13
100
AcDbLine
 10
70.774604
 20
-43.293563
 30
0.0
 11
70.774604
 21
-43.022573
 31
0.0
  0
LINE
  5
8B
330
343
100
AcDbEntity
  8
_0
  6
Continuous
 62
     7
370
    13
100
AcDbLine
 10
70.674594
 20
-43.274125
 30
0.0
 11
70.674594
 21
-43.003135
 31
0.0
  0
LINE
  5
8C
330
343
100
AcDbEntity
  8
_0
  6
Continuous
 62
     7
370
    13
100
AcDbLine
 10
70.574594
 20
-43.254677
 30
0.0
 11
70.574594
 21
-42.983698
 31
0.0
  0
LINE
  5
8D
330
343
100
AcDbEntity
  8
_0
  6
Continuous
 62
     7
370
    13
100
AcDbLine
 10
70.474583
 20
-43.23524
 30
0.0
 11
70.474583
 21
-42.96426
 31
0.0
  0
LINE
  5
8E
330
343
100
AcDbEntity
  8
_0
  6
Continuous
 62
     7
370
    13
100
AcDbLine
 10
70.374573
 20
-43.215802
 30
0.0
 11
70.374573
 21
-42.944812
 31
0.0
  0
LINE
  5
8F
330
343
100
AcDbEntity
  8
_0
  6
Continuous
 62
     7
370
    13
100
AcDbLine
 10
70.284562
 20
-43.198313
 30
0.0
 11
70.284562
 21
-42.927323
 31
0.0
  0
LINE
  5
90
330
343
100
AcDbEntity
  8
_0
  6
Continuous
 62
     7
370
    13
100
AcDbLine
 10
70.194563
 20
-43.180813
 30
0.0
 11
70.194563
 21
-42.909823
 31
0.0
  0
LINE
  5
91
330
343
100
AcDbEntity
  8
_0
  6
Continuous
 62
     7
370
    13
100
AcDbLine
 10
70.104552
 20
-43.163312
 30
0.0
 11
70.104552
 21
-42.892333
 31
0.0
  0
LINE
  5
92
330
343
100
AcDbEntity
  8
_0
  6
Continuous
 62
     7
370
    13
100
AcDbLine
 10
70.029542
 20
-43.148729
 30
0.0
 11
70.029542
 21
-42.87775
 31
0.0
  0
LINE
  5
93
330
343
100
AcDbEntity
  8
_0
  6
Continuous
 62
     7
370
    13
100
AcDbLine
 10
69.939542
 20
-43.13124
 30
0.0
 11
69.939542
 21
-42.86026
 31
0.0
  0
LINE
  5
94
330
343
100
AcDbEntity
  8
_0
  6
Continuous
 62
     7
370
    13
100
AcDbLine
 10
69.889531
 20
-43.121521
 30
0.0
 11
69.889531
 21
-42.850542
 31
0.0
  0
LINE
  5
95
330
343
100
AcDbEntity
  8
_0
  6
Continuous
 62
     7
370
    13
100
AcDbLine
 10
69.804531
 20
-43.105
 30
0.0
 11
69.804531
 21
-42.83401
 31
0.0
  0
LINE
  5
96
330
343
100
AcDbEntity
  8
_0
  6
Continuous
 62
     7
370
    13
100
AcDbLine
 10
69.764521
 20
-43.097219
 30
0.0
 11
69.764521
 21
-42.82624
 31
0.0
  0
LINE
  5
97
330
343
100
AcDbEntity
  8
_0
  6
Continuous
 62
     7
370
    13
100
AcDbLine
 10
69.652875
 20
-43.079729
 30
0.0
 11
69.652875
 21
-42.80874
 31
0.0
  0
LINE
  5
98
330
343
100
AcDbEntity
  8
_0
  6
Continuous
 62
     7
370
    13
100
AcDbLine
 10
69.58451
 20
-43.079729
 30
0.0
 11
69.58451
 21
-42.80874
 31
0.0
  0
LINE
  5
99
330
343
100
AcDbEntity
  8
_0
  6
Continuous
 62
     7
370
    13
100
AcDbLine
 10
69.4945
 20
-43.079729
 30
0.0
 11
69.4945
 21
-42.80874
 31
0.0
  0
LINE
  5
9A
330
343
100
AcDbEntity
  8
_0
  6
Continuous
 62
     7
370
    13
100
AcDbLine
 10
69.4145
 20
-43.079729
 30
0.0
 11
69.4145
 21
-42.80874
 31
0.0
  0
LINE
  5
9B
330
343
100
AcDbEntity
  8
_0
  6
Continuous
 62
     7
370
    13
100
AcDbLine
 10
69.34449
 20
-43.079729
 30
0.0
 11
69.34449
 21
-42.80874
 31
0.0
  0
LINE
  5
9C
330
343
100
AcDbEntity
  8
_0
  6
Continuous
 62
     7
370
    13
100
AcDbLine
 10
69.28449
 20
-43.079729
 30
0.0
 11
69.28449
 21
-42.80874
 31
0.0
  0
LINE
  5
9D
330
343
100
AcDbEntity
  8
_0
  6
Continuous
 62
     7
370
    13
100
AcDbLine
 10
69.234479
 20
-43.079729
 30
0.0
 11
69.234479
 21
-42.80874
 31
0.0
  0
LINE
  5
9E
330
343
100
AcDbEntity
  8
_0
  6
Continuous
 62
     7
370
    13
100
AcDbLine
 10
69.194479
 20
-43.079729
 30
0.0
 11
69.194479
 21
-42.80874
 31
0.0
  0
LINE
  5
9F
330
343
100
AcDbEntity
  8
_0
  6
Continuous
 62
     7
370
    13
100
AcDbLine
 10
69.164479
 20
-43.079729
 30
0.0
 11
69.164479
 21
-42.80874
 31
0.0
  0
LINE
  5
A0
330
343
100
AcDbEntity
  8
_0
  6
Continuous
 62
     7
370
    13
100
AcDbLine
 10
69.144479
 20
-43.079729
 30
0.0
 11
69.144479
 21
-42.80874
 31
0.0
  0
LINE
  5
A1
330
343
100
AcDbEntity
  8
_0
  6
Continuous
 62
     7
370
    13
100
AcDbLine
 10
69.125479
 20
-43.079729
 30
0.0
 11
69.125479
 21
-42.80874
 31
0.0
  0
LINE
  5
A2
330
343
100
AcDbEntity
  8
_0
  6
Continuous
 62
     7
370
    13
100
AcDbLine
 10
69.110479
 20
-43.079729
 30
0.0
 11
69.110479
 21
-42.80874
 31
0.0
  0
LINE
  5
A3
330
343
100
AcDbEntity
  8
_0
  6
DGN Style 2
 62
     7
370
    13
100
AcDbLine
 10
71.874698
 20
-43.66625
 30
0.0
 11
71.874698
 21
-43.30775
 31
0.0
  0
LINE
  5
A4
330
343
100
AcDbEntity
  8
_0
  6
DGN Style 2
 62
     7
370
    13
100
AcDbLine
 10
71.987156
 20
-43.708583
 30
0.0
 11
71.987156
 21
-43.259313
 31
0.0
  0
LINE
  5
A5
330
343
100
AcDbEntity
  8
_0
  6
DGN Style 2
 62
     7
370
    13
100
AcDbLine
 10
72.087167
 20
-43.708583
 30
0.0
 11
72.087167
 21
-43.27875
 31
0.0
  0
LINE
  5
A6
330
343
100
AcDbEntity
  8
_0
  6
DGN Style 2
 62
     7
370
    13
100
AcDbLine
 10
72.226562
 20
-43.754083
 30
0.0
 11
72.226562
 21
-43.304802
 31
0.0
  0
LINE
  5
A7
330
343
100
AcDbEntity
  8
_0
  6
DGN Style 2
 62
     7
370
    13
100
AcDbLine
 10
72.326573
 20
-43.754083
 30
0.0
 11
72.326573
 21
-43.32425
 31
0.0
  0
LINE
  5
A8
330
343
100
AcDbEntity
  8
_0
  6
DGN Style 2
 62
     7
370
    13
100
AcDbLine
 10
69.109667
 20
-43.253854
 30
0.0
 11
69.125479
 21
-43.253854
 31
0.0
  0
LINE
  5
A9
330
343
100
AcDbEntity
  8
_0
  6
DGN Style 2
 62
     7
370
    13
100
AcDbLine
 10
69.109667
 20
-43.079729
 30
0.0
 11
69.109667
 21
-43.253854
 31
0.0
  0
LINE
  5
AA
330
343
100
AcDbEntity
  8
_0
  6
DGN Style 2
 62
     7
370
    13
100
AcDbLine
 10
69.125479
 20
-43.079729
 30
0.0
 11
69.125479
 21
-43.253854
 31
0.0
  0
LINE
  5
AB
330
343
100
AcDbEntity
  8
_0
  6
DGN Style 2
 62
     7
370
    13
100
AcDbLine
 10
69.144479
 20
-43.079729
 30
0.0
 11
69.144479
 21
-43.253854
 31
0.0
  0
LINE
  5
AC
330
343
100
AcDbEntity
  8
_0
  6
DGN Style 2
 62
     7
370
    13
100
AcDbLine
 10
69.164479
 20
-43.079729
 30
0.0
 11
69.164479
 21
-43.253854
 31
0.0
  0
LINE
  5
AD
330
343
100
AcDbEntity
  8
_0
  6
DGN Style 2
 62
     7
370
    13
100
AcDbLine
 10
69.194479
 20
-43.079729
 30
0.0
 11
69.194479
 21
-43.253854
 31
0.0
  0
LINE
  5
AE
330
343
100
AcDbEntity
  8
_0
  6
DGN Style 2
 62
     7
370
    13
100
AcDbLine
 10
69.234479
 20
-43.079729
 30
0.0
 11
69.234479
 21
-43.253854
 31
0.0
  0
LINE
  5
AF
330
343
100
AcDbEntity
  8
_0
  6
DGN Style 2
 62
     7
370
    13
100
AcDbLine
 10
69.28449
 20
-43.079729
 30
0.0
 11
69.28449
 21
-43.253854
 31
0.0
  0
LINE
  5
B0
330
343
100
AcDbEntity
  8
_0
  6
DGN Style 2
 62
     7
370
    13
100
AcDbLine
 10
69.34449
 20
-43.079729
 30
0.0
 11
69.34449
 21
-43.253854
 31
0.0
  0
LINE
  5
B1
330
343
100
AcDbEntity
  8
_0
  6
DGN Style 2
 62
     7
370
    13
100
AcDbLine
 10
69.4145
 20
-43.079729
 30
0.0
 11
69.4145
 21
-43.253854
 31
0.0
  0
LINE
  5
B2
330
343
100
AcDbEntity
  8
_0
  6
DGN Style 2
 62
     7
370
    13
100
AcDbLine
 10
69.4945
 20
-43.079729
 30
0.0
 11
69.4945
 21
-43.253854
 31
0.0
  0
LINE
  5
B3
330
343
100
AcDbEntity
  8
_0
  6
DGN Style 2
 62
     7
370
    13
100
AcDbLine
 10
69.58451
 20
-43.079729
 30
0.0
 11
69.58451
 21
-43.253854
 31
0.0
  0
LINE
  5
B4
330
343
100
AcDbEntity
  8
_0
  6
DGN Style 2
 62
     7
370
    13
100
AcDbLine
 10
69.764521
 20
-43.097219
 30
0.0
 11
69.764521
 21
-43.27551
 31
0.0
  0
LINE
  5
B5
330
343
100
AcDbEntity
  8
_0
  6
DGN Style 2
 62
     7
370
    13
100
AcDbLine
 10
69.804531
 20
-43.105
 30
0.0
 11
69.804531
 21
-43.299813
 31
0.0
  0
LINE
  5
B6
330
343
100
AcDbEntity
  8
_0
  6
DGN Style 2
 62
     7
370
    13
100
AcDbLine
 10
69.889531
 20
-43.121521
 30
0.0
 11
69.889531
 21
-43.299813
 31
0.0
  0
LINE
  5
B7
330
343
100
AcDbEntity
  8
_0
  6
DGN Style 2
 62
     7
370
    13
100
AcDbLine
 10
69.939542
 20
-43.13124
 30
0.0
 11
69.939542
 21
-43.327021
 31
0.0
  0
LINE
  5
B8
330
343
100
AcDbEntity
  8
_0
  6
DGN Style 2
 62
     7
370
    13
100
AcDbLine
 10
70.029542
 20
-43.148729
 30
0.0
 11
70.029542
 21
-43.327021
 31
0.0
  0
LINE
  5
B9
330
343
100
AcDbEntity
  8
_0
  6
DGN Style 2
 62
     7
370
    13
100
AcDbLine
 10
70.104552
 20
-43.163312
 30
0.0
 11
70.104552
 21
-43.359104
 31
0.0
  0
LINE
  5
BA
330
343
100
AcDbEntity
  8
_0
  6
DGN Style 2
 62
     7
370
    13
100
AcDbLine
 10
70.194563
 20
-43.180813
 30
0.0
 11
70.194563
 21
-43.359104
 31
0.0
  0
LINE
  5
BB
330
343
100
AcDbEntity
  8
_0
  6
DGN Style 2
 62
     7
370
    13
100
AcDbLine
 10
70.284562
 20
-43.198313
 30
0.0
 11
70.284562
 21
-43.394094
 31
0.0
  0
LINE
  5
BC
330
343
100
AcDbEntity
  8
_0
  6
DGN Style 2
 62
     7
370
    13
100
AcDbLine
 10
70.374573
 20
-43.215802
 30
0.0
 11
70.374573
 21
-43.394094
 31
0.0
  0
LINE
  5
BD
330
343
100
AcDbEntity
  8
_0
  6
DGN Style 2
 62
     7
370
    13
100
AcDbLine
 10
70.474583
 20
-43.23524
 30
0.0
 11
70.474583
 21
-43.432969
 31
0.0
  0
LINE
  5
BE
330
343
100
AcDbEntity
  8
_0
  6
DGN Style 2
 62
     7
370
    13
100
AcDbLine
 10
70.574594
 20
-43.254677
 30
0.0
 11
70.574594
 21
-43.432969
 31
0.0
  0
LINE
  5
BF
330
343
100
AcDbEntity
  8
_0
  6
DGN Style 2
 62
     7
370
    13
100
AcDbLine
 10
70.674594
 20
-43.274125
 30
0.0
 11
70.674594
 21
-43.471854
 31
0.0
  0
LINE
  5
C0
330
343
100
AcDbEntity
  8
_0
  6
DGN Style 2
 62
     7
370
    13
100
AcDbLine
 10
70.774604
 20
-43.293563
 30
0.0
 11
70.774604
 21
-43.471854
 31
0.0
  0
LINE
  5
C1
330
343
100
AcDbEntity
  8
_0
  6
DGN Style 2
 62
     7
370
    13
100
AcDbLine
 10
70.874615
 20
-43.313
 30
0.0
 11
70.874615
 21
-43.510729
 31
0.0
  0
LINE
  5
C2
330
343
100
AcDbEntity
  8
_0
  6
DGN Style 2
 62
     7
370
    13
100
AcDbLine
 10
70.974625
 20
-43.332437
 30
0.0
 11
70.974625
 21
-43.510729
 31
0.0
  0
LINE
  5
C3
330
343
100
AcDbEntity
  8
_0
  6
DGN Style 2
 62
     7
370
    13
100
AcDbLine
 10
71.074625
 20
-43.351875
 30
0.0
 11
71.074625
 21
-43.549604
 31
0.0
  0
LINE
  5
C4
330
343
100
AcDbEntity
  8
_0
  6
DGN Style 2
 62
     7
370
    13
100
AcDbLine
 10
71.174635
 20
-43.371323
 30
0.0
 11
71.174635
 21
-43.549604
 31
0.0
  0
LINE
  5
C5
330
343
100
AcDbEntity
  8
_0
  6
DGN Style 2
 62
     7
370
    13
100
AcDbLine
 10
71.274646
 20
-43.39076
 30
0.0
 11
71.274646
 21
-43.58849
 31
0.0
  0
LINE
  5
C6
330
343
100
AcDbEntity
  8
_0
  6
DGN Style 2
 62
     7
370
    13
100
AcDbLine
 10
71.374656
 20
-43.410198
 30
0.0
 11
71.374656
 21
-43.58849
 31
0.0
  0
LINE
  5
C7
330
343
100
AcDbEntity
  8
_0
  6
DGN Style 2
 62
     7
370
    13
100
AcDbLine
 10
69.652875
 20
-43.079729
 30
0.0
 11
69.652875
 21
-43.253854
 31
0.0
  0
LINE
  5
C8
330
343
100
AcDbEntity
  8
_0
  6
DGN Style 2
 62
     7
370
    13
100
AcDbLine
 10
69.144479
 20
-43.253854
 30
0.0
 11
69.164479
 21
-43.253854
 31
0.0
  0
LINE
  5
C9
330
343
100
AcDbEntity
  8
_0
  6
DGN Style 2
 62
     7
370
    13
100
AcDbLine
 10
69.194479
 20
-43.253854
 30
0.0
 11
69.234479
 21
-43.253854
 31
0.0
  0
LINE
  5
CA
330
343
100
AcDbEntity
  8
_0
  6
DGN Style 2
 62
     7
370
    13
100
AcDbLine
 10
69.28449
 20
-43.253854
 30
0.0
 11
69.34449
 21
-43.253854
 31
0.0
  0
LINE
  5
CB
330
343
100
AcDbEntity
  8
_0
  6
DGN Style 2
 62
     7
370
    13
100
AcDbLine
 10
69.4145
 20
-43.253854
 30
0.0
 11
69.4945
 21
-43.253854
 31
0.0
  0
LINE
  5
CC
330
343
100
AcDbEntity
  8
_0
  6
DGN Style 2
 62
     7
370
    13
100
AcDbLine
 10
69.58451
 20
-43.253854
 30
0.0
 11
69.652875
 21
-43.253854
 31
0.0
  0
LINE
  5
CD
330
343
100
AcDbEntity
  8
_0
  6
Continuous
 62
     7
370
    13
100
AcDbLine
 10
69.698219
 20
-43.084333
 30
0.0
 11
69.698219
 21
-42.813344
 31
0.0
  0
LINE
  5
CE
330
343
100
AcDbEntity
  8
_0
  6
DGN Style 2
 62
     7
370
    13
100
AcDbLine
 10
69.698219
 20
-43.084333
 30
0.0
 11
69.698219
 21
-43.27551
 31
0.0
  0
LINE
  5
CF
330
343
100
AcDbEntity
  8
_0
  6
DGN Style 2
 62
     7
370
    13
100
AcDbLine
 10
69.764521
 20
-43.27551
 30
0.0
 11
69.698219
 21
-43.27551
 31
0.0
  0
LINE
  5
D0
330
343
100
AcDbEntity
  8
_0
  6
DGN Style 2
 62
     7
370
    13
100
AcDbLine
 10
69.889531
 20
-43.299813
 30
0.0
 11
69.804531
 21
-43.299813
 31
0.0
  0
LINE
  5
D1
330
343
100
AcDbEntity
  8
_0
  6
DGN Style 2
 62
     7
370
    13
100
AcDbLine
 10
70.029542
 20
-43.327021
 30
0.0
 11
69.939542
 21
-43.327021
 31
0.0
  0
LINE
  5
D2
330
343
100
AcDbEntity
  8
_0
  6
DGN Style 2
 62
     7
370
    13
100
AcDbLine
 10
70.194563
 20
-43.359104
 30
0.0
 11
70.104552
 21
-43.359104
 31
0.0
  0
LINE
  5
D3
330
343
100
AcDbEntity
  8
_0
  6
DGN Style 2
 62
     7
370
    13
100
AcDbLine
 10
70.374573
 20
-43.394094
 30
0.0
 11
70.284562
 21
-43.394094
 31
0.0
  0
LINE
  5
D4
330
343
100
AcDbEntity
  8
_0
  6
DGN Style 2
 62
     7
370
    13
100
AcDbLine
 10
70.574594
 20
-43.432969
 30
0.0
 11
70.474583
 21
-43.432969
 31
0.0
  0
LINE
  5
D5
330
343
100
AcDbEntity
  8
_0
  6
DGN Style 2
 62
     7
370
    13
100
AcDbLine
 10
70.774604
 20
-43.471854
 30
0.0
 11
70.674594
 21
-43.471854
 31
0.0
  0
LINE
  5
D6
330
343
100
AcDbEntity
  8
_0
  6
DGN Style 2
 62
     7
370
    13
100
AcDbLine
 10
70.974625
 20
-43.510729
 30
0.0
 11
70.874615
 21
-43.510729
 31
0.0
  0
LINE
  5
D7
330
343
100
AcDbEntity
  8
_0
  6
DGN Style 2
 62
     7
370
    13
100
AcDbLine
 10
71.174635
 20
-43.549604
 30
0.0
 11
71.074625
 21
-43.549604
 31
0.0
  0
LINE
  5
D8
330
343
100
AcDbEntity
  8
_0
  6
DGN Style 2
 62
     7
370
    13
100
AcDbLine
 10
71.374656
 20
-43.58849
 30
0.0
 11
71.274646
 21
-43.58849
 31
0.0
  0
LINE
  5
D9
330
343
100
AcDbEntity
  8
_0
  6
DGN Style 2
 62
     7
370
    13
100
AcDbLine
 10
71.774687
 20
-43.66625
 30
0.0
 11
71.874698
 21
-43.66625
 31
0.0
  0
LINE
  5
DA
330
343
100
AcDbEntity
  8
_0
  6
DGN Style 2
 62
     7
370
    13
100
AcDbLine
 10
71.987156
 20
-43.708583
 30
0.0
 11
72.087167
 21
-43.708583
 31
0.0
  0
LINE
  5
DB
330
343
100
AcDbEntity
  8
_0
  6
DGN Style 2
 62
     7
370
    13
100
AcDbLine
 10
72.226562
 20
-43.754083
 30
0.0
 11
72.326573
 21
-43.754083
 31
0.0
  0
LINE
  5
DC
330
343
100
AcDbEntity
  8
_0
  6
Continuous
 62
     7
370
    13
100
AcDbLine
 10
71.774687
 20
-43.366729
 30
0.0
 11
71.774687
 21
-43.216969
 31
0.0
  0
LINE
  5
DD
330
343
100
AcDbEntity
  8
_0
  6
Continuous
 62
     7
370
    13
100
AcDbLine
 10
71.874698
 20
-43.30775
 30
0.0
 11
71.874698
 21
-43.236406
 31
0.0
  0
LINE
  5
DE
330
343
100
AcDbEntity
  8
_0
  6
Continuous
 62
     7
370
    13
100
AcDbLine
 10
71.629156
 20
-43.510604
 30
0.0
 11
71.386792
 21
-43.4635
 31
0.0
  0
LINE
  5
DF
330
343
100
AcDbEntity
  8
_0
  6
Continuous
 62
     7
370
    13
100
AcDbLine
 10
71.774687
 20
-43.424781
 30
0.0
 11
71.629156
 21
-43.510604
 31
0.0
  0
LINE
  5
E0
330
343
100
AcDbEntity
  8
_0
  6
Continuous
 62
     7
370
    13
100
AcDbLine
 10
71.394885
 20
-43.414135
 30
0.0
 11
71.386792
 21
-43.4635
 31
0.0
  0
LINE
  5
E1
330
343
100
AcDbEntity
  8
_0
  6
Continuous
 62
     7
370
    13
100
AcDbLine
 10
72.683448
 20
-42.982125
 30
0.0
 11
72.450094
 21
-43.11974
 31
0.0
  0
LINE
  5
E2
330
343
100
AcDbEntity
  8
_0
  6
Continuous
 62
     7
370
    13
100
AcDbLine
 10
72.683448
 20
-42.982125
 30
0.0
 11
72.683448
 21
-42.607094
 31
0.0
  0
LINE
  5
E3
330
343
100
AcDbEntity
  8
_0
  6
Continuous
 62
     7
370
    13
100
AcDbLine
 10
71.620083
 20
-42.950938
 30
0.0
 11
71.620083
 21
-42.430969
 31
0.0
  0
SOLID
  5
E4
330
343
100
AcDbEntity
  8
TITLE
  6
Continuous
 62
     7
370
    13
100
AcDbTrace
 10
72.635948
 20
-42.864396
 30
0.0
 11
72.632771
 21
-42.88075
 31
0.0
 12
72.683448
 22
-42.882115
 32
0.0
 13
72.683448
 23
-42.882115
 33
0.0
  0
LINE
  5
E5
330
343
100
AcDbEntity
  8
TITLE
  6
Continuous
 62
     7
370
    13
100
AcDbLine
 10
72.634354
 20
-42.872573
 30
0.0
 11
72.248969
 21
-42.797656
 31
0.0
  0
SOLID
  5
E8
330
343
100
AcDbEntity
  8
TITLE
  6
Continuous
 62
     7
370
    13
100
AcDbTrace
 10
-71.667573
 20
-42.693146
 30
0.0
 11
-71.67076
 21
-42.676781
 31
0.0
 12
-71.620083
 22
-42.675417
 32
0.0
 13
-71.620083
 23
-42.675417
 33
0.0
210
0.0
220
0.0
230
-1.0
  0
LINE
  5
E9
330
343
100
AcDbEntity
  8
TITLE
  6
Continuous
 62
     7
370
    13
100
AcDbLine
 10
71.669167
 20
-42.684958
 30
0.0
 11
71.75149
 21
-42.700969
 31
0.0
  0
SOLID
  5
EA
330
343
100
AcDbEntity
  8
TITLE
  6
Continuous
 62
     7
370
    13
100
AcDbTrace
 10
71.572583
 20
-42.657698
 30
0.0
 11
71.569406
 21
-42.674052
 31
0.0
 12
71.620083
 22
-42.675417
 32
0.0
 13
71.620083
 23
-42.675417
 33
0.0
  0
LINE
  5
EB
330
343
100
AcDbEntity
  8
TITLE
  6
Continuous
 62
     7
370
    13
100
AcDbLine
 10
71.571
 20
-42.665875
 30
0.0
 11
71.238323
 21
-42.601208
 31
0.0
  0
LINE
  5
EE
330
343
100
AcDbEntity
  8
TITLE
  6
Continuous
 62
     7
370
    13
100
AcDbLine
 10
70.057917
 20
-42.37176
 30
0.0
 11
70.531146
 21
-42.46375
 31
0.0
  0
SOLID
  5
EF
330
343
100
AcDbEntity
  8
TITLE
  6
Continuous
 62
     7
370
    13
100
AcDbTrace
 10
-70.273833
 20
-42.421479
 30
0.0
 11
-70.27701
 21
-42.405115
 31
0.0
 12
-70.226344
 22
-42.40376
 32
0.0
 13
-70.226344
 23
-42.40376
 33
0.0
210
0.0
220
0.0
230
-1.0
  0
SOLID
  5
F0
330
343
100
AcDbEntity
  8
TITLE
  6
Continuous
 62
     7
370
    13
100
AcDbTrace
 10
-70.064167
 20
-42.38226
 30
0.0
 11
-70.067344
 21
-42.365896
 31
0.0
 12
-70.016667
 22
-42.364542
 32
0.0
 13
-70.016667
 23
-42.364542
 33
0.0
210
0.0
220
0.0
230
-1.0
  0
SOLID
  5
F1
330
343
100
AcDbEntity
  8
TITLE
  6
Continuous
 62
     7
370
    13
100
AcDbTrace
 10
-70.165271
 20
-42.401812
 30
0.0
 11
-70.168448
 21
-42.385458
 31
0.0
 12
-70.117771
 22
-42.384094
 32
0.0
 13
-70.117771
 23
-42.384094
 33
0.0
210
0.0
220
0.0
230
-1.0
  0
LINE
  5
F2
330
343
100
AcDbEntity
  8
_0
  6
DGN Style 2
 62
     7
370
    13
100
AcDbLine
 10
72.399156
 20
-43.338354
 30
0.0
 11
72.025833
 21
-43.265792
 31
0.0
  0
LINE
  5
F3
330
343
100
AcDbEntity
  8
_0
  6
DGN Style 2
 62
     7
370
    13
100
AcDbLine
 10
72.378677
 20
-43.301135
 30
0.0
 11
72.068229
 21
-43.240792
 31
0.0
  0
LINE
  5
F4
330
343
100
AcDbEntity
  8
_0
  6
DGN Style 2
 62
     7
370
    13
100
AcDbLine
 10
72.416135
 20
-43.270646
 30
0.0
 11
72.116406
 21
-43.212385
 31
0.0
  0
LINE
  5
F5
330
343
100
AcDbEntity
  8
_0
  6
DGN Style 2
 62
     7
370
    13
100
AcDbLine
 10
72.412688
 20
-43.212552
 30
0.0
 11
72.189625
 21
-43.169198
 31
0.0
  0
LINE
  5
F6
330
343
100
AcDbEntity
  8
_0
  6
DGN Style 2
 62
     7
370
    13
100
AcDbLine
 10
72.380333
 20
-43.16849
 30
0.0
 11
72.237802
 21
-43.140792
 31
0.0
  0
LINE
  5
F7
330
343
100
AcDbEntity
  8
_0
  6
DGN Style 2
 62
     7
370
    13
100
AcDbLine
 10
72.417104
 20
-43.141917
 30
0.0
 11
72.280802
 21
-43.115427
 31
0.0
  0
LINE
  5
F8
330
343
100
AcDbEntity
  8
_0
  6
Continuous
 62
     7
370
    13
100
AcDbLine
 10
72.280802
 20
-43.115427
 30
0.0
 11
72.025833
 21
-43.265792
 31
0.0
  0
LWPOLYLINE
  5
F9
330
343
100
AcDbEntity
  8
_0
  6
Continuous
 62
     7
370
     0
100
AcDbPolyline
 90
       33
 70
   128
 43
0.0
 10
72.413354
 20
-43.214
 10
72.414333
 20
-43.221229
 10
72.41476
 20
-43.225979
 10
72.415062
 20
-43.231281
 10
72.41524
 20
-43.236958
 10
72.415302
 20
-43.242812
 10
72.41524
 20
-43.248677
 10
72.415062
 20
-43.254354
 10
72.41476
 20
-43.259656
 10
72.414333
 20
-43.264406
 10
72.413781
 20
-43.268469
 10
72.413073
 20
-43.271875
 10
72.412146
 20
-43.27474
 10
72.41099
 20
-43.277146
 10
72.409542
 20
-43.279187
 10
72.407771
 20
-43.280969
 10
72.405625
 20
-43.282573
 10
72.403083
 20
-43.284094
 10
72.400104
 20
-43.285625
 10
72.396812
 20
-43.287208
 10
72.393302
 20
-43.288885
 10
72.389719
 20
-43.290698
 10
72.386177
 20
-43.292677
 10
72.382792
 20
-43.294875
 10
72.379688
 20
-43.297302
 10
72.37699
 20
-43.300031
 10
72.374875
 20
-43.303104
 10
72.373781
 20
-43.306615
 10
72.374177
 20
-43.310688
 10
72.376562
 20
-43.315458
 10
72.381417
 20
-43.321042
 10
72.389219
 20
-43.331979
 10
72.398521
 20
-43.338229
  0
LINE
  5
FA
330
343
100
AcDbEntity
  8
_0
  6
Continuous
 62
     7
370
    13
100
AcDbLine
 10
71.965667
 20
-43.254094
 30
0.0
 11
71.620083
 21
-43.457906
 31
0.0
  0
SOLID
  5
FE
330
343
100
AcDbEntity
  8
TITLE
  6
Continuous
 62
     7
370
    13
100
AcDbTrace
 10
72.625604
 20
-42.794656
 30
0.0
 11
72.61125
 21
-42.803125
 31
0.0
 12
72.643833
 22
-42.841969
 32
0.0
 13
72.643833
 23
-42.841969
 33
0.0
  0
LINE
  5
FF
330
343
100
AcDbEntity
  8
TITLE
  6
Continuous
 62
     7
370
    13
100
AcDbLine
 10
72.618427
 20
-42.798896
 30
0.0
 11
72.428469
 21
-42.476771
 31
0.0
  0
LINE
  5
100
330
343
100
AcDbEntity
  8
TITLE
  6
Continuous
 62
     7
370
    13
100
AcDbLine
 10
72.428469
 20
-42.476771
 30
0.0
 11
72.33951
 21
-42.476771
 31
0.0
  0
SOLID
  5
10F
330
343
100
AcDbEntity
  8
TITLE
  6
Continuous
 62
     7
370
    13
100
AcDbTrace
 10
72.173063
 20
-43.818792
 30
0.0
 11
72.186135
 21
-43.829135
 31
0.0
 12
72.210604
 22
-43.78474
 32
0.0
 13
72.210604
 23
-43.78474
 33
0.0
  0
LINE
  5
110
330
343
100
AcDbEntity
  8
TITLE
  6
Continuous
 62
     7
370
    13
100
AcDbLine
 10
72.179594
 20
-43.823969
 30
0.0
 11
71.98576
 21
-44.069229
 31
0.0
  0
LINE
  5
111
330
343
100
AcDbEntity
  8
TITLE
  6
Continuous
 62
     7
370
    13
100
AcDbLine
 10
71.98576
 20
-44.069229
 30
0.0
 11
71.857281
 21
-44.069229
 31
0.0
  0
LINE
  5
112
330
343
100
AcDbEntity
  8
_0
  6
Continuous
 62
     7
370
    13
100
AcDbLine
 10
73.639771
 20
-43.556375
 30
0.0
 11
73.631687
 21
-43.60575
 31
0.0
  0
LINE
  5
113
330
343
100
AcDbEntity
  8
_0
  6
Continuous
 62
     7
370
    13
100
AcDbLine
 10
73.886521
 20
-43.655281
 30
0.0
 11
73.631687
 21
-43.60575
 31
0.0
  0
LINE
  5
114
330
343
100
AcDbEntity
  8
_0
  6
DGN Style 2
 62
     7
370
    13
100
AcDbLine
 10
73.619542
 20
-43.73074
 30
0.0
 11
73.519531
 21
-43.73074
 31
0.0
  0
LINE
  5
115
330
343
100
AcDbEntity
  8
_0
  6
DGN Style 2
 62
     7
370
    13
100
AcDbLine
 10
73.619542
 20
-43.552448
 30
0.0
 11
73.619542
 21
-43.73074
 31
0.0
  0
LINE
  5
116
330
343
100
AcDbEntity
  8
_0
  6
DGN Style 2
 62
     7
370
    13
100
AcDbLine
 10
73.519531
 20
-43.53301
 30
0.0
 11
73.519531
 21
-43.73074
 31
0.0
  0
LINE
  5
117
330
343
100
AcDbEntity
  8
_0
  6
Continuous
 62
     7
370
    13
100
AcDbLine
 10
73.519531
 20
-43.53301
 30
0.0
 11
73.519531
 21
-43.262021
 31
0.0
  0
LINE
  5
118
330
343
100
AcDbEntity
  8
_0
  6
Continuous
 62
     7
370
    13
100
AcDbLine
 10
73.619542
 20
-43.552448
 30
0.0
 11
73.619542
 21
-43.281458
 31
0.0
  0
LINE
  5
119
330
343
100
AcDbEntity
  8
_0
  6
Continuous
 62
     7
370
    13
100
AcDbLine
 10
73.978948
 20
-43.151406
 30
0.0
 11
73.298063
 21
-43.019052
 31
0.0
  0
LINE
  5
11A
330
343
100
AcDbEntity
  8
_0
  6
Continuous
 62
     7
370
    13
100
AcDbLine
 10
73.932875
 20
-43.176167
 30
0.0
 11
73.291812
 21
-43.051552
 31
0.0
  0
LINE
  5
11B
330
343
100
AcDbEntity
  8
_0
  6
Continuous
 62
     7
370
    13
100
AcDbLine
 10
73.966281
 20
-43.220437
 30
0.0
 11
73.284802
 21
-43.087969
 31
0.0
  0
LINE
  5
11C
330
343
100
AcDbEntity
  8
_0
  6
Continuous
 62
     7
370
    13
100
AcDbLine
 10
73.956115
 20
-43.275875
 30
0.0
 11
73.274167
 21
-43.143313
 31
0.0
  0
LINE
  5
11D
330
343
100
AcDbEntity
  8
_0
  6
Continuous
 62
     7
370
    13
100
AcDbLine
 10
73.910021
 20
-43.304688
 30
0.0
 11
73.267167
 21
-43.179729
 31
0.0
  0
LINE
  5
11E
330
343
100
AcDbEntity
  8
_0
  6
Continuous
 62
     7
370
    13
100
AcDbLine
 10
73.943542
 20
-43.344448
 30
0.0
 11
73.261
 21
-43.211771
 31
0.0
  0
LINE
  5
11F
330
343
100
AcDbEntity
  8
_0
  6
Continuous
 62
     7
370
    13
100
AcDbLine
 10
73.895542
 20
-43.606094
 30
0.0
 11
73.237948
 21
-43.478271
 31
0.0
  0
LINE
  5
120
330
343
100
AcDbEntity
  8
_0
  6
Continuous
 62
     7
370
    13
100
AcDbLine
 10
73.261
 20
-43.211771
 30
0.0
 11
73.298063
 21
-43.019052
 31
0.0
  0
SPLINE
  5
121
330
343
100
AcDbEntity
  8
_0
  6
Continuous
 62
     7
370
     0
100
AcDbSpline
210
0.0
220
0.0
230
1.0
 70
     8
 71
     3
 72
    14
 73
    10
 74
     0
 42
0.0000000001
 43
0.00000001
 40
0.0
 40
0.0
 40
0.0
 40
0.0
 40
0.1428571428571428
 40
0.2857142857142857
 40
0.4285714285714285
 40
0.5714285714285714
 40
0.7142857142857142
 40
0.857142857142857
 40
1.0
 40
1.0
 40
1.0
 40
1.0
 10
73.97894791666667
 20
-43.15140625
 30
0.0
 10
73.92921875
 20
-43.16794791666666
 30
0.0
 10
73.92714583333333
 20
-43.19027083333333
 30
0.0
 10
73.96090625
 20
-43.20903125
 30
0.0
 10
73.96653125
 20
-43.22185416666667
 30
0.0
 10
73.95629166666666
 20
-43.27990625
 30
0.0
 10
73.946625
 20
-43.29002083333333
 30
0.0
 10
73.90848958333333
 20
-43.29610416666667
 30
0.0
 10
73.90279166666666
 20
-43.31779166666666
 30
0.0
 10
73.94386458333334
 20
-43.35035416666666
 30
0.0
  0
LINE
  5
123
330
343
100
AcDbEntity
  8
_0
  6
Continuous
 62
     7
370
    13
100
AcDbLine
 10
73.886521
 20
-43.655281
 30
0.0
 11
74.059917
 21
-42.710021
 31
0.0
  0
LINE
  5
124
330
343
100
AcDbEntity
  8
_0
  6
Continuous
 62
     7
370
    13
100
AcDbLine
 10
75.733063
 20
-43.73074
 30
0.0
 11
75.803927
 21
-43.344448
 31
0.0
  0
LINE
  5
125
330
343
100
AcDbEntity
  8
_0
  6
Continuous
 62
     7
370
    13
100
AcDbLine
 10
75.121385
 20
-43.211771
 30
0.0
 11
75.158437
 21
-43.019052
 31
0.0
  0
LINE
  5
126
330
343
100
AcDbEntity
  8
_0
  6
Continuous
 62
     7
370
    13
100
AcDbLine
 10
76.147542
 20
-43.411229
 30
0.0
 11
75.121385
 21
-43.211771
 31
0.0
  0
LINE
  5
127
330
343
100
AcDbEntity
  8
_0
  6
Continuous
 62
     7
370
    13
100
AcDbLine
 10
76.153427
 20
-43.379135
 30
0.0
 11
75.127542
 21
-43.179729
 31
0.0
  0
LINE
  5
128
330
343
100
AcDbEntity
  8
_0
  6
Continuous
 62
     7
370
    13
100
AcDbLine
 10
76.160115
 20
-43.342667
 30
0.0
 11
75.134542
 21
-43.143313
 31
0.0
  0
LINE
  5
129
330
343
100
AcDbEntity
  8
_0
  6
Continuous
 62
     7
370
    13
100
AcDbLine
 10
76.170281
 20
-43.287229
 30
0.0
 11
75.145187
 21
-43.087969
 31
0.0
  0
LINE
  5
12A
330
343
100
AcDbEntity
  8
_0
  6
Continuous
 62
     7
370
    13
100
AcDbLine
 10
76.176969
 20
-43.25075
 30
0.0
 11
75.152187
 21
-43.051552
 31
0.0
  0
LINE
  5
12B
330
343
100
AcDbEntity
  8
_0
  6
Continuous
 62
     7
370
    13
100
AcDbLine
 10
76.182948
 20
-43.218198
 30
0.0
 11
75.158437
 21
-43.019052
 31
0.0
  0
LINE
  5
12C
330
343
100
AcDbEntity
  8
_0
  6
Continuous
 62
     7
370
    13
100
AcDbLine
 10
75.273438
 20
-43.73074
 30
0.0
 11
75.273438
 21
-43.241323
 31
0.0
  0
LINE
  5
12D
330
343
100
AcDbEntity
  8
_0
  6
Continuous
 62
     7
370
    13
100
AcDbLine
 10
75.191781
 20
-43.73074
 30
0.0
 11
75.191781
 21
-43.225458
 31
0.0
  0
LINE
  5
12E
330
343
100
AcDbEntity
  8
_0
  6
Continuous
 62
     7
370
    13
100
AcDbLine
 10
76.113146
 20
-43.73074
 30
0.0
 11
75.104604
 21
-43.73074
 31
0.0
  0
LINE
  5
12F
330
343
100
AcDbEntity
  8
_0
  6
Continuous
 62
     7
370
    13
100
AcDbLine
 10
75.839333
 20
-43.151406
 30
0.0
 11
75.920292
 21
-42.710021
 31
0.0
  0
LINE
  5
130
330
343
100
AcDbEntity
  8
_0
  6
DGN Style 2
 62
     7
370
    13
100
AcDbLine
 10
75.803021
 20
-43.349323
 30
0.0
 11
75.839333
 21
-43.151406
 31
0.0
  0
LINE
  5
131
330
343
100
AcDbEntity
  8
_0
  6
DGN Style 2
 62
     7
370
    13
100
AcDbLine
 10
75.926552
 20
-43.369042
 30
0.0
 11
75.939125
 21
-43.300469
 31
0.0
  0
LINE
  5
132
330
343
100
AcDbEntity
  8
_0
  6
Continuous
 62
     7
370
    13
100
AcDbLine
 10
76.147312
 20
-43.412479
 30
0.0
 11
76.147542
 21
-43.411229
 31
0.0
  0
LWPOLYLINE
  5
133
330
343
100
AcDbEntity
  8
_0
  6
Continuous
 62
     7
370
     0
100
AcDbPolyline
 90
        9
 70
   128
 43
0.0
 10
76.170285
 20
-43.287226
 42
0.041612
 10
76.205522
 20
-43.290699
 42
0.054745
 10
76.23235
 20
-43.288161
 42
0.097678
 10
76.255038
 20
-43.27861
 42
0.201723
 10
76.261767
 20
-43.268329
 42
0.201723
 10
76.259125
 20
-43.256329
 42
0.097678
 10
76.241304
 20
-43.239348
 42
0.054745
 10
76.217123
 20
-43.227453
 42
0.041612
 10
76.182947
 20
-43.218194
  0
LWPOLYLINE
  5
13C
330
343
100
AcDbEntity
  8
_0
  6
Continuous
 62
     7
370
     0
100
AcDbPolyline
 90
        9
 70
   128
 43
0.0
 10
76.147538
 20
-43.411234
 42
0.040778
 10
76.183278
 20
-43.414817
 42
0.053795
 10
76.210431
 20
-43.412391
 42
0.096876
 10
76.233449
 20
-43.402937
 42
0.204403
 10
76.240166
 20
-43.392787
 42
0.204403
 10
76.237488
 20
-43.380914
 42
0.096876
 10
76.219325
 20
-43.363906
 42
0.053795
 10
76.194801
 20
-43.352001
 42
0.040778
 10
76.160115
 20
-43.342665
  0
LINE
  5
145
330
343
100
AcDbEntity
  8
_0
  6
Continuous
 62
     7
370
    13
100
AcDbLine
 10
76.182948
 20
-43.218198
 30
0.0
 11
76.183615
 21
-43.214552
 31
0.0
  0
LINE
  5
146
330
343
100
AcDbEntity
  8
_0
  6
Continuous
 62
     7
370
    13
100
AcDbLine
 10
76.160115
 20
-43.342667
 30
0.0
 11
76.170281
 21
-43.287229
 31
0.0
  0
LINE
  5
147
330
343
100
AcDbEntity
  8
_0
  6
Continuous
 62
     7
370
    13
100
AcDbLine
 10
76.086344
 20
-43.329135
 30
0.0
 11
76.09651
 21
-43.273688
 31
0.0
  0
LINE
  5
148
330
343
100
AcDbEntity
  8
_0
  6
Continuous
 62
     7
370
    13
100
AcDbLine
 10
76.125052
 20
-43.337406
 30
0.0
 11
76.135229
 21
-43.281969
 31
0.0
  0
LINE
  5
149
330
343
100
AcDbEntity
  8
_0
  6
Continuous
 62
     7
370
    13
100
AcDbLine
 10
75.938792
 20
-43.302062
 30
0.0
 11
75.948958
 21
-43.246625
 31
0.0
  0
LINE
  5
14A
330
343
100
AcDbEntity
  8
_0
  6
Continuous
 62
     7
370
    13
100
AcDbLine
 10
75.90351
 20
-43.293542
 30
0.0
 11
75.913677
 21
-43.238104
 31
0.0
  0
LINE
  5
14B
330
343
100
AcDbEntity
  8
_0
  6
DGN Style 2
 62
     7
370
    13
100
AcDbLine
 10
75.949292
 20
-43.245031
 30
0.0
 11
75.962
 21
-43.17574
 31
0.0
  0
LINE
  5
14C
330
343
100
AcDbEntity
  8
_0
  6
DGN Style 2
 62
     7
370
    13
100
AcDbLine
 10
76.096417
 20
-43.271125
 30
0.0
 11
76.109125
 21
-43.201833
 31
0.0
  0
LINE
  5
14D
330
343
100
AcDbEntity
  8
_0
  6
DGN Style 2
 62
     7
370
    13
100
AcDbLine
 10
76.073667
 20
-43.395125
 30
0.0
 11
76.08625
 21
-43.326563
 31
0.0
  0
LINE
  5
14E
330
343
100
AcDbEntity
  8
_0
  6
Continuous
 62
     7
370
    13
100
AcDbLine
 10
75.829115
 20
-43.349323
 30
0.0
 11
75.864521
 21
-43.156292
 31
0.0
  0
CIRCLE
  5
14F
330
343
100
AcDbEntity
  8
_0
  6
Continuous
 62
     7
370
    13
100
AcDbCircle
 10
73.95586
 20
-43.241908
 30
0.0
 40
0.1590585669947838
  0
SOLID
  5
150
330
343
100
AcDbEntity
  8
TITLE
  6
Continuous
 62
     7
370
    13
100
AcDbTrace
 10
-74.042302
 20
-43.442417
 30
0.0
 11
-74.05625
 21
-43.433292
 31
0.0
 12
-74.021906
 22
-43.39601
 32
0.0
 13
-74.021906
 23
-43.39601
 33
0.0
210
0.0
220
0.0
230
-1.0
  0
LINE
  5
151
330
343
100
AcDbEntity
  8
TITLE
  6
Continuous
 62
     7
370
    13
100
AcDbLine
 10
74.049281
 20
-43.437854
 30
0.0
 11
74.09676
 21
-43.510479
 31
0.0
  0
LINE
  5
152
330
343
100
AcDbEntity
  8
TITLE
  6
Continuous
 62
     7
370
    13
100
AcDbLine
 10
74.09676
 20
-43.510479
 30
0.0
 11
74.146771
 21
-43.510479
 31
0.0
  0
SOLID
  5
154
330
343
100
AcDbEntity
  8
TITLE
  6
Continuous
 62
     7
370
    13
100
AcDbTrace
 10
73.989052
 20
-42.8465
 30
0.0
 11
73.979917
 21
-42.860448
 31
0.0
 12
74.026313
 22
-42.880875
 32
0.0
 13
74.026313
 23
-42.880875
 33
0.0
  0
LINE
  5
155
330
343
100
AcDbEntity
  8
TITLE
  6
Continuous
 62
     7
370
    13
100
AcDbLine
 10
73.98449
 20
-42.853479
 30
0.0
 11
73.898615
 21
-42.797219
 31
0.0
  0
LINE
  5
156
330
343
100
AcDbEntity
  8
TITLE
  6
Continuous
 62
     7
370
    13
100
AcDbLine
 10
73.898615
 20
-42.797219
 30
0.0
 11
73.848615
 21
-42.797219
 31
0.0
  0
LINE
  5
158
330
343
100
AcDbEntity
  8
TITLE
  6
Continuous
 62
     7
370
    13
100
AcDbLine
 10
75.825063
 20
-43.003167
 30
0.0
 11
75.739187
 21
-42.946917
 31
0.0
  0
SOLID
  5
159
330
343
100
AcDbEntity
  8
TITLE
  6
Continuous
 62
     7
370
    13
100
AcDbTrace
 10
75.829625
 20
-42.996198
 30
0.0
 11
75.8205
 21
-43.010146
 31
0.0
 12
75.866885
 22
-43.030573
 32
0.0
 13
75.866885
 23
-43.030573
 33
0.0
  0
LINE
  5
15A
330
343
100
AcDbEntity
  8
TITLE
  6
Continuous
 62
     7
370
    13
100
AcDbLine
 10
75.739187
 20
-42.946917
 30
0.0
 11
75.689188
 21
-42.946917
 31
0.0
  0
LINE
  5
15C
330
343
100
AcDbEntity
  8
LEGEND
  6
Continuous
 62
     7
370
    13
100
AcDbLine
 10
76.089562
 20
-43.379885
 30
0.0
 11
76.050719
 21
-43.569844
 31
0.0
  0
LINE
  5
15D
330
343
100
AcDbEntity
  8
LEGEND
  6
Continuous
 62
     7
370
    13
100
AcDbLine
 10
75.914135
 20
-43.344021
 30
0.0
 11
75.875302
 21
-43.533979
 31
0.0
  0
LINE
  5
15E
330
343
100
AcDbEntity
  8
LEGEND
  6
Continuous
 62
     7
370
    13
100
AcDbLine
 10
76.01174
 20
-43.510844
 30
0.0
 11
75.934302
 21
-43.49501
 31
0.0
  0
SOLID
  5
15F
330
343
100
AcDbEntity
  8
LEGEND
  6
Continuous
 62
     7
370
    13
100
AcDbTrace
 10
76.010073
 20
-43.51901
 30
0.0
 11
76.013417
 21
-43.502677
 31
0.0
 12
76.06074
 22
-43.520854
 32
0.0
 13
76.06074
 23
-43.520854
 33
0.0
  0
SOLID
  5
160
330
343
100
AcDbEntity
  8
LEGEND
  6
Continuous
 62
     7
370
    13
100
AcDbTrace
 10
-75.932635
 20
-43.503177
 30
0.0
 11
-75.935979
 21
-43.486844
 31
0.0
 12
-75.885323
 22
-43.48499
 32
0.0
 13
-75.885323
 23
-43.48499
 33
0.0
210
0.0
220
0.0
230
-1.0
  0
HATCH
  5
162
330
343
100
AcDbEntity
  8
_0
  6
Continuous
 62
     7
370
    13
100
AcDbHatch
 10
0.0
 20
0.0
 30
0.0
210
0.0
220
0.0
230
1.0
  2
SOLID
 70
     1
 71
     0
 91
        1
 92
        1
 93
        1
 72
     2
 10
76.11192634023983
 20
-43.30583847074814
 40
0.0100007999999994
 50
0.0
 51
360.0
 73
     1
 97
        0
 75
     0
 76
     1
 98
        0
  0
HATCH
  5
163
330
343
100
AcDbEntity
  8
_0
  6
Continuous
 62
     7
370
    13
100
AcDbHatch
 10
0.0
 20
0.0
 30
0.0
210
0.0
220
0.0
230
1.0
  2
SOLID
 70
     1
 71
     0
 91
        1
 92
        1
 93
        1
 72
     2
 10
75.92645037022616
 20
-43.27007170356212
 40
0.0100007999999987
 50
0.0
 51
360.0
 73
     1
 97
        0
 75
     0
 76
     1
 98
        0
  0
SOLID
  5
164
330
343
100
AcDbEntity
  8
_0
  6
Continuous
 62
     7
370
    13
100
AcDbTrace
 10
-76.158885
 20
-43.346094
 30
0.0
 11
-76.172208
 21
-43.336062
 31
0.0
 12
-76.135469
 22
-43.301135
 32
0.0
 13
-76.135469
 23
-43.301135
 33
0.0
210
0.0
220
0.0
230
-1.0
  0
LINE
  5
165
330
343
100
AcDbEntity
  8
_0
  6
Continuous
 62
     7
370
    13
100
AcDbLine
 10
76.165552
 20
-43.341073
 30
0.0
 11
76.253156
 21
-43.457375
 31
0.0
  0
SOLID
  5
166
330
343
100
AcDbEntity
  8
_0
  6
Continuous
 62
     7
370
    13
100
AcDbTrace
 10
-75.986594
 20
-43.327229
 30
0.0
 11
-75.994333
 21
-43.312458
 31
0.0
 12
-75.946167
 22
-43.296646
 32
0.0
 13
-75.946167
 23
-43.296646
 33
0.0
210
0.0
220
0.0
230
-1.0
  0
LINE
  5
167
330
343
100
AcDbEntity
  8
_0
  6
Continuous
 62
     7
370
    13
100
AcDbLine
 10
75.990458
 20
-43.319844
 30
0.0
 11
76.253156
 21
-43.457375
 31
0.0
  0
SOLID
  5
16B
330
343
100
AcDbEntity
  8
TITLE
  6
Continuous
 62
     7
370
    13
100
AcDbTrace
 10
-76.142177
 20
-43.243156
 30
0.0
 11
-76.126531
 21
-43.237427
 31
0.0
 12
-76.117156
 22
-43.28725
 32
0.0
 13
-76.117156
 23
-43.28725
 33
0.0
210
0.0
220
0.0
230
-1.0
  0
LINE
  5
16C
330
343
100
AcDbEntity
  8
TITLE
  6
Continuous
 62
     7
370
    13
100
AcDbLine
 10
76.134344
 20
-43.240292
 30
0.0
 11
76.214865
 21
-43.020396
 31
0.0
  0
SOLID
  5
16D
330
343
100
AcDbEntity
  8
TITLE
  6
Continuous
 62
     7
370
    13
100
AcDbTrace
 10
75.980448
 20
-43.227698
 30
0.0
 11
75.96974
 21
-43.214917
 31
0.0
 12
75.936771
 22
-43.253427
 32
0.0
 13
75.936771
 23
-43.253427
 33
0.0
  0
LINE
  5
16E
330
343
100
AcDbEntity
  8
TITLE
  6
Continuous
 62
     7
370
    13
100
AcDbLine
 10
75.975094
 20
-43.221312
 30
0.0
 11
76.214865
 21
-43.020396
 31
0.0
  0
LINE
  5
16F
330
343
100
AcDbEntity
  8
TITLE
  6
Continuous
 62
     7
370
    13
100
AcDbLine
 10
76.214865
 20
-43.020396
 30
0.0
 11
76.243052
 21
-43.020396
 31
0.0
  0
LINE
  5
173
330
343
100
AcDbEntity
  8
_0
  6
Continuous
 62
     7
370
    13
100
AcDbLine
 10
73.848042
 20
-42.207802
 30
0.0
 11
73.848042
 21
-41.72776
 31
0.0
  0
LINE
  5
174
330
343
100
AcDbEntity
  8
_0
  6
Continuous
 62
     7
370
    13
100
AcDbLine
 10
73.623031
 20
-42.207802
 30
0.0
 11
73.623031
 21
-41.72776
 31
0.0
  0
LINE
  5
175
330
343
100
AcDbEntity
  8
_0
  6
Continuous
 62
     7
370
    13
100
AcDbLine
 10
73.623031
 20
-42.207802
 30
0.0
 11
73.848042
 21
-42.207802
 31
0.0
  0
LINE
  5
176
330
343
100
AcDbEntity
  8
_0
  6
Continuous
 62
     7
370
    13
100
AcDbLine
 10
73.289802
 20
-41.72776
 30
0.0
 11
74.187052
 21
-41.72776
 31
0.0
  0
LINE
  5
177
330
343
100
AcDbEntity
  8
_0
  6
Continuous
 62
     7
370
    13
100
AcDbLine
 10
73.288812
 20
-41.70776
 30
0.0
 11
74.18551
 21
-41.70776
 31
0.0
  0
LINE
  5
178
330
343
100
AcDbEntity
  8
_0
  6
Continuous
 62
     7
370
    13
100
AcDbLine
 10
73.289802
 20
-41.67651
 30
0.0
 11
74.186937
 21
-41.67651
 31
0.0
  0
LINE
  5
179
330
343
100
AcDbEntity
  8
_0
  6
Continuous
 62
     7
370
    13
100
AcDbLine
 10
73.426948
 20
-41.65651
 30
0.0
 11
74.044125
 21
-41.65651
 31
0.0
  0
LINE
  5
17A
330
343
100
AcDbEntity
  8
_0
  6
Continuous
 62
     7
370
    13
100
AcDbLine
 10
73.636969
 20
-41.5815
 30
0.0
 11
73.834104
 21
-41.5815
 31
0.0
  0
LINE
  5
17B
330
343
100
AcDbEntity
  8
_0
  6
Continuous
 62
     7
370
    13
100
AcDbLine
 10
73.292042
 20
-41.331479
 30
0.0
 11
74.189281
 21
-41.331479
 31
0.0
  0
LINE
  5
17C
330
343
100
AcDbEntity
  8
_0
  6
Continuous
 62
     7
370
    13
100
AcDbLine
 10
73.298
 20
-41.70776
 30
0.0
 11
73.32925
 21
-41.67651
 31
0.0
  0
LINE
  5
17D
330
343
100
AcDbEntity
  8
_0
  6
Continuous
 62
     7
370
    13
100
AcDbLine
 10
73.34801
 20
-41.70776
 30
0.0
 11
73.37926
 21
-41.67651
 31
0.0
  0
LINE
  5
17E
330
343
100
AcDbEntity
  8
_0
  6
Continuous
 62
     7
370
    13
100
AcDbLine
 10
73.39801
 20
-41.70776
 30
0.0
 11
73.42926
 21
-41.67651
 31
0.0
  0
LINE
  5
17F
330
343
100
AcDbEntity
  8
_0
  6
Continuous
 62
     7
370
    13
100
AcDbLine
 10
73.44801
 20
-41.70776
 30
0.0
 11
73.479271
 21
-41.67651
 31
0.0
  0
LINE
  5
180
330
343
100
AcDbEntity
  8
_0
  6
Continuous
 62
     7
370
    13
100
AcDbLine
 10
73.498021
 20
-41.70776
 30
0.0
 11
73.529271
 21
-41.67651
 31
0.0
  0
LINE
  5
181
330
343
100
AcDbEntity
  8
_0
  6
Continuous
 62
     7
370
    13
100
AcDbLine
 10
73.548021
 20
-41.70776
 30
0.0
 11
73.579271
 21
-41.67651
 31
0.0
  0
LINE
  5
182
330
343
100
AcDbEntity
  8
_0
  6
Continuous
 62
     7
370
    13
100
AcDbLine
 10
73.598021
 20
-41.70776
 30
0.0
 11
73.629281
 21
-41.67651
 31
0.0
  0
LINE
  5
183
330
343
100
AcDbEntity
  8
_0
  6
Continuous
 62
     7
370
    13
100
AcDbLine
 10
73.648031
 20
-41.70776
 30
0.0
 11
73.679281
 21
-41.67651
 31
0.0
  0
LINE
  5
184
330
343
100
AcDbEntity
  8
_0
  6
Continuous
 62
     7
370
    13
100
AcDbLine
 10
73.698031
 20
-41.70776
 30
0.0
 11
73.729281
 21
-41.67651
 31
0.0
  0
LINE
  5
185
330
343
100
AcDbEntity
  8
_0
  6
Continuous
 62
     7
370
    13
100
AcDbLine
 10
73.748042
 20
-41.70776
 30
0.0
 11
73.779292
 21
-41.67651
 31
0.0
  0
LINE
  5
186
330
343
100
AcDbEntity
  8
_0
  6
Continuous
 62
     7
370
    13
100
AcDbLine
 10
73.798042
 20
-41.70776
 30
0.0
 11
73.829292
 21
-41.67651
 31
0.0
  0
LINE
  5
187
330
343
100
AcDbEntity
  8
_0
  6
Continuous
 62
     7
370
    13
100
AcDbLine
 10
73.848042
 20
-41.70776
 30
0.0
 11
73.879302
 21
-41.67651
 31
0.0
  0
LINE
  5
188
330
343
100
AcDbEntity
  8
_0
  6
Continuous
 62
     7
370
    13
100
AcDbLine
 10
73.898052
 20
-41.70776
 30
0.0
 11
73.929302
 21
-41.67651
 31
0.0
  0
LINE
  5
189
330
343
100
AcDbEntity
  8
_0
  6
Continuous
 62
     7
370
    13
100
AcDbLine
 10
73.948052
 20
-41.70776
 30
0.0
 11
73.979302
 21
-41.67651
 31
0.0
  0
LINE
  5
18A
330
343
100
AcDbEntity
  8
_0
  6
Continuous
 62
     7
370
    13
100
AcDbLine
 10
73.998063
 20
-41.70776
 30
0.0
 11
74.029313
 21
-41.67651
 31
0.0
  0
LINE
  5
18B
330
343
100
AcDbEntity
  8
_0
  6
Continuous
 62
     7
370
    13
100
AcDbLine
 10
74.048063
 20
-41.70776
 30
0.0
 11
74.079313
 21
-41.67651
 31
0.0
  0
LINE
  5
18C
330
343
100
AcDbEntity
  8
_0
  6
Continuous
 62
     7
370
    13
100
AcDbLine
 10
74.098062
 20
-41.70776
 30
0.0
 11
74.129323
 21
-41.67651
 31
0.0
  0
LINE
  5
18D
330
343
100
AcDbEntity
  8
_0
  6
Continuous
 62
     7
370
    13
100
AcDbLine
 10
74.148073
 20
-41.70776
 30
0.0
 11
74.179323
 21
-41.67651
 31
0.0
  0
LINE
  5
18E
330
343
100
AcDbEntity
  8
_0
  6
Continuous
 62
     7
370
    13
100
AcDbLine
 10
73.626969
 20
-41.657823
 30
0.0
 11
73.626969
 21
-41.5915
 31
0.0
  0
LINE
  5
18F
330
343
100
AcDbEntity
  8
_0
  6
Continuous
 62
     7
370
    13
100
AcDbLine
 10
73.844104
 20
-41.65651
 30
0.0
 11
73.844104
 21
-41.5915
 31
0.0
  0
LINE
  5
190
330
343
100
AcDbEntity
  8
_0
  6
Continuous
 62
     7
370
    13
100
AcDbLine
 10
73.781604
 20
-41.65651
 30
0.0
 11
73.781604
 21
-41.5815
 31
0.0
  0
LINE
  5
191
330
343
100
AcDbEntity
  8
_0
  6
Continuous
 62
     7
370
    13
100
AcDbLine
 10
73.676969
 20
-41.657823
 30
0.0
 11
73.676969
 21
-41.5815
 31
0.0
  0
ARC
  5
192
330
343
100
AcDbEntity
  8
_0
  6
Continuous
 62
     7
370
    13
100
AcDbCircle
 10
73.834104
 20
-41.591505
 30
0.0
 40
0.0100008
100
AcDbArc
 50
0.0
 51
90.0
  0
ARC
  5
193
330
343
100
AcDbEntity
  8
_0
  6
Continuous
 62
     7
370
    13
100
AcDbCircle
 10
73.636969
 20
-41.591505
 30
0.0
 40
0.0100008
100
AcDbArc
 50
90.0
 51
180.0
  0
SPLINE
  5
194
330
343
100
AcDbEntity
  8
_0
  6
Continuous
 62
     7
370
     0
100
AcDbSpline
210
0.0
220
0.0
230
1.0
 70
     8
 71
     3
 72
    14
 73
    10
 74
     0
 42
0.0000000001
 43
0.00000001
 40
0.0
 40
0.0
 40
0.0
 40
0.0
 40
0.1428571428571428
 40
0.2857142857142857
 40
0.4285714285714285
 40
0.5714285714285714
 40
0.7142857142857142
 40
0.857142857142857
 40
1.0
 40
1.0
 40
1.0
 40
1.0
 10
74.18928125
 20
-41.33147916666667
 30
0.0
 10
74.18551041666666
 20
-41.36236458333333
 30
0.0
 10
74.18945833333333
 20
-41.40045833333333
 30
0.0
 10
74.18288541666666
 20
-41.43460416666667
 30
0.0
 10
74.19865625
 20
-41.48189583333333
 30
0.0
 10
74.18682291666667
 20
-41.52130208333333
 30
0.0
 10
74.19208333333333
 20
-41.59616666666667
 30
0.0
 10
74.19077083333333
 20
-41.65659375
 30
0.0
 10
74.18419791666666
 20
-41.69073958333333
 30
0.0
 10
74.18705208333333
 20
-41.72776041666666
 30
0.0
  0
SPLINE
  5
196
330
343
100
AcDbEntity
  8
_0
  6
Continuous
 62
     7
370
     0
100
AcDbSpline
210
0.0
220
0.0
230
1.0
 70
     8
 71
     3
 72
    14
 73
    10
 74
     0
 42
0.0000000001
 43
0.00000001
 40
0.0
 40
0.0
 40
0.0
 40
0.0
 40
0.1428571428571428
 40
0.2857142857142857
 40
0.4285714285714285
 40
0.5714285714285714
 40
0.7142857142857142
 40
0.857142857142857
 40
1.0
 40
1.0
 40
1.0
 40
1.0
 10
73.29204166666666
 20
-41.33147916666667
 30
0.0
 10
73.28827083333333
 20
-41.36236458333333
 30
0.0
 10
73.29220833333333
 20
-41.40045833333333
 30
0.0
 10
73.28564583333333
 20
-41.43460416666667
 30
0.0
 10
73.30140625
 20
-41.48189583333333
 30
0.0
 10
73.28958333333333
 20
-41.52130208333333
 30
0.0
 10
73.29483333333333
 20
-41.59616666666667
 30
0.0
 10
73.29353125
 20
-41.65659375
 30
0.0
 10
73.28695833333333
 20
-41.69073958333333
 30
0.0
 10
73.28980208333333
 20
-41.72776041666666
 30
0.0
  0
LINE
  5
198
330
343
100
AcDbEntity
  8
_0
  6
DGN Style 2
 62
     7
370
    13
100
AcDbLine
 10
73.798042
 20
-42.207802
 30
0.0
 11
73.798042
 21
-41.72776
 31
0.0
  0
LINE
  5
199
330
343
100
AcDbEntity
  8
_0
  6
DGN Style 2
 62
     7
370
    13
100
AcDbLine
 10
73.673031
 20
-42.207802
 30
0.0
 11
73.673031
 21
-41.72776
 31
0.0
  0
LINE
  5
19A
330
343
100
AcDbEntity
  8
_0
  6
Continuous
 62
     7
370
    13
100
AcDbLine
 10
73.623031
 20
-42.182802
 30
0.0
 11
73.848042
 21
-42.182802
 31
0.0
  0
LINE
  5
19B
330
343
100
AcDbEntity
  8
_0
  6
Continuous
 62
     7
370
    13
100
AcDbLine
 10
73.623031
 20
-42.082792
 30
0.0
 11
73.848042
 21
-42.082792
 31
0.0
  0
LINE
  5
19C
330
343
100
AcDbEntity
  8
_0
  6
Continuous
 62
     7
370
    13
100
AcDbLine
 10
73.623031
 20
-42.057792
 30
0.0
 11
73.848042
 21
-42.057792
 31
0.0
  0
LINE
  5
19D
330
343
100
AcDbEntity
  8
_0
  6
Continuous
 62
     7
370
    13
100
AcDbLine
 10
73.623031
 20
-41.93174
 30
0.0
 11
73.848042
 21
-41.93174
 31
0.0
  0
LINE
  5
19E
330
343
100
AcDbEntity
  8
_0
  6
Continuous
 62
     7
370
    13
100
AcDbLine
 10
73.623031
 20
-41.90674
 30
0.0
 11
73.848042
 21
-41.90674
 31
0.0
  0
LWPOLYLINE
  5
19F
330
343
100
AcDbEntity
  8
_0
  6
DGN Style 2
 62
     7
370
     0
100
AcDbPolyline
 90
       17
 70
   128
 43
0.0
 10
73.735536
 20
-42.025
 42
0.030203
 10
73.781524
 20
-42.022219
 42
0.041086
 10
73.814723
 20
-42.015389
 42
0.082847
 10
73.842455
 20
-42.001982
 42
0.243429
 10
73.847524
 20
-41.992187
 42
0.243429
 10
73.842455
 20
-41.982392
 42
0.082847
 10
73.814723
 20
-41.968985
 42
0.041086
 10
73.781524
 20
-41.962155
 42
0.030203
 10
73.735536
 20
-41.959374
 42
0.030203
 10
73.689549
 20
-41.962155
 42
0.041086
 10
73.656349
 20
-41.968985
 42
0.082847
 10
73.628618
 20
-41.982392
 42
0.243429
 10
73.623549
 20
-41.992187
 42
0.243429
 10
73.628618
 20
-42.001982
 42
0.082847
 10
73.656349
 20
-42.015389
 42
0.041086
 10
73.689549
 20
-42.022219
 42
0.030203
 10
73.735536
 20
-42.025
  0
LWPOLYLINE
  5
1B0
330
343
100
AcDbEntity
  8
_0
  6
DGN Style 2
 62
     7
370
     0
100
AcDbPolyline
 90
       17
 70
   128
 43
0.0
 10
73.735536
 20
-41.852929
 42
0.030203
 10
73.781524
 20
-41.850148
 42
0.041086
 10
73.814723
 20
-41.843318
 42
0.082847
 10
73.842455
 20
-41.82991
 42
0.243429
 10
73.847524
 20
-41.820116
 42
0.243429
 10
73.842455
 20
-41.810321
 42
0.082847
 10
73.814723
 20
-41.796914
 42
0.041086
 10
73.781524
 20
-41.790084
 42
0.030203
 10
73.735536
 20
-41.787303
 42
0.030203
 10
73.689549
 20
-41.790084
 42
0.041086
 10
73.656349
 20
-41.796914
 42
0.082847
 10
73.628618
 20
-41.810321
 42
0.243429
 10
73.623549
 20
-41.820116
 42
0.243429
 10
73.628618
 20
-41.82991
 42
0.082847
 10
73.656349
 20
-41.843318
 42
0.041086
 10
73.689549
 20
-41.850148
 42
0.030203
 10
73.735536
 20
-41.852929
  0
LINE
  5
1C1
330
343
100
AcDbEntity
  8
_0
  6
Continuous
 62
     7
370
    13
100
AcDbLine
 10
74.044125
 20
-41.67651
 30
0.0
 11
74.044125
 21
-41.65651
 31
0.0
  0
LINE
  5
1C2
330
343
100
AcDbEntity
  8
_0
  6
Continuous
 62
     7
370
    13
100
AcDbLine
 10
73.426948
 20
-41.67651
 30
0.0
 11
73.426948
 21
-41.65651
 31
0.0
  0
SOLID
  5
1C3
330
343
100
AcDbEntity
  8
TITLE
  6
Continuous
 62
     7
370
    13
100
AcDbTrace
 10
-73.404677
 20
-41.949646
 30
0.0
 11
-73.414812
 21
-41.962885
 31
0.0
 12
-73.449438
 22
-41.925854
 32
0.0
 13
-73.449438
 23
-41.925854
 33
0.0
210
0.0
220
0.0
230
-1.0
  0
LINE
  5
1C4
330
343
100
AcDbEntity
  8
TITLE
  6
Continuous
 62
     7
370
    13
100
AcDbLine
 10
73.40974
 20
-41.956271
 30
0.0
 11
73.329094
 21
-42.018052
 31
0.0
  0
LINE
  5
1C5
330
343
100
AcDbEntity
  8
TITLE
  6
Continuous
 62
     7
370
    13
100
AcDbLine
 10
73.329094
 20
-42.018052
 30
0.0
 11
73.279083
 21
-42.018052
 31
0.0
  0
SOLID
  5
1C7
330
343
100
AcDbEntity
  8
TITLE
  6
Continuous
 62
     7
370
    13
100
AcDbTrace
 10
73.487062
 20
-41.598719
 30
0.0
 11
73.470844
 21
-41.602531
 31
0.0
 12
73.490406
 22
-41.649292
 32
0.0
 13
73.490406
 23
-41.649292
 33
0.0
  0
LINE
  5
1C8
330
343
100
AcDbEntity
  8
TITLE
  6
Continuous
 62
     7
370
    13
100
AcDbLine
 10
73.478958
 20
-41.600625
 30
0.0
 11
73.459677
 21
-41.518698
 31
0.0
  0
LINE
  5
1C9
330
343
100
AcDbEntity
  8
TITLE
  6
Continuous
 62
     7
370
    13
100
AcDbLine
 10
73.459677
 20
-41.518698
 30
0.0
 11
73.480156
 21
-41.518698
 31
0.0
  0
SOLID
  5
1CB
330
343
100
AcDbEntity
  8
TITLE
  6
Continuous
 62
     7
370
    13
100
AcDbTrace
 10
-74.081906
 20
-41.776677
 30
0.0
 11
-74.093323
 21
-41.764531
 31
0.0
 12
-74.051177
 22
-41.736365
 32
0.0
 13
-74.051177
 23
-41.736365
 33
0.0
210
0.0
220
0.0
230
-1.0
  0
LINE
  5
1CC
330
343
100
AcDbEntity
  8
TITLE
  6
Continuous
 62
     7
370
    13
100
AcDbLine
 10
74.087615
 20
-41.770594
 30
0.0
 11
74.220177
 21
-41.895135
 31
0.0
  0
LINE
  5
1CD
330
343
100
AcDbEntity
  8
TITLE
  6
Continuous
 62
     7
370
    13
100
AcDbLine
 10
74.220177
 20
-41.895135
 30
0.0
 11
74.270177
 21
-41.895135
 31
0.0
  0
SOLID
  5
1CF
330
343
100
AcDbEntity
  8
TITLE
  6
Continuous
 62
     7
370
    13
100
AcDbTrace
 10
-74.177521
 20
-41.637406
 30
0.0
 11
-74.164208
 21
-41.627375
 31
0.0
 12
-74.140792
 22
-41.672344
 32
0.0
 13
-74.140792
 23
-41.672344
 33
0.0
210
0.0
220
0.0
230
-1.0
  0
LINE
  5
1D0
330
343
100
AcDbEntity
  8
TITLE
  6
Continuous
 62
     7
370
    13
100
AcDbLine
 10
74.170865
 20
-41.632396
 30
0.0
 11
74.312354
 21
-41.444437
 31
0.0
  0
LINE
  5
1D1
330
343
100
AcDbEntity
  8
TITLE
  6
Continuous
 62
     7
370
    13
100
AcDbLine
 10
74.312354
 20
-41.444437
 30
0.0
 11
74.362354
 21
-41.444437
 31
0.0
  0
SOLID
  5
1D4
330
343
100
AcDbEntity
  8
TITLE
  6
Continuous
 62
     7
370
    13
100
AcDbTrace
 10
-73.903948
 20
-42.152833
 30
0.0
 11
-73.910896
 21
-42.137687
 31
0.0
 12
-73.861958
 22
-42.124427
 32
0.0
 13
-73.861958
 23
-42.124427
 33
0.0
210
0.0
220
0.0
230
-1.0
  0
LINE
  5
1D5
330
343
100
AcDbEntity
  8
TITLE
  6
Continuous
 62
     7
370
    13
100
AcDbLine
 10
73.907417
 20
-42.14526
 30
0.0
 11
74.046323
 21
-42.208927
 31
0.0
  0
LINE
  5
1D6
330
343
100
AcDbEntity
  8
TITLE
  6
Continuous
 62
     7
370
    13
100
AcDbLine
 10
74.046323
 20
-42.208927
 30
0.0
 11
74.096333
 21
-42.208927
 31
0.0
  0
SPLINE
  5
1E3
330
343
100
AcDbEntity
  8
_0
  6
Continuous
 62
     7
370
     0
100
AcDbSpline
210
0.0
220
0.0
230
1.0
 70
     8
 71
     3
 72
     9
 73
     5
 74
     0
 42
0.0000000001
 43
0.00000001
 40
0.0
 40
0.0
 40
0.0
 40
0.0
 40
0.5
 40
1.0
 40
1.0
 40
1.0
 40
1.0
 10
69.04766666666666
 20
-40.95770833333333
 30
0.0
 10
73.04797916666666
 20
-40.98270833333333
 30
0.0
 10
73.94761458333333
 20
-41.11291666666666
 30
0.0
 10
74.96482291666666
 20
-41.22958333333333
 30
0.0
 10
75.87320833333334
 20
-41.30772916666667
 30
0.0
  0
SOLID
  5
1FB
330
343
100
AcDbEntity
  8
TITLE
  6
Continuous
 62
     7
370
    13
100
AcDbTrace
 10
-74.211917
 20
-41.178021
 30
0.0
 11
-74.220927
 21
-41.192042
 31
0.0
 12
-74.258479
 22
-41.15799
 32
0.0
 13
-74.258479
 23
-41.15799
 33
0.0
210
0.0
220
0.0
230
-1.0
  0
LINE
  5
1FC
330
343
100
AcDbEntity
  8
TITLE
  6
Continuous
 62
     7
370
    13
100
AcDbLine
 10
74.216417
 20
-41.185031
 30
0.0
 11
74.143615
 21
-41.231833
 31
0.0
  0
LINE
  5
1FD
330
343
100
AcDbEntity
  8
TITLE
  6
Continuous
 62
     7
370
    13
100
AcDbLine
 10
74.143615
 20
-41.231833
 30
0.0
 11
74.093604
 21
-41.231833
 31
0.0
  0
SOLID
  5
1FF
330
343
100
AcDbEntity
  8
TITLE
  6
Continuous
 62
     7
370
    13
100
AcDbTrace
 10
-72.201
 20
-41.044979
 30
0.0
 11
-72.209479
 21
-41.059323
 31
0.0
 12
-72.248292
 22
-41.026719
 32
0.0
 13
-72.248292
 23
-41.026719
 33
0.0
210
0.0
220
0.0
230
-1.0
  0
LINE
  5
200
330
343
100
AcDbEntity
  8
TITLE
  6
Continuous
 62
     7
370
    13
100
AcDbLine
 10
72.20524
 20
-41.052156
 30
0.0
 11
72.067781
 21
-41.133375
 31
0.0
  0
LINE
  5
201
330
343
100
AcDbEntity
  8
TITLE
  6
Continuous
 62
     7
370
    13
100
AcDbLine
 10
72.067781
 20
-41.133375
 30
0.0
 11
72.017781
 21
-41.133375
 31
0.0
  0
LINE
  5
203
330
343
100
AcDbEntity
  8
_0
  6
Continuous
 62
     7
370
    13
100
AcDbLine
 10
69.497698
 20
-40.877698
 30
0.0
 11
69.047667
 21
-40.877698
 31
0.0
  0
LINE
  5
204
330
343
100
AcDbEntity
  8
_0
  6
Continuous
 62
     7
370
    13
100
AcDbLine
 10
70.14775
 20
-40.832698
 30
0.0
 11
69.047667
 21
-40.832698
 31
0.0
  0
LINE
  5
205
330
343
100
AcDbEntity
  8
_0
  6
Continuous
 62
     7
370
    13
100
AcDbLine
 10
71.272844
 20
-40.883823
 30
0.0
 11
75.598187
 21
-40.883823
 31
0.0
  0
LWPOLYLINE
  5
206
330
343
100
AcDbEntity
  8
_0
  6
Continuous
 62
     7
370
     0
100
AcDbPolyline
 90
        9
 70
   128
 43
0.0
 10
75.598187
 20
-40.775583
 10
73.982094
 20
-40.792583
 10
72.553021
 20
-40.808083
 10
71.511292
 20
-40.820417
 10
70.782177
 20
-40.830823
 10
70.290969
 20
-40.840521
 10
69.962969
 20
-40.85074
 10
69.723448
 20
-40.862729
 10
69.497698
 20
-40.877698
  0
LWPOLYLINE
  5
207
330
343
100
AcDbEntity
  8
_0
  6
Continuous
 62
     7
370
     0
100
AcDbPolyline
 90
        9
 70
   128
 43
0.0
 10
75.598187
 20
-40.835594
 10
73.982729
 20
-40.852583
 10
72.553698
 20
-40.868083
 10
71.512073
 20
-40.880417
 10
70.783198
 20
-40.890812
 10
70.2925
 20
-40.9005
 10
69.965406
 20
-40.910698
 10
69.726927
 20
-40.922625
 10
69.501667
 20
-40.937573
  0
LINE
  5
208
330
343
100
AcDbEntity
  8
_0
  6
Continuous
 62
     7
370
    13
100
AcDbLine
 10
75.598187
 20
-40.835594
 30
0.0
 11
75.874146
 21
-40.843229
 31
0.0
  0
LINE
  5
209
330
343
100
AcDbEntity
  8
_0
  6
Continuous
 62
     7
370
    13
100
AcDbLine
 10
75.598187
 20
-40.883823
 30
0.0
 11
75.874146
 21
-40.891479
 31
0.0
  0
LWPOLYLINE
  5
20A
330
343
100
AcDbEntity
  8
_0
  6
Continuous
 62
     7
370
     0
100
AcDbPolyline
 90
        5
 70
   128
 43
0.0
 10
75.463802
 20
-40.87601
 10
75.463802
 20
-40.776
 10
75.503812
 20
-40.776
 10
75.503812
 20
-40.87601
 10
75.463802
 20
-40.87601
  0
LWPOLYLINE
  5
20B
330
343
100
AcDbEntity
  8
_0
  6
Continuous
 62
     7
370
     0
100
AcDbPolyline
 90
        5
 70
   128
 43
0.0
 10
75.213781
 20
-40.87875
 10
75.213781
 20
-40.77874
 10
75.253792
 20
-40.77874
 10
75.253792
 20
-40.87875
 10
75.213781
 20
-40.87875
  0
LWPOLYLINE
  5
20C
330
343
100
AcDbEntity
  8
_0
  6
Continuous
 62
     7
370
     0
100
AcDbPolyline
 90
        5
 70
   128
 43
0.0
 10
74.96376
 20
-40.8815
 10
74.96376
 20
-40.78149
 10
75.003771
 20
-40.78149
 10
75.003771
 20
-40.8815
 10
74.96376
 20
-40.8815
  0
LWPOLYLINE
  5
20D
330
343
100
AcDbEntity
  8
_0
  6
Continuous
 62
     7
370
     0
100
AcDbPolyline
 90
        5
 70
   128
 43
0.0
 10
74.71374
 20
-40.88424
 10
74.71374
 20
-40.784229
 10
74.75375
 20
-40.784229
 10
74.75375
 20
-40.88424
 10
74.71374
 20
-40.88424
  0
LWPOLYLINE
  5
20E
330
343
100
AcDbEntity
  8
_0
  6
Continuous
 62
     7
370
     0
100
AcDbPolyline
 90
        5
 70
   128
 43
0.0
 10
74.463729
 20
-40.886979
 10
74.463729
 20
-40.786979
 10
74.503729
 20
-40.786979
 10
74.503729
 20
-40.886979
 10
74.463729
 20
-40.886979
  0
LWPOLYLINE
  5
20F
330
343
100
AcDbEntity
  8
_0
  6
Continuous
 62
     7
370
     0
100
AcDbPolyline
 90
        5
 70
   128
 43
0.0
 10
74.213708
 20
-40.889729
 10
74.213708
 20
-40.789719
 10
74.253708
 20
-40.789719
 10
74.253708
 20
-40.889729
 10
74.213708
 20
-40.889729
  0
LWPOLYLINE
  5
210
330
343
100
AcDbEntity
  8
_0
  6
Continuous
 62
     7
370
     0
100
AcDbPolyline
 90
        5
 70
   128
 43
0.0
 10
73.963687
 20
-40.892469
 10
73.963687
 20
-40.792458
 10
74.003687
 20
-40.792458
 10
74.003687
 20
-40.892469
 10
73.963687
 20
-40.892469
  0
LWPOLYLINE
  5
211
330
343
100
AcDbEntity
  8
_0
  6
Continuous
 62
     7
370
     0
100
AcDbPolyline
 90
        5
 70
   128
 43
0.0
 10
73.713667
 20
-40.895208
 10
73.713667
 20
-40.795208
 10
73.753667
 20
-40.795208
 10
73.753667
 20
-40.895208
 10
73.713667
 20
-40.895208
  0
LWPOLYLINE
  5
212
330
343
100
AcDbEntity
  8
_0
  6
Continuous
 62
     7
370
     0
100
AcDbPolyline
 90
        5
 70
   128
 43
0.0
 10
73.463646
 20
-40.897958
 10
73.463646
 20
-40.797948
 10
73.503646
 20
-40.797948
 10
73.503646
 20
-40.897958
 10
73.463646
 20
-40.897958
  0
LWPOLYLINE
  5
213
330
343
100
AcDbEntity
  8
_0
  6
Continuous
 62
     7
370
     0
100
AcDbPolyline
 90
        5
 70
   128
 43
0.0
 10
73.213625
 20
-40.900698
 10
73.213625
 20
-40.800687
 10
73.253625
 20
-40.800687
 10
73.253625
 20
-40.900698
 10
73.213625
 20
-40.900698
  0
LWPOLYLINE
  5
214
330
343
100
AcDbEntity
  8
_0
  6
Continuous
 62
     7
370
     0
100
AcDbPolyline
 90
        5
 70
   128
 43
0.0
 10
72.963604
 20
-40.903437
 10
72.963604
 20
-40.803438
 10
73.003604
 20
-40.803438
 10
73.003604
 20
-40.903437
 10
72.963604
 20
-40.903437
  0
LWPOLYLINE
  5
215
330
343
100
AcDbEntity
  8
_0
  6
Continuous
 62
     7
370
     0
100
AcDbPolyline
 90
        5
 70
   128
 43
0.0
 10
72.713583
 20
-40.906188
 10
72.713583
 20
-40.806177
 10
72.753583
 20
-40.806177
 10
72.753583
 20
-40.906188
 10
72.713583
 20
-40.906188
  0
LWPOLYLINE
  5
216
330
343
100
AcDbEntity
  8
_0
  6
Continuous
 62
     7
370
     0
100
AcDbPolyline
 90
        5
 70
   128
 43
0.0
 10
72.463562
 20
-40.908927
 10
72.463562
 20
-40.808917
 10
72.503563
 20
-40.808917
 10
72.503563
 20
-40.908927
 10
72.463562
 20
-40.908927
  0
LWPOLYLINE
  5
217
330
343
100
AcDbEntity
  8
_0
  6
Continuous
 62
     7
370
     0
100
AcDbPolyline
 90
        5
 70
   128
 43
0.0
 10
72.213542
 20
-40.913042
 10
72.213542
 20
-40.813031
 10
72.253552
 20
-40.813031
 10
72.253552
 20
-40.913042
 10
72.213542
 20
-40.913042
  0
LWPOLYLINE
  5
218
330
343
100
AcDbEntity
  8
_0
  6
Continuous
 62
     7
370
     0
100
AcDbPolyline
 90
        5
 70
   128
 43
0.0
 10
71.963521
 20
-40.914417
 10
71.963521
 20
-40.814406
 10
72.003531
 20
-40.814406
 10
72.003531
 20
-40.914417
 10
71.963521
 20
-40.914417
  0
LWPOLYLINE
  5
219
330
343
100
AcDbEntity
  8
_0
  6
Continuous
 62
     7
370
     0
100
AcDbPolyline
 90
        5
 70
   128
 43
0.0
 10
71.7135
 20
-40.917156
 10
71.7135
 20
-40.817146
 10
71.75351
 20
-40.817146
 10
71.75351
 20
-40.917156
 10
71.7135
 20
-40.917156
  0
LWPOLYLINE
  5
21A
330
343
100
AcDbEntity
  8
_0
  6
Continuous
 62
     7
370
     0
100
AcDbPolyline
 90
        5
 70
   128
 43
0.0
 10
71.46349
 20
-40.919906
 10
71.46349
 20
-40.819896
 10
71.50349
 20
-40.819896
 10
71.50349
 20
-40.919906
 10
71.46349
 20
-40.919906
  0
LWPOLYLINE
  5
21B
330
343
100
AcDbEntity
  8
_0
  6
Continuous
 62
     7
370
     0
100
AcDbPolyline
 90
        5
 70
   128
 43
0.0
 10
71.213469
 20
-40.924021
 10
71.213469
 20
-40.82401
 10
71.253469
 20
-40.82401
 10
71.253469
 20
-40.924021
 10
71.213469
 20
-40.924021
  0
LWPOLYLINE
  5
21C
330
343
100
AcDbEntity
  8
_0
  6
Continuous
 62
     7
370
     0
100
AcDbPolyline
 90
        5
 70
   128
 43
0.0
 10
70.963448
 20
-40.928135
 10
70.963448
 20
-40.828125
 10
71.003448
 20
-40.828125
 10
71.003448
 20
-40.928135
 10
70.963448
 20
-40.928135
  0
LWPOLYLINE
  5
21D
330
343
100
AcDbEntity
  8
_0
  6
Continuous
 62
     7
370
     0
100
AcDbPolyline
 90
        5
 70
   128
 43
0.0
 10
70.713427
 20
-40.930875
 10
70.713427
 20
-40.830865
 10
70.753427
 20
-40.830865
 10
70.753427
 20
-40.930875
 10
70.713427
 20
-40.930875
  0
LWPOLYLINE
  5
21E
330
343
100
AcDbEntity
  8
_0
  6
Continuous
 62
     7
370
     0
100
AcDbPolyline
 90
        5
 70
   128
 43
0.0
 10
70.463406
 20
-40.936365
 10
70.463406
 20
-40.836354
 10
70.503406
 20
-40.836354
 10
70.503406
 20
-40.936365
 10
70.463406
 20
-40.936365
  0
LWPOLYLINE
  5
21F
330
343
100
AcDbEntity
  8
_0
  6
Continuous
 62
     7
370
     0
100
AcDbPolyline
 90
        5
 70
   128
 43
0.0
 10
69.963365
 20
-40.948708
 10
69.963365
 20
-40.848698
 10
70.003365
 20
-40.848698
 10
70.003365
 20
-40.948708
 10
69.963365
 20
-40.948708
  0
LWPOLYLINE
  5
220
330
343
100
AcDbEntity
  8
_0
  6
Continuous
 62
     7
370
     0
100
AcDbPolyline
 90
        5
 70
   128
 43
0.0
 10
69.713344
 20
-40.963187
 10
69.713344
 20
-40.863177
 10
69.753344
 20
-40.863177
 10
69.753344
 20
-40.963187
 10
69.713344
 20
-40.963187
  0
LINE
  5
221
330
343
100
AcDbEntity
  8
_0
  6
Continuous
 62
     7
370
    13
100
AcDbLine
 10
68.837875
 20
-38.50751
 30
0.0
 11
75.573188
 21
-38.50751
 31
0.0
  0
LINE
  5
222
330
343
100
AcDbEntity
  8
_0
  6
Continuous
 62
     7
370
    13
100
AcDbLine
 10
69.983385
 20
-39.007552
 30
0.0
 11
75.573188
 21
-39.007552
 31
0.0
  0
LINE
  5
223
330
343
100
AcDbEntity
  8
_0
  6
Continuous
 62
     7
370
    13
100
AcDbLine
 10
68.83849
 20
-39.132562
 30
0.0
 11
75.579875
 21
-39.132562
 31
0.0
  0
LINE
  5
224
330
343
100
AcDbEntity
  8
_0
  6
Continuous
 62
     7
370
    13
100
AcDbLine
 10
69.347687
 20
-39.582594
 30
0.0
 11
72.27751
 21
-39.582594
 31
0.0
  0
LINE
  5
225
330
343
100
AcDbEntity
  8
_0
  6
Continuous
 62
     7
370
    13
100
AcDbLine
 10
69.347687
 20
-39.551344
 30
0.0
 11
72.27751
 21
-39.551344
 31
0.0
  0
LINE
  5
226
330
343
100
AcDbEntity
  8
_0
  6
Continuous
 62
     7
370
    13
100
AcDbLine
 10
69.347687
 20
-39.520094
 30
0.0
 11
72.27751
 21
-39.520094
 31
0.0
  0
LWPOLYLINE
  5
227
330
343
100
AcDbEntity
  8
_0
  6
Continuous
 62
     7
370
     0
100
AcDbPolyline
 90
        2
 70
   128
 43
0.0
 10
74.474635
 20
-39.007552
 10
75.573188
 20
-39.007552
  0
LWPOLYLINE
  5
228
330
343
100
AcDbEntity
  8
_0
  6
Continuous
 62
     7
370
     0
100
AcDbPolyline
 90
        2
 70
   128
 43
0.0
 10
74.474635
 20
-39.007552
 10
74.523104
 20
-39.007552
  0
ARC
  5
229
330
343
100
AcDbEntity
  8
_0
  6
Continuous
 62
     7
370
    13
100
AcDbCircle
 10
72.277511
 20
-40.832695
 30
0.0
 40
1.2501
100
AcDbArc
 50
70.0
 51
90.0
  0
ARC
  5
22A
330
343
100
AcDbEntity
  8
_0
  6
Continuous
 62
     7
370
    13
100
AcDbCircle
 10
72.277511
 20
-40.801442
 30
0.0
 40
1.2501
100
AcDbArc
 50
70.0
 51
90.0
  0
ARC
  5
22B
330
343
100
AcDbEntity
  8
_0
  6
Continuous
 62
     7
370
    13
100
AcDbCircle
 10
72.277511
 20
-40.77019
 30
0.0
 40
1.2501
100
AcDbArc
 50
70.0
 51
90.0
  0
SPLINE
  5
22C
330
343
100
AcDbEntity
  8
_0
  6
Continuous
 62
     7
370
     0
100
AcDbSpline
210
0.0
220
0.0
230
1.0
 70
     8
 71
     3
 72
    18
 73
    14
 74
     0
 42
0.0000000001
 43
0.00000001
 40
0.0
 40
0.0
 40
0.0
 40
0.0
 40
0.0909090909090909
 40
0.1818181818181818
 40
0.2727272727272727
 40
0.3636363636363636
 40
0.4545454545454546
 40
0.5454545454545455
 40
0.6363636363636365
 40
0.7272727272727274
 40
0.8181818181818183
 40
0.9090909090909093
 40
1.0
 40
1.0
 40
1.0
 40
1.0
 10
72.27751041666666
 20
-39.52009375
 30
0.0
 10
72.83275
 20
-39.53822916666667
 30
0.0
 10
73.26151041666667
 20
-39.55933333333333
 30
0.0
 10
73.56717708333333
 20
-39.58165625
 30
0.0
 10
73.7916875
 20
-39.6046875
 30
0.0
 10
73.97701041666666
 20
-39.62790625
 30
0.0
 10
74.1588125
 20
-39.6509375
 30
0.0
 10
74.34770833333333
 20
-39.67392708333333
 30
0.0
 10
74.54805208333333
 20
-39.69713541666667
 30
0.0
 10
74.76416666666667
 20
-39.72084375
 30
0.0
 10
75.00039583333333
 20
-39.74533333333333
 30
0.0
 10
75.15461458333333
 20
-39.77084375
 30
0.0
 10
75.37448958333333
 20
-39.7976875
 30
0.0
 10
75.57836458333333
 20
-39.82610416666667
 30
0.0
  0
SOLID
  5
22E
330
343
100
AcDbEntity
  8
TITLE
  6
Continuous
 62
     7
370
    13
100
AcDbTrace
 10
-75.600979
 20
-40.920906
 30
0.0
 11
-75.607354
 21
-40.936312
 31
0.0
 12
-75.650375
 22
-40.90949
 32
0.0
 13
-75.650375
 23
-40.90949
 33
0.0
210
0.0
220
0.0
230
-1.0
  0
LINE
  5
22F
330
343
100
AcDbEntity
  8
TITLE
  6
Continuous
 62
     7
370
    13
100
AcDbLine
 10
75.604167
 20
-40.928604
 30
0.0
 11
75.426656
 21
-41.002052
 31
0.0
  0
LINE
  5
230
330
343
100
AcDbEntity
  8
TITLE
  6
Continuous
 62
     7
370
    13
100
AcDbLine
 10
75.426656
 20
-41.002052
 30
0.0
 11
75.376656
 21
-41.002052
 31
0.0
  0
SOLID
  5
232
330
343
100
AcDbEntity
  8
TITLE
  6
Continuous
 62
     7
370
    13
100
AcDbTrace
 10
75.811948
 20
-40.800167
 30
0.0
 11
75.800698
 21
-40.812479
 31
0.0
 12
75.843229
 22
-40.840063
 32
0.0
 13
75.843229
 23
-40.840063
 33
0.0
  0
LINE
  5
233
330
343
100
AcDbEntity
  8
TITLE
  6
Continuous
 62
     7
370
    13
100
AcDbLine
 10
75.806323
 20
-40.806323
 30
0.0
 11
75.573229
 21
-40.593208
 31
0.0
  0
LINE
  5
234
330
343
100
AcDbEntity
  8
TITLE
  6
Continuous
 62
     7
370
    13
100
AcDbLine
 10
75.573229
 20
-40.593208
 30
0.0
 11
75.523229
 21
-40.593208
 31
0.0
  0
LWPOLYLINE
  5
236
330
343
100
AcDbEntity
  8
_0
  6
Continuous
 62
     7
370
     0
100
AcDbPolyline
 90
        2
 70
   128
 43
0.0
 10
74.474635
 20
-39.027552
 10
75.573188
 20
-39.027552
  0
LINE
  5
237
330
343
100
AcDbEntity
  8
_0
  6
Continuous
 62
     7
370
    13
100
AcDbLine
 10
75.46325
 20
-39.05125
 30
0.0
 11
75.50326
 21
-39.05125
 31
0.0
  0
LINE
  5
238
330
343
100
AcDbEntity
  8
_0
  6
Continuous
 62
     7
370
    13
100
AcDbLine
 10
75.48325
 20
-39.077552
 30
0.0
 11
75.48325
 21
-39.027552
 31
0.0
  0
LINE
  5
239
330
343
100
AcDbEntity
  8
_0
  6
Continuous
 62
     7
370
    13
100
AcDbLine
 10
75.46325
 20
-39.077552
 30
0.0
 11
75.50326
 21
-39.077552
 31
0.0
  0
LINE
  5
23A
330
343
100
AcDbEntity
  8
_0
  6
Continuous
 62
     7
370
    13
100
AcDbLine
 10
75.214458
 20
-39.077552
 30
0.0
 11
75.254469
 21
-39.077552
 31
0.0
  0
LINE
  5
23B
330
343
100
AcDbEntity
  8
_0
  6
Continuous
 62
     7
370
    13
100
AcDbLine
 10
75.234458
 20
-39.077552
 30
0.0
 11
75.234458
 21
-39.027552
 31
0.0
  0
LINE
  5
23C
330
343
100
AcDbEntity
  8
_0
  6
Continuous
 62
     7
370
    13
100
AcDbLine
 10
75.214458
 20
-39.05125
 30
0.0
 11
75.254469
 21
-39.05125
 31
0.0
  0
LINE
  5
23D
330
343
100
AcDbEntity
  8
_0
  6
Continuous
 62
     7
370
    13
100
AcDbLine
 10
74.963698
 20
-39.077552
 30
0.0
 11
75.003698
 21
-39.077552
 31
0.0
  0
LINE
  5
23E
330
343
100
AcDbEntity
  8
_0
  6
Continuous
 62
     7
370
    13
100
AcDbLine
 10
74.983698
 20
-39.077552
 30
0.0
 11
74.983698
 21
-39.027552
 31
0.0
  0
LINE
  5
23F
330
343
100
AcDbEntity
  8
_0
  6
Continuous
 62
     7
370
    13
100
AcDbLine
 10
74.963698
 20
-39.05125
 30
0.0
 11
75.003698
 21
-39.05125
 31
0.0
  0
LINE
  5
240
330
343
100
AcDbEntity
  8
_0
  6
Continuous
 62
     7
370
    13
100
AcDbLine
 10
74.714906
 20
-39.077552
 30
0.0
 11
74.754906
 21
-39.077552
 31
0.0
  0
LINE
  5
241
330
343
100
AcDbEntity
  8
_0
  6
Continuous
 62
     7
370
    13
100
AcDbLine
 10
74.734906
 20
-39.077552
 30
0.0
 11
74.734906
 21
-39.027552
 31
0.0
  0
LINE
  5
242
330
343
100
AcDbEntity
  8
_0
  6
Continuous
 62
     7
370
    13
100
AcDbLine
 10
74.714906
 20
-39.05125
 30
0.0
 11
74.754906
 21
-39.05125
 31
0.0
  0
LINE
  5
243
330
343
100
AcDbEntity
  8
_0
  6
Continuous
 62
     7
370
    13
100
AcDbLine
 10
74.460188
 20
-39.077552
 30
0.0
 11
74.500198
 21
-39.077552
 31
0.0
  0
LINE
  5
244
330
343
100
AcDbEntity
  8
_0
  6
Continuous
 62
     7
370
    13
100
AcDbLine
 10
74.480198
 20
-39.077552
 30
0.0
 11
74.480198
 21
-39.027552
 31
0.0
  0
LINE
  5
245
330
343
100
AcDbEntity
  8
_0
  6
Continuous
 62
     7
370
    13
100
AcDbLine
 10
74.460188
 20
-39.05125
 30
0.0
 11
74.500198
 21
-39.05125
 31
0.0
  0
LINE
  5
246
330
343
100
AcDbEntity
  8
_0
  6
Continuous
 62
     7
370
    13
100
AcDbLine
 10
74.211396
 20
-39.092552
 30
0.0
 11
74.251406
 21
-39.092552
 31
0.0
  0
LINE
  5
247
330
343
100
AcDbEntity
  8
_0
  6
Continuous
 62
     7
370
    13
100
AcDbLine
 10
74.231406
 20
-39.092552
 30
0.0
 11
74.231406
 21
-39.042542
 31
0.0
  0
LINE
  5
248
330
343
100
AcDbEntity
  8
_0
  6
Continuous
 62
     7
370
    13
100
AcDbLine
 10
74.211396
 20
-39.06625
 30
0.0
 11
74.251406
 21
-39.06625
 31
0.0
  0
LINE
  5
249
330
343
100
AcDbEntity
  8
_0
  6
Continuous
 62
     7
370
    13
100
AcDbLine
 10
73.962604
 20
-39.108354
 30
0.0
 11
74.002615
 21
-39.108354
 31
0.0
  0
LINE
  5
24A
330
343
100
AcDbEntity
  8
_0
  6
Continuous
 62
     7
370
    13
100
AcDbLine
 10
73.982615
 20
-39.108354
 30
0.0
 11
73.982615
 21
-39.058344
 31
0.0
  0
LINE
  5
24B
330
343
100
AcDbEntity
  8
_0
  6
Continuous
 62
     7
370
    13
100
AcDbLine
 10
73.962604
 20
-39.082042
 30
0.0
 11
74.002615
 21
-39.082042
 31
0.0
  0
LINE
  5
24C
330
343
100
AcDbEntity
  8
_0
  6
Continuous
 62
     7
370
    13
100
AcDbLine
 10
73.713094
 20
-39.122448
 30
0.0
 11
73.753094
 21
-39.122448
 31
0.0
  0
LINE
  5
24D
330
343
100
AcDbEntity
  8
_0
  6
Continuous
 62
     7
370
    13
100
AcDbLine
 10
73.733094
 20
-39.122448
 30
0.0
 11
73.733094
 21
-39.072448
 31
0.0
  0
LINE
  5
24E
330
343
100
AcDbEntity
  8
_0
  6
Continuous
 62
     7
370
    13
100
AcDbLine
 10
73.713094
 20
-39.096146
 30
0.0
 11
73.753094
 21
-39.096146
 31
0.0
  0
LINE
  5
24F
330
343
100
AcDbEntity
  8
_0
  6
Continuous
 62
     7
370
    13
100
AcDbLine
 10
73.464302
 20
-39.140229
 30
0.0
 11
73.504302
 21
-39.140229
 31
0.0
  0
LINE
  5
250
330
343
100
AcDbEntity
  8
_0
  6
Continuous
 62
     7
370
    13
100
AcDbLine
 10
73.484302
 20
-39.140229
 30
0.0
 11
73.484302
 21
-39.090219
 31
0.0
  0
LINE
  5
251
330
343
100
AcDbEntity
  8
_0
  6
Continuous
 62
     7
370
    13
100
AcDbLine
 10
73.464302
 20
-39.113927
 30
0.0
 11
73.504302
 21
-39.113927
 31
0.0
  0
LINE
  5
252
330
343
100
AcDbEntity
  8
_0
  6
Continuous
 62
     7
370
    13
100
AcDbLine
 10
73.211562
 20
-39.167875
 30
0.0
 11
73.251562
 21
-39.167875
 31
0.0
  0
LINE
  5
253
330
343
100
AcDbEntity
  8
_0
  6
Continuous
 62
     7
370
    13
100
AcDbLine
 10
73.231562
 20
-39.167875
 30
0.0
 11
73.231562
 21
-39.117875
 31
0.0
  0
LINE
  5
254
330
343
100
AcDbEntity
  8
_0
  6
Continuous
 62
     7
370
    13
100
AcDbLine
 10
73.211562
 20
-39.141573
 30
0.0
 11
73.251562
 21
-39.141573
 31
0.0
  0
LINE
  5
255
330
343
100
AcDbEntity
  8
_0
  6
Continuous
 62
     7
370
    13
100
AcDbLine
 10
72.96475
 20
-39.191573
 30
0.0
 11
73.00475
 21
-39.191573
 31
0.0
  0
LINE
  5
256
330
343
100
AcDbEntity
  8
_0
  6
Continuous
 62
     7
370
    13
100
AcDbLine
 10
72.98475
 20
-39.191573
 30
0.0
 11
72.98475
 21
-39.141573
 31
0.0
  0
LINE
  5
257
330
343
100
AcDbEntity
  8
_0
  6
Continuous
 62
     7
370
    13
100
AcDbLine
 10
72.96475
 20
-39.165271
 30
0.0
 11
73.00475
 21
-39.165271
 31
0.0
  0
LINE
  5
258
330
343
100
AcDbEntity
  8
_0
  6
Continuous
 62
     7
370
    13
100
AcDbLine
 10
72.712
 20
-39.207375
 30
0.0
 11
72.75201
 21
-39.207375
 31
0.0
  0
LINE
  5
259
330
343
100
AcDbEntity
  8
_0
  6
Continuous
 62
     7
370
    13
100
AcDbLine
 10
72.73201
 20
-39.207375
 30
0.0
 11
72.73201
 21
-39.157375
 31
0.0
  0
LINE
  5
25A
330
343
100
AcDbEntity
  8
_0
  6
Continuous
 62
     7
370
    13
100
AcDbLine
 10
72.712
 20
-39.181073
 30
0.0
 11
72.75201
 21
-39.181073
 31
0.0
  0
LINE
  5
25B
330
343
100
AcDbEntity
  8
_0
  6
Continuous
 62
     7
370
    13
100
AcDbLine
 10
72.463208
 20
-39.233052
 30
0.0
 11
72.503219
 21
-39.233052
 31
0.0
  0
LINE
  5
25C
330
343
100
AcDbEntity
  8
_0
  6
Continuous
 62
     7
370
    13
100
AcDbLine
 10
72.483219
 20
-39.233052
 30
0.0
 11
72.483219
 21
-39.183052
 31
0.0
  0
LINE
  5
25D
330
343
100
AcDbEntity
  8
_0
  6
Continuous
 62
     7
370
    13
100
AcDbLine
 10
72.463208
 20
-39.20675
 30
0.0
 11
72.503219
 21
-39.20675
 31
0.0
  0
LINE
  5
25E
330
343
100
AcDbEntity
  8
_0
  6
Continuous
 62
     7
370
    13
100
AcDbLine
 10
72.21199
 20
-39.261677
 30
0.0
 11
72.25199
 21
-39.261677
 31
0.0
  0
LINE
  5
25F
330
343
100
AcDbEntity
  8
_0
  6
Continuous
 62
     7
370
    13
100
AcDbLine
 10
72.23199
 20
-39.261677
 30
0.0
 11
72.23199
 21
-39.211677
 31
0.0
  0
LINE
  5
260
330
343
100
AcDbEntity
  8
_0
  6
Continuous
 62
     7
370
    13
100
AcDbLine
 10
72.21199
 20
-39.235375
 30
0.0
 11
72.25199
 21
-39.235375
 31
0.0
  0
LINE
  5
261
330
343
100
AcDbEntity
  8
_0
  6
Continuous
 62
     7
370
    13
100
AcDbLine
 10
71.963198
 20
-39.287354
 30
0.0
 11
72.003198
 21
-39.287354
 31
0.0
  0
LINE
  5
262
330
343
100
AcDbEntity
  8
_0
  6
Continuous
 62
     7
370
    13
100
AcDbLine
 10
71.983198
 20
-39.287354
 30
0.0
 11
71.983198
 21
-39.237354
 31
0.0
  0
LINE
  5
263
330
343
100
AcDbEntity
  8
_0
  6
Continuous
 62
     7
370
    13
100
AcDbLine
 10
71.963198
 20
-39.261052
 30
0.0
 11
72.003198
 21
-39.261052
 31
0.0
  0
LINE
  5
264
330
343
100
AcDbEntity
  8
_0
  6
Continuous
 62
     7
370
    13
100
AcDbLine
 10
71.714406
 20
-39.318948
 30
0.0
 11
71.754406
 21
-39.318948
 31
0.0
  0
LINE
  5
265
330
343
100
AcDbEntity
  8
_0
  6
Continuous
 62
     7
370
    13
100
AcDbLine
 10
71.734406
 20
-39.318948
 30
0.0
 11
71.734406
 21
-39.268948
 31
0.0
  0
LINE
  5
266
330
343
100
AcDbEntity
  8
_0
  6
Continuous
 62
     7
370
    13
100
AcDbLine
 10
71.714406
 20
-39.292646
 30
0.0
 11
71.754406
 21
-39.292646
 31
0.0
  0
LINE
  5
267
330
343
100
AcDbEntity
  8
_0
  6
Continuous
 62
     7
370
    13
100
AcDbLine
 10
71.461667
 20
-39.352531
 30
0.0
 11
71.501677
 21
-39.352531
 31
0.0
  0
LINE
  5
268
330
343
100
AcDbEntity
  8
_0
  6
Continuous
 62
     7
370
    13
100
AcDbLine
 10
71.481667
 20
-39.352531
 30
0.0
 11
71.481667
 21
-39.302531
 31
0.0
  0
LINE
  5
269
330
343
100
AcDbEntity
  8
_0
  6
Continuous
 62
     7
370
    13
100
AcDbLine
 10
71.461667
 20
-39.326229
 30
0.0
 11
71.501677
 21
-39.326229
 31
0.0
  0
LINE
  5
26A
330
343
100
AcDbEntity
  8
_0
  6
Continuous
 62
     7
370
    13
100
AcDbLine
 10
71.214854
 20
-39.388083
 30
0.0
 11
71.254854
 21
-39.388083
 31
0.0
  0
LINE
  5
26B
330
343
100
AcDbEntity
  8
_0
  6
Continuous
 62
     7
370
    13
100
AcDbLine
 10
71.234854
 20
-39.388083
 30
0.0
 11
71.234854
 21
-39.338073
 31
0.0
  0
LINE
  5
26C
330
343
100
AcDbEntity
  8
_0
  6
Continuous
 62
     7
370
    13
100
AcDbLine
 10
71.214854
 20
-39.361781
 30
0.0
 11
71.254854
 21
-39.361781
 31
0.0
  0
LINE
  5
26D
330
343
100
AcDbEntity
  8
_0
  6
Continuous
 62
     7
370
    13
100
AcDbLine
 10
70.964083
 20
-39.423635
 30
0.0
 11
71.004094
 21
-39.423635
 31
0.0
  0
LINE
  5
26E
330
343
100
AcDbEntity
  8
_0
  6
Continuous
 62
     7
370
    13
100
AcDbLine
 10
70.984083
 20
-39.423635
 30
0.0
 11
70.984083
 21
-39.373625
 31
0.0
  0
LINE
  5
26F
330
343
100
AcDbEntity
  8
_0
  6
Continuous
 62
     7
370
    13
100
AcDbLine
 10
70.964083
 20
-39.397323
 30
0.0
 11
71.004094
 21
-39.397323
 31
0.0
  0
LINE
  5
270
330
343
100
AcDbEntity
  8
_0
  6
Continuous
 62
     7
370
    13
100
AcDbLine
 10
70.714448
 20
-39.458833
 30
0.0
 11
70.754448
 21
-39.458833
 31
0.0
  0
LINE
  5
271
330
343
100
AcDbEntity
  8
_0
  6
Continuous
 62
     7
370
    13
100
AcDbLine
 10
70.734448
 20
-39.458833
 30
0.0
 11
70.734448
 21
-39.408833
 31
0.0
  0
LINE
  5
272
330
343
100
AcDbEntity
  8
_0
  6
Continuous
 62
     7
370
    13
100
AcDbLine
 10
70.714448
 20
-39.432531
 30
0.0
 11
70.754448
 21
-39.432531
 31
0.0
  0
LINE
  5
273
330
343
100
AcDbEntity
  8
_0
  6
Continuous
 62
     7
370
    13
100
AcDbLine
 10
70.463677
 20
-39.50624
 30
0.0
 11
70.503677
 21
-39.50624
 31
0.0
  0
LINE
  5
274
330
343
100
AcDbEntity
  8
_0
  6
Continuous
 62
     7
370
    13
100
AcDbLine
 10
70.483677
 20
-39.50624
 30
0.0
 11
70.483677
 21
-39.456229
 31
0.0
  0
LINE
  5
275
330
343
100
AcDbEntity
  8
_0
  6
Continuous
 62
     7
370
    13
100
AcDbLine
 10
70.463677
 20
-39.479937
 30
0.0
 11
70.503677
 21
-39.479937
 31
0.0
  0
LINE
  5
276
330
343
100
AcDbEntity
  8
_0
  6
Continuous
 62
     7
370
    13
100
AcDbLine
 10
69.964062
 20
-39.605365
 30
0.0
 11
70.004063
 21
-39.605365
 31
0.0
  0
LINE
  5
277
330
343
100
AcDbEntity
  8
_0
  6
Continuous
 62
     7
370
    13
100
AcDbLine
 10
69.984062
 20
-39.605365
 30
0.0
 11
69.984062
 21
-39.555365
 31
0.0
  0
LINE
  5
278
330
343
100
AcDbEntity
  8
_0
  6
Continuous
 62
     7
370
    13
100
AcDbLine
 10
69.964062
 20
-39.579062
 30
0.0
 11
70.004063
 21
-39.579062
 31
0.0
  0
LINE
  5
279
330
343
100
AcDbEntity
  8
_0
  6
Continuous
 62
     7
370
    13
100
AcDbLine
 10
69.713292
 20
-39.666594
 30
0.0
 11
69.753302
 21
-39.666594
 31
0.0
  0
LINE
  5
27A
330
343
100
AcDbEntity
  8
_0
  6
Continuous
 62
     7
370
    13
100
AcDbLine
 10
69.733302
 20
-39.666594
 30
0.0
 11
69.733302
 21
-39.616583
 31
0.0
  0
LINE
  5
27B
330
343
100
AcDbEntity
  8
_0
  6
Continuous
 62
     7
370
    13
100
AcDbLine
 10
69.713292
 20
-39.640281
 30
0.0
 11
69.753302
 21
-39.640281
 31
0.0
  0
LINE
  5
27C
330
343
100
AcDbEntity
  8
LEGEND
  6
Continuous
 62
     7
370
    13
100
AcDbLine
 10
75.234458
 20
-38.977542
 30
0.0
 11
75.234458
 21
-38.833813
 31
0.0
  0
LINE
  5
27D
330
343
100
AcDbEntity
  8
LEGEND
  6
Continuous
 62
     7
370
    13
100
AcDbLine
 10
70.044562
 20
-39.470083
 30
0.0
 11
70.044562
 21
-38.833813
 31
0.0
  0
LINE
  5
27E
330
343
100
AcDbEntity
  8
LEGEND
  6
Continuous
 62
     7
370
    13
100
AcDbLine
 10
75.184458
 20
-38.883812
 30
0.0
 11
70.094562
 21
-38.883812
 31
0.0
  0
SOLID
  5
27F
330
343
100
AcDbEntity
  8
LEGEND
  6
Continuous
 62
     7
370
    13
100
AcDbTrace
 10
75.184458
 20
-38.892146
 30
0.0
 11
75.184458
 21
-38.875479
 31
0.0
 12
75.234458
 22
-38.883812
 32
0.0
 13
75.234458
 23
-38.883812
 33
0.0
  0
SOLID
  5
280
330
343
100
AcDbEntity
  8
LEGEND
  6
Continuous
 62
     7
370
    13
100
AcDbTrace
 10
70.094562
 20
-38.892146
 30
0.0
 11
70.094562
 21
-38.875479
 31
0.0
 12
70.044562
 22
-38.883812
 32
0.0
 13
70.044562
 23
-38.883812
 33
0.0
  0
LINE
  5
281
330
343
100
AcDbEntity
  8
LEGEND
  6
Continuous
 62
     7
370
    13
100
AcDbLine
 10
75.231427
 20
-39.16675
 30
0.0
 11
75.231427
 21
-39.305573
 31
0.0
  0
LINE
  5
282
330
343
100
AcDbEntity
  8
LEGEND
  6
Continuous
 62
     7
370
    13
100
AcDbLine
 10
73.05576
 20
-39.169573
 30
0.0
 11
73.05576
 21
-39.305573
 31
0.0
  0
LINE
  5
283
330
343
100
AcDbEntity
  8
LEGEND
  6
Continuous
 62
     7
370
    13
100
AcDbLine
 10
75.181417
 20
-39.271375
 30
0.0
 11
73.10576
 21
-39.271375
 31
0.0
  0
SOLID
  5
284
330
343
100
AcDbEntity
  8
LEGEND
  6
Continuous
 62
     7
370
    13
100
AcDbTrace
 10
75.181417
 20
-39.279719
 30
0.0
 11
75.181417
 21
-39.263042
 31
0.0
 12
75.231427
 22
-39.271375
 32
0.0
 13
75.231427
 23
-39.271375
 33
0.0
  0
SOLID
  5
285
330
343
100
AcDbEntity
  8
LEGEND
  6
Continuous
 62
     7
370
    13
100
AcDbTrace
 10
73.10576
 20
-39.279719
 30
0.0
 11
73.10576
 21
-39.263042
 31
0.0
 12
73.05576
 22
-39.271375
 32
0.0
 13
73.05576
 23
-39.271375
 33
0.0
  0
LINE
  5
287
330
343
100
AcDbEntity
  8
_0
  6
Continuous
 62
     7
370
    13
100
AcDbLine
 10
70.044562
 20
-39.520094
 30
0.0
 11
72.297917
 21
-39.007552
 31
0.0
  0
LINE
  5
288
330
343
100
AcDbEntity
  8
LEGEND
  6
Continuous
 62
     7
370
    13
100
AcDbLine
 10
70.985177
 20
-39.263604
 30
0.0
 11
70.959021
 21
-39.159646
 31
0.0
  0
SOLID
  5
289
330
343
100
AcDbEntity
  8
LEGEND
  6
Continuous
 62
     7
370
    13
100
AcDbTrace
 10
70.975156
 20
-39.257865
 30
0.0
 11
70.991323
 21
-39.253792
 31
0.0
 12
70.995448
 22
-39.304323
 32
0.0
 13
70.995448
 23
-39.304323
 33
0.0
  0
SOLID
  5
28A
330
343
100
AcDbEntity
  8
LEGEND
  6
Continuous
 62
     7
370
    13
100
AcDbTrace
 10
-70.953854
 20
-39.181083
 30
0.0
 11
-70.970021
 21
-39.177021
 31
0.0
 12
-70.94974
 22
-39.130552
 32
0.0
 13
-70.94974
 23
-39.130552
 33
0.0
210
0.0
220
0.0
230
-1.0
  0
SOLID
  5
28D
330
343
100
AcDbEntity
  8
TITLE
  6
Continuous
 62
     7
370
    13
100
AcDbTrace
 10
-74.189698
 20
-39.68301
 30
0.0
 11
-74.197281
 21
-39.697854
 31
0.0
 12
-74.238021
 22
-39.667687
 32
0.0
 13
-74.238021
 23
-39.667687
 33
0.0
210
0.0
220
0.0
230
-1.0
  0
LINE
  5
28E
330
343
100
AcDbEntity
  8
TITLE
  6
Continuous
 62
     7
370
    13
100
AcDbLine
 10
74.19349
 20
-39.690438
 30
0.0
 11
74.089438
 21
-39.743583
 31
0.0
  0
LINE
  5
28F
330
343
100
AcDbEntity
  8
TITLE
  6
Continuous
 62
     7
370
    13
100
AcDbLine
 10
74.089438
 20
-39.743583
 30
0.0
 11
74.039437
 21
-39.743583
 31
0.0
  0
SOLID
  5
291
330
343
100
AcDbEntity
  8
TITLE
  6
Continuous
 62
     7
370
    13
100
AcDbTrace
 10
-71.730094
 20
-39.613615
 30
0.0
 11
-71.739208
 21
-39.627583
 31
0.0
 12
-71.776531
 22
-39.593281
 32
0.0
 13
-71.776531
 23
-39.593281
 33
0.0
210
0.0
220
0.0
230
-1.0
  0
LINE
  5
292
330
343
100
AcDbEntity
  8
TITLE
  6
Continuous
 62
     7
370
    13
100
AcDbLine
 10
71.734656
 20
-39.620604
 30
0.0
 11
71.631062
 21
-39.688156
 31
0.0
  0
LINE
  5
293
330
343
100
AcDbEntity
  8
TITLE
  6
Continuous
 62
     7
370
    13
100
AcDbLine
 10
71.631062
 20
-39.688156
 30
0.0
 11
71.581063
 21
-39.688156
 31
0.0
  0
SOLID
  5
295
330
343
100
AcDbEntity
  8
TITLE
  6
Continuous
 62
     7
370
    13
100
AcDbTrace
 10
-75.16349
 20
-39.158698
 30
0.0
 11
-75.17176
 21
-39.173167
 31
0.0
 12
-75.211042
 22
-39.141115
 32
0.0
 13
-75.211042
 23
-39.141115
 33
0.0
210
0.0
220
0.0
230
-1.0
  0
LINE
  5
296
330
343
100
AcDbEntity
  8
TITLE
  6
Continuous
 62
     7
370
    13
100
AcDbLine
 10
75.167635
 20
-39.165927
 30
0.0
 11
75.100365
 21
-39.204365
 31
0.0
  0
LINE
  5
297
330
343
100
AcDbEntity
  8
TITLE
  6
Continuous
 62
     7
370
    13
100
AcDbLine
 10
75.100365
 20
-39.204365
 30
0.0
 11
75.050354
 21
-39.204365
 31
0.0
  0
SOLID
  5
299
330
343
100
AcDbEntity
  8
TITLE
  6
Continuous
 62
     7
370
    13
100
AcDbTrace
 10
-75.236146
 20
-38.541812
 30
0.0
 11
-75.244344
 21
-38.556323
 31
0.0
 12
-75.283781
 22
-38.524458
 32
0.0
 13
-75.283781
 23
-38.524458
 33
0.0
210
0.0
220
0.0
230
-1.0
  0
LINE
  5
29A
330
343
100
AcDbEntity
  8
TITLE
  6
Continuous
 62
     7
370
    13
100
AcDbLine
 10
75.24025
 20
-38.549062
 30
0.0
 11
75.138312
 21
-38.606677
 31
0.0
  0
LINE
  5
29B
330
343
100
AcDbEntity
  8
TITLE
  6
Continuous
 62
     7
370
    13
100
AcDbLine
 10
75.138312
 20
-38.606677
 30
0.0
 11
75.088302
 21
-38.606677
 31
0.0
  0
LINE
  5
29F
330
343
100
AcDbEntity
  8
TITLE
  6
Continuous
 62
     7
370
    13
100
AcDbLine
 10
72.746125
 20
-38.319938
 30
0.0
 11
72.746125
 21
-38.394937
 31
0.0
  0
LINE
  5
2A0
330
343
100
AcDbEntity
  8
TITLE
  6
Continuous
 62
     7
370
    13
100
AcDbLine
 10
73.083656
 20
-38.282438
 30
0.0
 11
73.083656
 21
-38.319938
 31
0.0
  0
LINE
  5
2A1
330
343
100
AcDbEntity
  8
TITLE
  6
Continuous
 62
     7
370
    13
100
AcDbLine
 10
72.746125
 20
-38.319938
 30
0.0
 11
73.083656
 21
-38.319938
 31
0.0
  0
LINE
  5
2A2
330
343
100
AcDbEntity
  8
TITLE
  6
Continuous
 62
     7
370
    13
100
AcDbLine
 10
72.746125
 20
-38.394937
 30
0.0
 11
73.083656
 21
-38.394937
 31
0.0
  0
LINE
  5
2A3
330
343
100
AcDbEntity
  8
TITLE
  6
Continuous
 62
     7
370
    13
100
AcDbLine
 10
73.083656
 20
-38.282438
 30
0.0
 11
73.196167
 21
-38.357437
 31
0.0
  0
LINE
  5
2A4
330
343
100
AcDbEntity
  8
TITLE
  6
Continuous
 62
     7
370
    13
100
AcDbLine
 10
73.196167
 20
-38.357437
 30
0.0
 11
73.083656
 21
-38.432448
 31
0.0
  0
LINE
  5
2A5
330
343
100
AcDbEntity
  8
TITLE
  6
Continuous
 62
     7
370
    13
100
AcDbLine
 10
73.083656
 20
-38.394937
 30
0.0
 11
73.083656
 21
-38.432448
 31
0.0
  0
LINE
  5
2A7
330
343
100
AcDbEntity
  8
_0
  6
DGN Style 2
 62
     7
370
    13
100
AcDbLine
 10
69.522698
 20
-39.657604
 30
0.0
 11
69.544594
 21
-39.729698
 31
0.0
  0
LWPOLYLINE
  5
2A8
330
343
100
AcDbEntity
  8
_0
  6
Continuous
 62
     7
370
     0
100
AcDbPolyline
 90
        9
 70
   128
 43
0.0
 10
69.66624
 20
-39.614021
 10
69.78025
 20
-39.579417
 10
70.168677
 20
-39.492229
 10
70.674177
 20
-39.400115
 10
71.282938
 20
-39.307115
 10
71.981167
 20
-39.217302
 10
72.755062
 20
-39.134729
 10
73.590823
 20
-39.063458
 10
74.474635
 20
-39.007552
  0
LWPOLYLINE
  5
2A9
330
343
100
AcDbEntity
  8
_0
  6
Continuous
 62
     7
370
     0
100
AcDbPolyline
 90
        9
 70
   128
 43
0.0
 10
69.672052
 20
-39.633167
 10
69.785354
 20
-39.598771
 10
70.172656
 20
-39.511833
 10
70.677479
 20
-39.419844
 10
71.285719
 20
-39.326927
 10
71.9835
 20
-39.237167
 10
72.756969
 20
-39.154646
 10
73.592302
 20
-39.083406
 10
74.475896
 20
-39.02751
  0
LWPOLYLINE
  5
2AA
330
343
100
AcDbEntity
  8
_0
  6
DGN Style 2
 62
     7
370
     0
100
AcDbPolyline
 90
        2
 70
   128
 43
0.0
 10
69.52851
 20
-39.67674
 10
69.672052
 20
-39.633167
  0
LWPOLYLINE
  5
2AB
330
343
100
AcDbEntity
  8
_0
  6
DGN Style 2
 62
     7
370
     0
100
AcDbPolyline
 90
        2
 70
   128
 43
0.0
 10
69.522698
 20
-39.657604
 10
69.66624
 20
-39.614021
  0
LWPOLYLINE
  5
2AC
330
343
100
AcDbEntity
  8
_0
  6
DGN Style 2
 62
     7
370
     0
100
AcDbPolyline
 90
        3
 70
   128
 43
0.0
 10
69.544594
 20
-39.729698
 10
69.799469
 20
-39.652323
 10
70.110135
 20
-39.582594
  0
LINE
  5
2AD
330
343
100
AcDbEntity
  8
LEGEND
  6
Continuous
 62
     7
370
    13
100
AcDbLine
 10
69.474854
 20
-39.672125
 30
0.0
 11
69.36325
 21
-39.70601
 31
0.0
  0
LINE
  5
2AE
330
343
100
AcDbEntity
  8
LEGEND
  6
Continuous
 62
     7
370
    13
100
AcDbLine
 10
69.49674
 20
-39.744229
 30
0.0
 11
69.385135
 21
-39.778104
 31
0.0
  0
LINE
  5
2AF
330
343
100
AcDbEntity
  8
LEGEND
  6
Continuous
 62
     7
370
    13
100
AcDbLine
 10
69.44751
 20
-39.811427
 30
0.0
 11
69.462031
 21
-39.859281
 31
0.0
  0
LINE
  5
2B0
330
343
100
AcDbEntity
  8
LEGEND
  6
Continuous
 62
     7
370
    13
100
AcDbLine
 10
69.396573
 20
-39.643635
 30
0.0
 11
69.382042
 21
-39.595781
 31
0.0
  0
SOLID
  5
2B1
330
343
100
AcDbEntity
  8
LEGEND
  6
Continuous
 62
     7
370
    13
100
AcDbTrace
 10
-69.439542
 20
-39.813854
 30
0.0
 11
-69.45549
 21
-39.80901
 31
0.0
 12
-69.432979
 22
-39.763583
 32
0.0
 13
-69.432979
 23
-39.763583
 33
0.0
210
0.0
220
0.0
230
-1.0
  0
SOLID
  5
2B2
330
343
100
AcDbEntity
  8
LEGEND
  6
Continuous
 62
     7
370
    13
100
AcDbTrace
 10
69.388594
 20
-39.646052
 30
0.0
 11
69.404552
 21
-39.641208
 31
0.0
 12
69.411094
 22
-39.691479
 32
0.0
 13
69.411094
 23
-39.691479
 33
0.0
  0
SOLID
  5
2BA
330
343
100
AcDbEntity
  8
TITLE
  6
Continuous
 62
     7
370
    13
100
AcDbTrace
 10
69.485083
 20
-39.604844
 30
0.0
 11
69.474302
 21
-39.617562
 31
0.0
 12
69.517823
 22
-39.643563
 32
0.0
 13
69.517823
 23
-39.643563
 33
0.0
  0
LINE
  5
2BB
330
343
100
AcDbEntity
  8
TITLE
  6
Continuous
 62
     7
370
    13
100
AcDbLine
 10
69.479698
 20
-39.611198
 30
0.0
 11
69.271812
 21
-39.434781
 31
0.0
  0
LINE
  5
2BC
330
343
100
AcDbEntity
  8
TITLE
  6
Continuous
 62
     7
370
    13
100
AcDbLine
 10
69.271812
 20
-39.434781
 30
0.0
 11
69.221812
 21
-39.434781
 31
0.0
  0
SOLID
  5
2C9
330
343
100
AcDbEntity
  8
TITLE
  6
Continuous
 62
     7
370
    13
100
AcDbTrace
 10
-70.294958
 20
-39.606281
 30
0.0
 11
-70.308135
 21
-39.596094
 31
0.0
 12
-70.270979
 22
-39.561625
 32
0.0
 13
-70.270979
 23
-39.561625
 33
0.0
210
0.0
220
0.0
230
-1.0
  0
LINE
  5
2CA
330
343
100
AcDbEntity
  8
TITLE
  6
Continuous
 62
     7
370
    13
100
AcDbLine
 10
70.301542
 20
-39.601188
 30
0.0
 11
70.815333
 21
-40.266229
 31
0.0
  0
LINE
  5
2CB
330
343
100
AcDbEntity
  8
TITLE
  6
Continuous
 62
     7
370
    13
100
AcDbLine
 10
70.815333
 20
-40.266229
 30
0.0
 11
70.865344
 21
-40.266229
 31
0.0
  0
SOLID
  5
2CC
330
343
100
AcDbEntity
  8
TITLE
  6
Continuous
 62
     7
370
    13
100
AcDbTrace
 10
-70.350792
 20
-40.801073
 30
0.0
 11
-70.338333
 21
-40.79
 31
0.0
 12
-70.311333
 22
-40.832896
 32
0.0
 13
-70.311333
 23
-40.832896
 33
0.0
210
0.0
220
0.0
230
-1.0
  0
LINE
  5
2CD
330
343
100
AcDbEntity
  8
TITLE
  6
Continuous
 62
     7
370
    13
100
AcDbLine
 10
70.344562
 20
-40.795542
 30
0.0
 11
70.815333
 21
-40.266229
 31
0.0
  0
SOLID
  5
2D4
330
343
100
AcDbEntity
  8
TITLE
  6
Continuous
 62
     7
370
    13
100
AcDbTrace
 10
-70.170687
 20
-39.548844
 30
0.0
 11
-70.186
 21
-39.542281
 31
0.0
 12
-70.158646
 22
-39.499604
 32
0.0
 13
-70.158646
 23
-39.499604
 33
0.0
210
0.0
220
0.0
230
-1.0
  0
LINE
  5
2D5
330
343
100
AcDbEntity
  8
TITLE
  6
Continuous
 62
     7
370
    13
100
AcDbLine
 10
70.178344
 20
-39.545562
 30
0.0
 11
70.382354
 21
-40.021531
 31
0.0
  0
LINE
  5
2D6
330
343
100
AcDbEntity
  8
TITLE
  6
Continuous
 62
     7
370
    13
100
AcDbLine
 10
70.382354
 20
-40.021531
 30
0.0
 11
70.292875
 21
-40.021531
 31
0.0
  0
TEXT
  5
67
330
343
100
AcDbEntity
  8
TEXT
  6
Continuous
 62
     7
370
    13
100
AcDbText
 10
68.645983
 20
-44.542924
 30
0.0
 40
0.04641
  1
AND DESIGNING TRAFFIC BARRIERS"
  7
Style-Arial
 72
     1
 11
69.236083
 21
-44.519719
 31
0.0
100
AcDbText
 73
     2
  0
TEXT
  5
68
330
343
100
AcDbEntity
  8
TEXT
  6
Continuous
 62
     7
370
    13
100
AcDbText
 10
68.64272
 20
-44.461538
 30
0.0
 40
0.04641
  1
SEE AASHTO "GUIDE FOR SELECTING, LOCATING
  7
Style-Arial
 72
     1
 11
69.42511
 21
-44.438333
 31
0.0
100
AcDbText
 73
     2
  0
TEXT
  5
E6
330
343
100
AcDbEntity
  8
TITLE
  6
Continuous
 62
     7
370
    13
100
AcDbText
 10
71.626949
 20
-42.765613
 30
0.0
 40
0.04641
  1
TERMINAL TREATMENT
  7
Style-Arial
 72
     1
 11
71.997397
 21
-42.742408
 31
0.0
100
AcDbText
 73
     2
  0
TEXT
  5
E7
330
343
100
AcDbEntity
  8
TITLE
  6
Continuous
 62
     7
370
    13
100
AcDbText
 10
71.820445
 20
-42.829299
 30
0.0
 40
0.04641
  1
(MIN. 12'-6")
  7
Style-Arial
 72
     1
 11
72.00085
 21
-42.806094
 31
0.0
100
AcDbText
 73
     2
  0
TEXT
  5
EC
330
343
100
AcDbEntity
  8
TITLE
  6
Continuous
 62
     7
370
    13
100
AcDbText
 10
70.388668
 20
-42.530875
 30
0.0
 40
0.04641
  1
GUARD RAIL STANDARDS
  7
Style-Arial
 72
     1
 11
70.794154
 21
-42.50767
 31
0.0
100
AcDbText
 73
     2
  0
TEXT
  5
ED
330
343
100
AcDbEntity
  8
TITLE
  6
Continuous
 62
     7
370
    13
100
AcDbText
 10
70.44964
 20
-42.600601
 30
0.0
 40
0.04641
  1
SPECIFIED ON PLANS
  7
Style-Arial
 72
     1
 11
70.792091
 21
-42.577396
 31
0.0
100
AcDbText
 73
     2
  0
TEXT
  5
FB
330
343
100
AcDbEntity
  8
TITLE
  6
Continuous
 62
     7
370
    13
100
AcDbText
 10
71.690469
 20
-42.364205
 30
0.0
 40
0.04641
  1
SLOPE TO BE RESHAPED AFTER
  7
Style-Arial
 72
     1
 11
72.207169
 21
-42.341
 31
0.0
100
AcDbText
 73
     2
  0
TEXT
  5
FC
330
343
100
AcDbEntity
  8
TITLE
  6
Continuous
 62
     7
370
    13
100
AcDbText
 10
71.69168
 20
-42.430645
 30
0.0
 40
0.04641
  1
INSTALLATION TO PRESENT A 
  7
Style-Arial
 72
     1
 11
72.169187
 21
-42.40744
 31
0.0
100
AcDbText
 73
     2
  0
TEXT
  5
FD
330
343
100
AcDbEntity
  8
TITLE
  6
Continuous
 62
     7
370
    13
100
AcDbText
 10
71.692737
 20
-42.500999
 30
0.0
 40
0.04641
  1
SMOOTH SURFACE.
  7
Style-Arial
 72
     1
 11
72.005173
 21
-42.477794
 31
0.0
100
AcDbText
 73
     2
  0
TEXT
  5
102
330
343
100
AcDbEntity
  8
Level 8
  6
Continuous
 62
     7
370
    13
100
AcDbText
 10
73.212065
 20
-43.902742
 30
0.0
 40
0.104422
  1
END VIEW
  7
Style-Arial
 72
     1
 11
73.571972
 21
-43.850531
 31
0.0
100
AcDbText
 73
     2
  0
TEXT
  5
104
330
343
100
AcDbEntity
  8
Level 8
  6
Continuous
 62
     7
370
    13
100
AcDbText
 10
75.071003
 20
-43.937524
 30
0.0
 40
0.104422
  1
END ELEVATION
  7
Style-Arial
 72
     1
 11
75.648829
 21
-43.885312
 31
0.0
100
AcDbText
 73
     2
  0
TEXT
  5
105
330
343
100
AcDbEntity
  8
Level 8
  6
Continuous
 62
     7
370
    13
100
AcDbText
 10
73.41786
 20
-42.433243
 30
0.0
 40
0.104422
  1
DETAIL A
  7
Style-Arial
 72
     1
 11
73.742309
 21
-42.381032
 31
0.0
100
AcDbText
 73
     2
  0
TEXT
  5
109
330
343
100
AcDbEntity
  8
TITLE
  6
Continuous
 62
     7
370
    13
100
AcDbText
 10
68.824456
 20
-43.564736
 30
0.0
 40
0.04641
  1
BOTTOM OF GUARD RAIL BEAM
  7
Style-Arial
 72
     1
 11
69.322833
 21
-43.541531
 31
0.0
100
AcDbText
 73
     2
  0
TEXT
  5
10A
330
343
100
AcDbEntity
  8
TITLE
  6
Continuous
 62
     7
370
    13
100
AcDbText
 10
68.827799
 20
-43.645695
 30
0.0
 40
0.04641
  1
PARALLEL TO DITCH SLOPE
  7
Style-Arial
 72
     1
 11
69.269312
 21
-43.62249
 31
0.0
100
AcDbText
 73
     2
  0
TEXT
  5
10B
330
343
100
AcDbEntity
  8
TITLE
  6
Continuous
 62
     7
370
    13
100
AcDbText
 10
70.790924
 20
-43.878661
 30
0.0
 40
0.04641
  1
ALL POSTS TO BE 5'-9"
  7
Style-Arial
 72
     1
 11
71.145843
 21
-43.855456
 31
0.0
100
AcDbText
 73
     2
  0
TEXT
  5
10C
330
343
100
AcDbEntity
  8
TITLE
  6
Continuous
 62
     7
370
    13
100
AcDbText
 10
70.78689
 20
-43.945223
 30
0.0
 40
0.04641
  1
IN LENGTH EXCEPT W 6x8.5x2'-6"
  7
Style-Arial
 72
     1
 11
71.305712
 21
-43.922018
 31
0.0
100
AcDbText
 73
     2
  0
TEXT
  5
10D
330
343
100
AcDbEntity
  8
TITLE
  6
Continuous
 62
     7
370
    13
100
AcDbText
 10
70.787718
 20
-44.016828
 30
0.0
 40
0.04641
  1
END POSTS MAY BE USED IN AREAS
  7
Style-Arial
 72
     1
 11
71.364412
 21
-43.993623
 31
0.0
100
AcDbText
 73
     2
  0
TEXT
  5
10E
330
343
100
AcDbEntity
  8
TITLE
  6
Continuous
 62
     7
370
    13
100
AcDbText
 10
70.784194
 20
-44.086976
 30
0.0
 40
0.04641
  1
OF HEAVY ROCK OUTCROPPING.
  7
Style-Arial
 72
     1
 11
71.307438
 21
-44.063771
 31
0.0
100
AcDbText
 73
     2
  0
TEXT
  5
153
330
343
100
AcDbEntity
  8
TITLE
  6
Continuous
 62
     7
370
    13
100
AcDbText
 10
74.151588
 20
-43.537956
 30
0.0
 40
0.04641
  1
SEE DETAIL 
  7
Style-Arial
 72
     1
 11
74.337847
 21
-43.514751
 31
0.0
100
AcDbText
 73
     2
  0
TEXT
  5
157
330
343
100
AcDbEntity
  8
TITLE
  6
Continuous
 62
     7
370
    13
100
AcDbText
 10
73.492831
 20
-42.821735
 30
0.0
 40
0.04641
  1
ROCK CUT
  7
Style-Arial
 72
     1
 11
73.66151
 21
-42.79853
 31
0.0
100
AcDbText
 73
     2
  0
TEXT
  5
15B
330
343
100
AcDbEntity
  8
TITLE
  6
Continuous
 62
     7
370
    13
100
AcDbText
 10
75.332733
 20
-42.964677
 30
0.0
 40
0.04641
  1
ROCK CUT
  7
Style-Arial
 72
     1
 11
75.501411
 21
-42.941472
 31
0.0
100
AcDbText
 73
     2
  0
TEXT
  5
161
330
343
100
AcDbEntity
  8
LEGEND
  6
Continuous
 62
     7
370
    13
100
AcDbText
 10
75.922515
 20
-43.47335
 30
0.0
 40
0.04641
  1
1'-0"
 50
348.444225
  7
Style-Arial
 72
     1
 11
75.988904
 21
-43.46324
 31
0.0
100
AcDbText
 73
     2
  0
TEXT
  5
168
330
343
100
AcDbEntity
  8
TITLE
  6
Continuous
 62
     7
370
    13
100
AcDbText
 10
76.090337
 20
-43.52592
 30
0.0
 40
0.04641
  1
WASHERS TO BE
  7
Style-Arial
 72
     1
 11
76.358857
 21
-43.502715
 31
0.0
100
AcDbText
 73
     2
  0
TEXT
  5
169
330
343
100
AcDbEntity
  8
TITLE
  6
Continuous
 62
     7
370
    13
100
AcDbText
 10
76.087123
 20
-43.595034
 30
0.0
 40
0.04641
  1
AS DETAILED ON
  7
Style-Arial
 72
     1
 11
76.352937
 21
-43.571829
 31
0.0
100
AcDbText
 73
     2
  0
TEXT
  5
16A
330
343
100
AcDbEntity
  8
TITLE
  6
Continuous
 62
     7
370
    13
100
AcDbText
 10
76.086627
 20
-43.662174
 30
0.0
 40
0.04641
  1
FIGURE 2-30e
  7
Style-Arial
 72
     1
 11
76.299664
 21
-43.638969
 31
0.0
100
AcDbText
 73
     2
  0
TEXT
  5
170
330
343
100
AcDbEntity
  8
TITLE
  6
Continuous
 62
     7
370
    13
100
AcDbText
 10
76.258757
 20
-43.045484
 30
0.0
 40
0.04641
  1
5/8% 2-1/2"
  7
Style-Arial
 72
     1
 11
76.42549
 21
-43.022279
 31
0.0
100
AcDbText
 73
     2
  0
TEXT
  5
171
330
343
100
AcDbEntity
  8
TITLE
  6
Continuous
 62
     7
370
    13
100
AcDbText
 10
76.257252
 20
-43.126443
 30
0.0
 40
0.04641
  1
HEXAGON HEADS
  7
Style-Arial
 72
     1
 11
76.538453
 21
-43.103238
 31
0.0
100
AcDbText
 73
     2
  0
TEXT
  5
172
330
343
100
AcDbEntity
  8
TITLE
  6
Continuous
 62
     7
370
    13
100
AcDbText
 10
76.25976
 20
-43.211005
 30
0.0
 40
0.04641
  1
MACHINE BOLTS
  7
Style-Arial
 72
     1
 11
76.522903
 21
-43.1878
 31
0.0
100
AcDbText
 73
     2
  0
TEXT
  5
1C6
330
343
100
AcDbEntity
  8
TITLE
  6
Continuous
 62
     7
370
    13
100
AcDbText
 10
72.849851
 20
-42.034707
 30
0.0
 40
0.04641
  1
SOLID ROCK
  7
Style-Arial
 72
     1
 11
73.049764
 21
-42.011502
 31
0.0
100
AcDbText
 73
     2
  0
TEXT
  5
1CA
330
343
100
AcDbEntity
  8
TITLE
  6
Continuous
 62
     7
370
    13
100
AcDbText
 10
73.495113
 20
-41.538856
 30
0.0
 40
0.04641
  1
WASHER
  7
Style-Arial
 72
     1
 11
73.636996
 21
-41.515651
 31
0.0
100
AcDbText
 73
     2
  0
TEXT
  5
1CE
330
343
100
AcDbEntity
  8
TITLE
  6
Continuous
 62
     7
370
    13
100
AcDbText
 10
74.279051
 20
-41.922613
 30
0.0
 40
0.04641
  1
GUARD RAIL BEAM
  7
Style-Arial
 72
     1
 11
74.575693
 21
-41.899408
 31
0.0
100
AcDbText
 73
     2
  0
TEXT
  5
1D2
330
343
100
AcDbEntity
  8
TITLE
  6
Continuous
 62
     7
370
    13
100
AcDbText
 10
74.373647
 20
-41.471491
 30
0.0
 40
0.04641
  1
MODIFIED TERMINAL
  7
Style-Arial
 72
     1
 11
74.703946
 21
-41.448286
 31
0.0
100
AcDbText
 73
     2
  0
TEXT
  5
1D3
330
343
100
AcDbEntity
  8
TITLE
  6
Continuous
 62
     7
370
    13
100
AcDbText
 10
74.374476
 20
-41.537327
 30
0.0
 40
0.04641
  1
SECTION
  7
Style-Arial
 72
     1
 11
74.515952
 21
-41.514122
 31
0.0
100
AcDbText
 73
     2
  0
TEXT
  5
1D7
330
343
100
AcDbEntity
  8
TITLE
  6
Continuous
 62
     7
370
    13
100
AcDbText
 10
74.100329
 20
-42.234677
 30
0.0
 40
0.04641
  1
THREADED DOUBLE-UNIT MACHINE
  7
Style-Arial
 72
     1
 11
74.664271
 21
-42.211472
 31
0.0
100
AcDbText
 73
     2
  0
TEXT
  5
1D8
330
343
100
AcDbEntity
  8
TITLE
  6
Continuous
 62
     7
370
    13
100
AcDbText
 10
74.1033
 20
-42.313919
 30
0.0
 40
0.04641
  1
BOLT CAULKING ANCHORS SECURED IN
  7
Style-Arial
 72
     1
 11
74.740235
 21
-42.290714
 31
0.0
100
AcDbText
 73
     2
  0
TEXT
  5
1D9
330
343
100
AcDbEntity
  8
TITLE
  6
Continuous
 62
     7
370
    13
100
AcDbText
 10
74.103376
 20
-42.393123
 30
0.0
 40
0.04641
  1
1-1/8"% x 2-3/8" HOLES.
  7
Style-Arial
 72
     1
 11
74.462275
 21
-42.369918
 31
0.0
100
AcDbText
 73
     2
  0
TEXT
  5
1DA
330
343
100
AcDbEntity
  8
TITLE
  6
Continuous
 62
     7
370
    13
100
AcDbText
 10
75.753744
 20
-42.502455
 30
0.0
 40
0.04641
  1
TWO 3/4" HOLES TO BE DRILLED IN GUARD 
  7
Style-Arial
 72
     1
 11
76.431888
 21
-42.47925
 31
0.0
100
AcDbText
 73
     2
  0
TEXT
  5
1DB
330
343
100
AcDbEntity
  8
TITLE
  6
Continuous
 62
     7
370
    13
100
AcDbText
 10
75.750245
 20
-42.583413
 30
0.0
 40
0.04641
  1
RAIL BEAM AND IN MODIFIED TERMINAL
  7
Style-Arial
 72
     1
 11
76.381413
 21
-42.560208
 31
0.0
100
AcDbText
 73
     2
  0
TEXT
  5
1DC
330
343
100
AcDbEntity
  8
TITLE
  6
Continuous
 62
     7
370
    13
100
AcDbText
 10
75.752422
 20
-42.664372
 30
0.0
 40
0.04641
  1
SECTION AS 1'-0" c-c
  7
Style-Arial
 72
     1
 11
76.074285
 21
-42.641167
 31
0.0
100
AcDbText
 73
     2
  0
TEXT
  5
1DD
330
343
100
AcDbEntity
  8
HATCH
  6
Continuous
 62
     7
370
    13
100
AcDbText
 10
75.951016
 20
-41.689195
 30
0.0
 40
0.04641
  1
COST OF DRILLING HOLES AND
  7
Style-Arial
 72
     1
 11
76.448314
 21
-41.66599
 31
0.0
100
AcDbText
 73
     2
  0
TEXT
  5
1DE
330
343
100
AcDbEntity
  8
HATCH
  6
Continuous
 62
     7
370
    13
100
AcDbText
 10
75.948967
 20
-41.770142
 30
0.0
 40
0.04641
  1
FURNINSHING AND PLACING BOLTS,
  7
Style-Arial
 72
     1
 11
76.524387
 21
-41.746938
 31
0.0
100
AcDbText
 73
     2
  0
TEXT
  5
1DF
330
343
100
AcDbEntity
  8
HATCH
  6
Continuous
 62
     7
370
    13
100
AcDbText
 10
75.95346
 20
-41.851101
 30
0.0
 40
0.04641
  1
WASHERS, AND CAULKING ANCHORS,
  7
Style-Arial
 72
     1
 11
76.555923
 21
-41.827896
 31
0.0
100
AcDbText
 73
     2
  0
TEXT
  5
1E0
330
343
100
AcDbEntity
  8
HATCH
  6
Continuous
 62
     7
370
    13
100
AcDbText
 10
75.954289
 20
-41.93207
 30
0.0
 40
0.04641
  1
AND MODIFIED TERMINAL SECTION
  7
Style-Arial
 72
     1
 11
76.513684
 21
-41.908865
 31
0.0
100
AcDbText
 73
     2
  0
TEXT
  5
1E1
330
343
100
AcDbEntity
  8
HATCH
  6
Continuous
 62
     7
370
    13
100
AcDbText
 10
75.952719
 20
-42.013017
 30
0.0
 40
0.04641
  1
TO BE INCLUDED IN PRICE BID PER 
  7
Style-Arial
 72
     1
 11
76.512574
 21
-41.989812
 31
0.0
100
AcDbText
 73
     2
  0
TEXT
  5
1E2
330
343
100
AcDbEntity
  8
HATCH
  6
Continuous
 62
     7
370
    13
100
AcDbText
 10
75.949467
 20
-42.093986
 30
0.0
 40
0.04641
  1
LINEAR FOOT.
  7
Style-Arial
 72
     1
 11
76.171825
 21
-42.070781
 31
0.0
100
AcDbText
 73
     2
  0
TEXT
  5
1E5
330
343
100
AcDbEntity
  8
HATCH
  6
Continuous
 62
     7
370
    13
100
AcDbText
 10
68.19115
 20
-41.180924
 30
0.0
 40
0.04641
  1
THE OFFSET BLOCK MAY BE ELIMINATED FOR ANY
  7
Style-Arial
 72
     1
 11
68.99984
 21
-41.157719
 31
0.0
100
AcDbText
 73
     2
  0
TEXT
  5
1E6
330
343
100
AcDbEntity
  8
HATCH
  6
Continuous
 62
     7
370
    13
100
AcDbText
 10
68.187592
 20
-41.261882
 30
0.0
 40
0.04641
  1
POST WHICH WIL BE COMPLETELY BELOW GRADE.
  7
Style-Arial
 72
     1
 11
68.997255
 21
-41.238677
 31
0.0
100
AcDbText
 73
     2
  0
TEXT
  5
1E7
330
343
100
AcDbEntity
  8
HATCH
  6
Continuous
 62
     7
370
    13
100
AcDbText
 10
68.191136
 20
-41.34284
 30
0.0
 40
0.04641
  1
THE ALIGNMENT OF SUCH POSTS MUST BE FIELD
  7
Style-Arial
 72
     1
 11
68.980282
 21
-41.319635
 31
0.0
100
AcDbText
 73
     2
  0
TEXT
  5
1E8
330
343
100
AcDbEntity
  8
HATCH
  6
Continuous
 62
     7
370
    13
100
AcDbText
 10
68.19274
 20
-41.423799
 30
0.0
 40
0.04641
  1
ADJUSTED.
  7
Style-Arial
 72
     1
 11
68.370084
 21
-41.400594
 31
0.0
100
AcDbText
 73
     2
  0
TEXT
  5
1E9
330
343
100
AcDbEntity
  8
HATCH
  6
Continuous
 62
     7
370
    13
100
AcDbText
 10
68.192625
 20
-41.585715
 30
0.0
 40
0.04641
  1
ALT STEEL POST AND OFFSET BRACKETS DETAILED ON
  7
Style-Arial
 72
     1
 11
69.081843
 21
-41.56251
 31
0.0
100
AcDbText
 73
     2
  0
TEXT
  5
1EA
330
343
100
AcDbEntity
  8
HATCH
  6
Continuous
 62
     7
370
    13
100
AcDbText
 10
68.187287
 20
-41.666684
 30
0.0
 40
0.04641
  1
FIGURE 2-30g MAY BE SUBITITUTED FOR DESIGNS
  7
Style-Arial
 72
     1
 11
68.985489
 21
-41.643479
 31
0.0
100
AcDbText
 73
     2
  0
TEXT
  5
1EB
330
343
100
AcDbEntity
  8
HATCH
  6
Continuous
 62
     7
370
    13
100
AcDbText
 10
68.189724
 20
-41.747632
 30
0.0
 40
0.04641
  1
SHOWN HEREON. 
  7
Style-Arial
 72
     1
 11
68.467919
 21
-41.724427
 31
0.0
100
AcDbText
 73
     2
  0
TEXT
  5
1EC
330
343
100
AcDbEntity
  8
HATCH
  6
Continuous
 62
     7
370
    13
100
AcDbText
 10
68.187866
 20
-41.909559
 30
0.0
 40
0.04641
  1
BASIS OF PAYMENT TO BE LINEAR FEET OF
  7
Style-Arial
 72
     1
 11
68.880036
 21
-41.886354
 31
0.0
100
AcDbText
 73
     2
  0
TEXT
  5
1ED
330
343
100
AcDbEntity
  8
HATCH
  6
Continuous
 62
     7
370
    13
100
AcDbText
 10
68.191121
 20
-41.990507
 30
0.0
 40
0.04641
  1
TERMINAL TREATMENT COMPLETE IN PLACE
  7
Style-Arial
 72
     1
 11
68.904621
 21
-41.967302
 31
0.0
100
AcDbText
 73
     2
  0
TEXT
  5
1EE
330
343
100
AcDbEntity
  8
HATCH
  6
Continuous
 62
     7
370
    13
100
AcDbText
 10
68.187645
 20
-42.071476
 30
0.0
 40
0.04641
  1
POSTS ARE TO BE THE SAME TYPE USED
  7
Style-Arial
 72
     1
 11
68.845379
 21
-42.048271
 31
0.0
100
AcDbText
 73
     2
  0
TEXT
  5
1EF
330
343
100
AcDbEntity
  8
HATCH
  6
Continuous
 62
     7
370
    13
100
AcDbText
 10
68.18948
 20
-42.152434
 30
0.0
 40
0.04641
  1
ON NORMAL GUARD RAIL INSTALLATION.
  7
Style-Arial
 72
     1
 11
68.838813
 21
-42.129229
 31
0.0
100
AcDbText
 73
     2
  0
TEXT
  5
1F0
330
343
100
AcDbEntity
  8
HATCH
  6
Continuous
 62
     7
370
    13
100
AcDbText
 10
68.187578
 20
-42.233392
 30
0.0
 40
0.04641
  1
UNLESS OTHERWISE NOTED.
  7
Style-Arial
 72
     1
 11
68.651359
 21
-42.210187
 31
0.0
100
AcDbText
 73
     2
  0
TEXT
  5
1F1
330
343
100
AcDbEntity
  8
HATCH
  6
Continuous
 62
     7
370
    13
100
AcDbText
 10
70.047093
 20
-42.233892
 30
0.0
 40
0.04641
  1
THE SPECIFICATIONS.
  7
Style-Arial
 72
     1
 11
70.397379
 21
-42.210687
 31
0.0
100
AcDbText
 73
     2
  0
TEXT
  5
1F2
330
343
100
AcDbEntity
  8
HATCH
  6
Continuous
 62
     7
370
    13
100
AcDbText
 10
70.04868
 20
-42.152934
 30
0.0
 40
0.04641
  1
ARE TO BE GALVANISED IN ACCORDANCE WITH
  7
Style-Arial
 72
     1
 11
70.808148
 21
-42.129729
 31
0.0
100
AcDbText
 73
     2
  0
TEXT
  5
1F3
330
343
100
AcDbEntity
  8
HATCH
  6
Continuous
 62
     7
370
    13
100
AcDbText
 10
70.047842
 20
-42.071976
 30
0.0
 40
0.04641
  1
WASHERS, AND STEEL POSTS (WHEN SPECIFIED)
  7
Style-Arial
 72
     1
 11
70.837572
 21
-42.048771
 31
0.0
100
AcDbText
 73
     2
  0
TEXT
  5
1F4
330
343
100
AcDbEntity
  8
HATCH
  6
Continuous
 62
     7
370
    13
100
AcDbText
 10
70.04544
 20
-41.991017
 30
0.0
 40
0.04641
  1
OTHERWISE NOTED ON PLAN. RAIL, BOLTS, NUTS,
  7
Style-Arial
 72
     1
 11
70.842439
 21
-41.967813
 31
0.0
100
AcDbText
 73
     2
  0
TEXT
  5
1F5
330
343
100
AcDbEntity
  8
HATCH
  6
Continuous
 62
     7
370
    13
100
AcDbText
 10
70.047081
 20
-41.910059
 30
0.0
 40
0.04641
  1
THE RAIL ELEMENT SHALL BE 12 GAUGE UNLESS
  7
Style-Arial
 72
     1
 11
70.827384
 21
-41.886854
 31
0.0
100
AcDbText
 73
     2
  0
TEXT
  5
1F6
330
343
100
AcDbEntity
  8
HATCH
  6
Continuous
 62
     7
370
    13
100
AcDbText
 10
70.38442
 20
-41.742372
 30
0.0
 40
0.04641
  1
ON UNDIVDED HIGHWAYS.
  7
Style-Arial
 72
     1
 11
70.803136
 21
-41.719167
 31
0.0
100
AcDbText
 73
     2
  0
TEXT
  5
1F7
330
343
100
AcDbEntity
  8
HATCH
  6
Continuous
 62
     7
370
    13
100
AcDbText
 10
70.38769
 20
-41.661413
 30
0.0
 40
0.04641
  1
AND AT THE RUN-ON AND RUN-OFF ENDS
  7
Style-Arial
 72
     1
 11
71.04889
 21
-41.638208
 31
0.0
100
AcDbText
 73
     2
  0
TEXT
  5
1F8
330
343
100
AcDbEntity
  8
HATCH
  6
Continuous
 62
     7
370
    13
100
AcDbText
 10
70.382455
 20
-41.499497
 30
0.0
 40
0.04641
  1
USED AT THE RUN-ON END OF DIVIDED
  7
Style-Arial
 72
     1
 11
71.005823
 21
-41.476292
 31
0.0
100
AcDbText
 73
     2
  0
TEXT
  5
1F9
330
343
100
AcDbEntity
  8
HATCH
  6
Continuous
 62
     7
370
    13
100
AcDbText
 10
70.386086
 20
-41.418538
 30
0.0
 40
0.04641
  1
THIS TERMINAL TREATMENT MAY BE
  7
Style-Arial
 72
     1
 11
70.969854
 21
-41.395333
 31
0.0
100
AcDbText
 73
     2
  0
TEXT
  5
1FA
330
343
100
AcDbEntity
  8
HATCH
  6
Continuous
 62
     7
370
    13
100
AcDbText
 10
70.382188
 20
-41.577195
 30
0.0
 40
0.04641
  1
HIGHWAYS (LEFT AND RIGHT OF TRAFFIC)
  7
Style-Arial
 72
     1
 11
71.05469
 21
-41.55399
 31
0.0
100
AcDbText
 73
     2
  0
TEXT
  5
1FE
330
343
100
AcDbEntity
  8
TITLE
  6
Continuous
 62
     7
370
    13
100
AcDbText
 10
73.684833
 20
-41.244542
 30
0.0
 40
0.04641
  1
TOE OF FILL
  7
Style-Arial
 72
     1
 11
73.878238
 21
-41.221337
 31
0.0
100
AcDbText
 73
     2
  0
TEXT
  5
202
330
343
100
AcDbEntity
  8
TITLE
  6
Continuous
 62
     7
370
    13
100
AcDbText
 10
71.620561
 20
-41.146757
 30
0.0
 40
0.04641
  1
DITCH LINE
  7
Style-Arial
 72
     1
 11
71.798967
 21
-41.123552
 31
0.0
100
AcDbText
 73
     2
  0
TEXT
  5
231
330
343
100
AcDbEntity
  8
TITLE
  6
Continuous
 62
     7
370
    13
100
AcDbText
 10
74.439726
 20
-41.016765
 30
0.0
 40
0.04641
  1
SHOULDER LINE ELEVATION
  7
Style-Arial
 72
     1
 11
74.889323
 21
-40.99356
 31
0.0
100
AcDbText
 73
     2
  0
TEXT
  5
235
330
343
100
AcDbEntity
  8
TITLE
  6
Continuous
 62
     7
370
    13
100
AcDbText
 10
74.446186
 20
-40.609757
 30
0.0
 40
0.04641
  1
EDGE OF PAVEMENT ELEVATION
  7
Style-Arial
 72
     1
 11
74.967855
 21
-40.586552
 31
0.0
100
AcDbText
 73
     2
  0
TEXT
  5
286
330
343
100
AcDbEntity
  8
LEGEND
  6
Continuous
 62
     7
370
    13
100
AcDbText
 10
74.097691
 20
-39.257357
 30
0.0
 40
0.04641
  1
L/2
  7
Style-Arial
 72
     1
 11
74.141024
 21
-39.234152
 31
0.0
100
AcDbText
 73
     2
  0
TEXT
  5
28B
330
343
100
AcDbEntity
  8
LEGEND
  6
Continuous
 62
     7
370
    13
100
AcDbText
 10
70.994863
 20
-39.224823
 30
0.0
 40
0.04641
  1
a
  7
Style-Arial
 72
     1
 11
71.011506
 21
-39.201618
 31
0.0
100
AcDbText
 73
     2
  0
TEXT
  5
28C
330
343
100
AcDbEntity
  8
TITLE
  6
Continuous
 62
     7
370
    13
100
AcDbText
 10
69.948442
 20
-39.317351
 30
0.0
 40
0.04641
  1
w
  7
Style-Arial
 72
     1
 11
69.971594
 21
-39.294146
 31
0.0
100
AcDbText
 73
     2
  0
TEXT
  5
290
330
343
100
AcDbEntity
  8
TITLE
  6
Continuous
 62
     7
370
    13
100
AcDbText
 10
73.618571
 20
-39.753933
 30
0.0
 40
0.04641
  1
TOE OF FILL
  7
Style-Arial
 72
     1
 11
73.811975
 21
-39.730728
 31
0.0
100
AcDbText
 73
     2
  0
TEXT
  5
294
330
343
100
AcDbEntity
  8
TITLE
  6
Continuous
 62
     7
370
    13
100
AcDbText
 10
71.189022
 20
-39.702536
 30
0.0
 40
0.04641
  1
DITCH LINE
  7
Style-Arial
 72
     1
 11
71.367428
 21
-39.679331
 31
0.0
100
AcDbText
 73
     2
  0
TEXT
  5
298
330
343
100
AcDbEntity
  8
TITLE
  6
Continuous
 62
     7
370
    13
100
AcDbText
 10
74.497652
 20
-39.217595
 30
0.0
 40
0.04641
  1
SHOULDER LINE
  7
Style-Arial
 72
     1
 11
74.757169
 21
-39.19439
 31
0.0
100
AcDbText
 73
     2
  0
TEXT
  5
29C
330
343
100
AcDbEntity
  8
TITLE
  6
Continuous
 62
     7
370
    13
100
AcDbText
 10
74.392261
 20
-38.620152
 30
0.0
 40
0.04641
  1
EDGE OF PAVEMENT
  7
Style-Arial
 72
     1
 11
74.724931
 21
-38.596947
 31
0.0
100
AcDbText
 73
     2
  0
TEXT
  5
29D
330
343
100
AcDbEntity
  8
TITLE
  6
Continuous
 62
     7
370
    13
100
AcDbText
 10
72.973588
 20
-39.444622
 30
0.0
 40
0.04641
  1
CROSS SHOULDER LINE AT 
  7
Style-Arial
 72
     1
 11
73.408947
 21
-39.421417
 31
0.0
100
AcDbText
 73
     2
  0
TEXT
  5
29E
330
343
100
AcDbEntity
  8
TITLE
  6
Continuous
 62
     7
370
    13
100
AcDbText
 10
72.981478
 20
-39.52558
 30
0.0
 40
0.04641
  1
APPOXIMATE GRADE POINT
  7
Style-Arial
 72
     1
 11
73.424053
 21
-39.502375
 31
0.0
100
AcDbText
 73
     2
  0
TEXT
  5
2A6
330
343
100
AcDbEntity
  8
TITLE
  6
Continuous
 62
     7
370
    13
100
AcDbText
 10
71.96545
 20
-38.377081
 30
0.0
 40
0.04641
  1
DIRECTION OF TRAFFIC
  7
Style-Arial
 72
     1
 11
72.342425
 21
-38.353876
 31
0.0
100
AcDbText
 73
     2
  0
TEXT
  5
2B3
330
343
100
AcDbEntity
  8
LEGEND
  6
Continuous
 62
     7
370
    13
100
AcDbText
 10
69.106396
 20
-39.765583
 30
0.0
 40
0.04641
  1
18" MAX
  7
Style-Arial
 72
     1
 11
69.233015
 21
-39.742378
 31
0.0
100
AcDbText
 73
     2
  0
TEXT
  5
2B4
330
343
100
AcDbEntity
  8
TITLE
  6
Continuous
 62
     7
370
    13
100
AcDbText
 10
68.739914
 20
-38.656445
 30
0.0
 40
0.04641
  1
a NOT TO EXCEED 15"
  7
Style-Arial
 72
     1
 11
69.086821
 21
-38.63324
 31
0.0
100
AcDbText
 73
     2
  0
TEXT
  5
2B5
330
343
100
AcDbEntity
  8
TITLE
  6
Continuous
 62
     7
370
    13
100
AcDbText
 10
68.742785
 20
-38.737413
 30
0.0
 40
0.04641
  1
W AND L AS DEFINED ON
  7
Style-Arial
 72
     1
 11
69.136456
 21
-38.714208
 31
0.0
100
AcDbText
 73
     2
  0
TEXT
  5
2B6
330
343
100
AcDbEntity
  8
TITLE
  6
Continuous
 62
     7
370
    13
100
AcDbText
 10
68.742394
 20
-38.818361
 30
0.0
 40
0.04641
  1
FIGURE 2-30h.
  7
Style-Arial
 72
     1
 11
68.962948
 21
-38.795156
 31
0.0
100
AcDbText
 73
     2
  0
TEXT
  5
2B7
330
343
100
AcDbEntity
  8
TITLE
  6
Continuous
 62
     7
370
    13
100
AcDbText
 10
68.268778
 20
-39.320049
 30
0.0
 40
0.04641
  1
MINIMUM 1' FOOT BELOW GROUND
  7
Style-Arial
 72
     1
 11
68.824406
 21
-39.296844
 31
0.0
100
AcDbText
 73
     2
  0
TEXT
  5
2B8
330
343
100
AcDbEntity
  8
TITLE
  6
Continuous
 62
     7
370
    13
100
AcDbText
 10
68.268556
 20
-39.386181
 30
0.0
 40
0.04641
  1
EXCEPT IN SOLID ROCK CUT OR
  7
Style-Arial
 72
     1
 11
68.781559
 21
-39.362976
 31
0.0
100
AcDbText
 73
     2
  0
TEXT
  5
2B9
330
343
100
AcDbEntity
  8
TITLE
  6
Continuous
 62
     7
370
    13
100
AcDbText
 10
68.268606
 20
-39.449931
 30
0.0
 40
0.04641
  1
HEAVY ROCK OUTCROPPING.
  7
Style-Arial
 72
     1
 11
68.737817
 21
-39.426726
 31
0.0
100
AcDbText
 73
     2
  0
TEXT
  5
2BD
330
343
100
AcDbEntity
  8
TITLE
  6
Continuous
 62
     7
370
    13
100
AcDbText
 10
69.202319
 20
-40.0426
 30
0.0
 40
0.04641
  1
GUARD RAIL IS TO BE EXTENDED
  7
Style-Arial
 72
     1
 11
69.730285
 21
-40.019395
 31
0.0
100
AcDbText
 73
     2
  0
TEXT
  5
2BE
330
343
100
AcDbEntity
  8
TITLE
  6
Continuous
 62
     7
370
    13
100
AcDbText
 10
69.205471
 20
-40.118705
 30
0.0
 40
0.04641
  1
A MINIMUM OF 2-6'-3" SPANS
  7
Style-Arial
 72
     1
 11
69.655599
 21
-40.0955
 31
0.0
100
AcDbText
 73
     2
  0
TEXT
  5
2BF
330
343
100
AcDbEntity
  8
TITLE
  6
Continuous
 62
     7
370
    13
100
AcDbText
 10
69.201185
 20
-40.191027
 30
0.0
 40
0.04641
  1
BEYOND DITCH LINE GUARD RAIL
  7
Style-Arial
 72
     1
 11
69.733307
 21
-40.167822
 31
0.0
100
AcDbText
 73
     2
  0
TEXT
  5
2C0
330
343
100
AcDbEntity
  8
TITLE
  6
Continuous
 62
     7
370
    13
100
AcDbText
 10
69.199755
 20
-40.268531
 30
0.0
 40
0.04641
  1
IS TO TERMINATE A MINIMUM OF
  7
Style-Arial
 72
     1
 11
69.718825
 21
-40.245326
 31
0.0
100
AcDbText
 73
     2
  0
TEXT
  5
2C1
330
343
100
AcDbEntity
  8
TITLE
  6
Continuous
 62
     7
370
    13
100
AcDbText
 10
69.198753
 20
-40.340251
 30
0.0
 40
0.04641
  1
1'-0" BELOW GROUND ELEVATION
  7
Style-Arial
 72
     1
 11
69.730858
 21
-40.317046
 31
0.0
100
AcDbText
 73
     2
  0
TEXT
  5
2C2
330
343
100
AcDbEntity
  8
TITLE
  6
Continuous
 62
     7
370
    13
100
AcDbText
 10
69.202584
 20
-40.416629
 30
0.0
 40
0.04641
  1
OF THE BACK SLOPE, EXCEPT IN
  7
Style-Arial
 72
     1
 11
69.722449
 21
-40.393424
 31
0.0
100
AcDbText
 73
     2
  0
TEXT
  5
2C3
330
343
100
AcDbEntity
  8
TITLE
  6
Continuous
 62
     7
370
    13
100
AcDbText
 10
69.205694
 20
-40.494133
 30
0.0
 40
0.04641
  1
AREAS OF HEAVY ROCK OUTDROPPING
  7
Style-Arial
 72
     1
 11
69.839675
 21
-40.470928
 31
0.0
100
AcDbText
 73
     2
  0
TEXT
  5
2C4
330
343
100
AcDbEntity
  8
TITLE
  6
Continuous
 62
     7
370
    13
100
AcDbText
 10
69.204923
 20
-40.571637
 30
0.0
 40
0.04641
  1
WHERE MINIMUM DEPTH MAY BE 6"
  7
Style-Arial
 72
     1
 11
69.767945
 21
-40.548432
 31
0.0
100
AcDbText
 73
     2
  0
TEXT
  5
2C5
330
343
100
AcDbEntity
  8
TITLE
  6
Continuous
 62
     7
370
    13
100
AcDbText
 10
70.880928
 20
-40.27898
 30
0.0
 40
0.04641
  1
IF APPROVED BY THE ENGINEER ELIMINATE
  7
Style-Arial
 72
     1
 11
71.581871
 21
-40.255775
 31
0.0
100
AcDbText
 73
     2
  0
TEXT
  5
2C6
330
343
100
AcDbEntity
  8
TITLE
  6
Continuous
 62
     7
370
    13
100
AcDbText
 10
70.883813
 20
-40.353039
 30
0.0
 40
0.04641
  1
ONE POST AT FLOW LINE OF DITCH, IF
  7
Style-Arial
 72
     1
 11
71.492979
 21
-40.329834
 31
0.0
100
AcDbText
 73
     2
  0
TEXT
  5
2C7
330
343
100
AcDbEntity
  8
TITLE
  6
Continuous
 62
     7
370
    13
100
AcDbText
 10
70.882185
 20
-40.437442
 30
0.0
 40
0.04641
  1
PAVED AND USE DOUBLE SECTION OF
  7
Style-Arial
 72
     1
 11
71.493297
 21
-40.414237
 31
0.0
100
AcDbText
 73
     2
  0
TEXT
  5
2C8
330
343
100
AcDbEntity
  8
TITLE
  6
Continuous
 62
     7
370
    13
100
AcDbText
 10
70.881956
 20
-40.508047
 30
0.0
 40
0.04641
  1
RAILING FOR 12'-6" SPACE.
  7
Style-Arial
 72
     1
 11
71.305801
 21
-40.484842
 31
0.0
100
AcDbText
 73
     2
  0
TEXT
  5
2CE
330
343
100
AcDbEntity
  8
HATCH
  6
Continuous
 62
     7
370
    13
100
AcDbText
 10
74.149705
 20
-40.064997
 30
0.0
 40
0.04641
  1
A TRENCH NO GREATER THAN 18" IN WIDTH IS TO BE EXCAVATED
  7
Style-Arial
 72
     1
 11
75.198988
 21
-40.041792
 31
0.0
100
AcDbText
 73
     2
  0
TEXT
  5
2CF
330
343
100
AcDbEntity
  8
HATCH
  6
Continuous
 62
     7
370
    13
100
AcDbText
 10
74.143606
 20
-40.145955
 30
0.0
 40
0.04641
  1
INTO THE CUT SLOPE TO PROVIDE FOR THE GUARD RAIL POSTS AND
  7
Style-Arial
 72
     1
 11
75.249839
 21
-40.12275
 31
0.0
100
AcDbText
 73
     2
  0
TEXT
  5
2D0
330
343
100
AcDbEntity
  8
HATCH
  6
Continuous
 62
     7
370
    13
100
AcDbText
 10
74.145005
 20
-40.226903
 30
0.0
 40
0.04641
  1
BEAM THE CONTRACTOR IS TO ARRANGE HIS WORK SEQUENCE TO 
  7
Style-Arial
 72
     1
 11
75.228087
 21
-40.203698
 31
0.0
100
AcDbText
 73
     2
  0
TEXT
  5
2D1
330
343
100
AcDbEntity
  8
HATCH
  6
Continuous
 62
     7
370
    13
100
AcDbText
 10
74.144703
 20
-40.307872
 30
0.0
 40
0.04641
  1
PROVIDE THAT EACH INSTALLATION IS TO BE EXCAVATED.
  7
Style-Arial
 72
     1
 11
75.080578
 21
-40.284667
 31
0.0
100
AcDbText
 73
     2
  0
TEXT
  5
2D2
330
343
100
AcDbEntity
  8
HATCH
  6
Continuous
 62
     7
370
    13
100
AcDbText
 10
74.144669
 20
-40.38883
 30
0.0
 40
0.04641
  1
POSTS DRIVEN, GUARD RAIL PLACED, BACKFILLED, AND DISTRUBED
  7
Style-Arial
 72
     1
 11
75.23838
 21
-40.365625
 31
0.0
100
AcDbText
 73
     2
  0
TEXT
  5
2D3
330
343
100
AcDbEntity
  8
HATCH
  6
Continuous
 62
     7
370
    13
100
AcDbText
 10
74.149632
 20
-40.469788
 30
0.0
 40
0.04641
  1
AREA SEEDED, IN ONE CONTINUOUS OPERATION.
  7
Style-Arial
 72
     1
 11
74.943129
 21
-40.446583
 31
0.0
100
AcDbText
 73
     2
  0
TEXT
  5
2D7
330
343
100
AcDbEntity
  8
TITLE
  6
Continuous
 62
     7
370
    13
100
AcDbText
 10
74.276206
 20
-43.615871
 30
0.0
 40
0.04641
  1
"A"
  7
Style-Arial
 72
     1
 11
74.319344
 21
-43.592666
 31
0.0
100
AcDbText
 73
     2
  0
TEXT
  5
2D8
330
343
100
AcDbEntity
  8
TEXT
  6
Continuous
 62
     7
370
    13
100
AcDbText
 10
68.193641
 20
-44.380153
 30
0.0
 40
0.04641
  1
REFERENCE:  FOR MORE INFORMATION ON GUARD RAILS
  7
Style-Arial
 72
     1
 11
69.116092
 21
-44.356948
 31
0.0
100
AcDbText
 73
     2
  0
TEXT
  5
6B
330
343
100
AcDbEntity
  8
Level 8
  6
Continuous
 62
     7
370
    13
100
AcDbText
 10
70.133895
 20
-45.073522
 30
0.0
 40
0.09282
  1
TYPICAL TERMINAL TREATMENT FOR WITH BEAM GUARD RAIL
  7
Style-Arial
 72
     1
 11
72.116824
 21
-45.027112
 31
0.0
100
AcDbText
 73
     2
  0
TEXT
  5
6F
330
343
100
AcDbEntity
  8
DIM
  6
Continuous
 62
     7
370
    13
100
AcDbText
 10
76.485235
 20
-45.033656
 30
0.0
 40
0.069615
  1
FIGURE
  7
Style-Arial
 72
     1
 11
76.666382
 21
-44.998848
 31
0.0
100
AcDbText
 73
     2
  0
TEXT
  5
70
330
343
100
AcDbEntity
  8
DIM
  6
Continuous
 62
     7
370
    13
100
AcDbText
 10
76.544764
 20
-45.147522
 30
0.0
 40
0.069615
  1
2-30l
  7
Style-Arial
 72
     1
 11
76.649425
 21
-45.112715
 31
0.0
100
AcDbText
 73
     2
  0
TEXT
  5
108
330
343
100
AcDbEntity
  8
Level 8
  6
Continuous
 62
     7
370
    13
100
AcDbText
 10
72.161621
 20
-40.093055
 30
0.0
 40
0.104422
  1
PLAN VIEW
  7
Style-Arial
 72
     1
 11
72.55806
 21
-40.040844
 31
0.0
100
AcDbText
 73
     2
  0
TEXT
  5
107
330
343
100
AcDbEntity
  8
Level 8
  6
Continuous
 62
     7
370
    13
100
AcDbText
 10
72.179882
 20
-41.425585
 30
0.0
 40
0.104422
  1
ELEVATION
  7
Style-Arial
 72
     1
 11
72.583404
 21
-41.373374
 31
0.0
100
AcDbText
 73
     2
  0
TEXT
  5
6D
330
343
100
AcDbEntity
  8
DIM
  6
Continuous
 62
     7
370
    13
100
AcDbText
 10
75.422212
 20
-45.04129
 30
0.0
 40
0.069615
  1
DATE
  7
Style-Arial
 72
     1
 11
75.549344
 21
-45.006483
 31
0.0
100
AcDbText
 73
     2
  0
TEXT
  5
103
330
343
100
AcDbEntity
  8
TITLE
  6
Continuous
 62
     7
370
    13
100
AcDbText
 10
73.620405
 20
-44.278386
 30
0.0
 40
0.104422
  1
SOLID ROCK CUT INSTALLATION
  7
Style-Arial
 72
     1
 11
74.773747
 21
-44.226175
 31
0.0
100
AcDbText
 73
     2
  0
TEXT
  5
32E
330
343
100
AcDbEntity
  8
Level 8
  6
Continuous
 62
     7
370
    13
100
AcDbText
 10
69.369168
 20
-43.829743
 30
0.0
 40
0.104422
  1
END VIEW
  7
Style-Arial
 72
     1
 11
69.729076
 21
-43.777531
 31
0.0
100
AcDbText
 73
     2
  0
TEXT
  5
101
330
343
100
AcDbEntity
  8
TITLE
  6
Continuous
 62
     7
370
    13
100
AcDbText
 10
68.950071
 20
-43.993193
 30
0.0
 40
0.104422
  1
NORMAL INSTALLATION
  7
Style-Arial
 72
     1
 11
69.795359
 21
-43.940981
 31
0.0
100
AcDbText
 73
     2
  0
ENDSEC
  0
SECTION
  2
OBJECTS
  0
DICTIONARY
  5
337
330
0
100
AcDbDictionary
281
     1
  3
ACAD_COLOR
350
356
  3
ACAD_GROUP
350
353
  3
ACAD_LAYOUT
350
347
  3
ACAD_MATERIAL
350
355
  3
ACAD_MLINESTYLE
350
341
  3
ACAD_PLOTSETTINGS
350
354
  3
ACAD_PLOTSTYLENAME
350
336
  3
ACAD_TABLESTYLE
350
36B
  3
AcadDim
350
363
  3
MicroStation
350
35B
  0
DICTIONARY
  5
333
330
332
100
AcDbDictionary
280
     1
281
     1
  3
ACAD_LAYERFILTERS
360
35A
  3
ACAD_LAYERSTATES
360
334
  0
DICTIONARY
  5
367
330
343
100
AcDbDictionary
280
     1
281
     1
  3
ACAD_SORTENTS
360
368
  0
DICTIONARY
  5
356
102
{ACAD_REACTORS
330
337
102
}
330
337
100
AcDbDictionary
281
     1
  0
DICTIONARY
  5
353
102
{ACAD_REACTORS
330
337
102
}
330
337
100
AcDbDictionary
281
     1
  0
DICTIONARY
  5
347
102
{ACAD_REACTORS
330
337
102
}
330
337
100
AcDbDictionary
281
     1
  3
Layout1
350
34B
  3
Model
350
346
  0
DICTIONARY
  5
355
102
{ACAD_REACTORS
330
337
102
}
330
337
100
AcDbDictionary
281
     1
  0
DICTIONARY
  5
341
102
{ACAD_REACTORS
330
337
102
}
330
337
100
AcDbDictionary
281
     1
  3
Standard
350
340
  0
DICTIONARY
  5
354
102
{ACAD_REACTORS
330
337
102
}
330
337
100
AcDbDictionary
281
     1
  0
ACDBDICTIONARYWDFLT
  5
336
102
{ACAD_REACTORS
330
337
102
}
330
337
100
AcDbDictionary
281
     1
  3
Normal
350
335
100
AcDbDictionaryWithDefault
340
335
  0
DICTIONARY
  5
36B
102
{ACAD_REACTORS
330
337
102
}
330
337
100
AcDbDictionary
281
     1
  0
XRECORD
  5
363
102
{ACAD_REACTORS
330
337
102
}
330
337
100
AcDbXrecord
280
     1
 90
   990106
  3
 
 60
     0
 61
     0
 62
     1
 63
     1
 64
     0
 65
     0
 66
     0
 67
     3
 68
     1
 69
     1
 70
     0
 71
     0
 72
     0
 40
0.0
170
     0
  0
DICTIONARY
  5
35B
102
{ACAD_REACTORS
330
337
102
}
330
337
100
AcDbDictionary
281
     1
  3
ApplicationElement 803
350
323
  3
ApplicationElement 808
350
328
  3
ApplicationElement 815
350
32F
  3
ModelApplicationElement 0 802
350
322
  0
DICTIONARY
  5
35A
102
{ACAD_REACTORS
330
333
102
}
330
333
100
AcDbDictionary
281
     1
  0
DICTIONARY
  5
334
102
{ACAD_REACTORS
330
333
102
}
330
333
100
AcDbDictionary
281
     1
  0
SORTENTSTABLE
  5
368
102
{ACAD_REACTORS
330
367
102
}
330
367
100
AcDbSortentsTable
330
343
331
67
  5
265
331
68
  5
266
331
69
  5
67
331
6A
  5
68
331
6B
  5
2D1
331
6C
  5
69
331
6D
  5
2D6
331
6E
  5
6A
331
6F
  5
2D2
331
70
  5
2D3
331
71
  5
6B
331
73
  5
6C
331
74
  5
6D
331
75
  5
6E
331
76
  5
6F
331
77
  5
70
331
78
  5
71
331
79
  5
73
331
7A
  5
74
331
7B
  5
75
331
7C
  5
76
331
7D
  5
77
331
7E
  5
78
331
7F
  5
79
331
80
  5
7A
331
81
  5
7B
331
82
  5
7C
331
83
  5
7D
331
84
  5
7E
331
85
  5
7F
331
86
  5
80
331
87
  5
81
331
88
  5
82
331
89
  5
83
331
8A
  5
84
331
8B
  5
85
331
8C
  5
86
331
8D
  5
87
331
8E
  5
88
331
8F
  5
89
331
90
  5
8A
331
91
  5
8B
331
92
  5
8C
331
93
  5
8D
331
94
  5
8E
331
95
  5
8F
331
96
  5
90
331
97
  5
91
331
98
  5
92
331
99
  5
93
331
9A
  5
94
331
9B
  5
95
331
9C
  5
96
331
9D
  5
97
331
9E
  5
98
331
9F
  5
99
331
A0
  5
9A
331
A1
  5
9B
331
A2
  5
9C
331
A3
  5
9D
331
A4
  5
9E
331
A5
  5
9F
331
A6
  5
A0
331
A7
  5
A1
331
A8
  5
A2
331
A9
  5
A3
331
AA
  5
A4
331
AB
  5
A5
331
AC
  5
A6
331
AD
  5
A7
331
AE
  5
A8
331
AF
  5
A9
331
B0
  5
AA
331
B1
  5
AB
331
B2
  5
AC
331
B3
  5
AD
331
B4
  5
AE
331
B5
  5
AF
331
B6
  5
B0
331
B7
  5
B1
331
B8
  5
B2
331
B9
  5
B3
331
BA
  5
B4
331
BB
  5
B5
331
BC
  5
B6
331
BD
  5
B7
331
BE
  5
B8
331
BF
  5
B9
331
C0
  5
BA
331
C1
  5
BB
331
C2
  5
BC
331
C3
  5
BD
331
C4
  5
BE
331
C5
  5
BF
331
C6
  5
C0
331
C7
  5
C1
331
C8
  5
C2
331
C9
  5
C3
331
CA
  5
C4
331
CB
  5
C5
331
CC
  5
C6
331
CD
  5
C7
331
CE
  5
C8
331
CF
  5
C9
331
D0
  5
CA
331
D1
  5
CB
331
D2
  5
CC
331
D3
  5
CD
331
D4
  5
CE
331
D5
  5
CF
331
D6
  5
D0
331
D7
  5
D1
331
D8
  5
D2
331
D9
  5
D3
331
DA
  5
D4
331
DB
  5
D5
331
DC
  5
D6
331
DD
  5
D7
331
DE
  5
D8
331
DF
  5
D9
331
E0
  5
DA
331
E1
  5
DB
331
E2
  5
DC
331
E3
  5
DD
331
E4
  5
DE
331
E5
  5
DF
331
E6
  5
267
331
E7
  5
268
331
E8
  5
E0
331
E9
  5
E1
331
EA
  5
E2
331
EB
  5
E3
331
EC
  5
269
331
ED
  5
26A
331
EE
  5
E4
331
EF
  5
E5
331
F0
  5
E6
331
F1
  5
E7
331
F2
  5
E8
331
F3
  5
E9
331
F4
  5
EA
331
F5
  5
EB
331
F6
  5
EC
331
F7
  5
ED
331
F8
  5
EE
331
F9
  5
EF
331
FA
  5
F0
331
FB
  5
26B
331
FC
  5
26C
331
FD
  5
26D
331
FE
  5
F1
331
FF
  5
F2
331
100
  5
F3
331
101
  5
32E
331
102
  5
26E
331
103
  5
2D7
331
104
  5
26F
331
105
  5
270
331
107
  5
2D5
331
108
  5
2D4
331
109
  5
271
331
10A
  5
272
331
10B
  5
273
331
10C
  5
274
331
10D
  5
275
331
10E
  5
276
331
10F
  5
F4
331
110
  5
F5
331
111
  5
F6
331
112
  5
F7
331
113
  5
F8
331
114
  5
F9
331
115
  5
FA
331
116
  5
FB
331
117
  5
FC
331
118
  5
FD
331
119
  5
FE
331
11A
  5
FF
331
11B
  5
100
331
11C
  5
101
331
11D
  5
102
331
11E
  5
103
331
11F
  5
104
331
120
  5
105
331
121
  5
107
331
123
  5
108
331
124
  5
109
331
125
  5
10A
331
126
  5
10B
331
127
  5
10C
331
128
  5
10D
331
129
  5
10E
331
12A
  5
10F
331
12B
  5
110
331
12C
  5
111
331
12D
  5
112
331
12E
  5
113
331
12F
  5
114
331
130
  5
115
331
131
  5
116
331
132
  5
117
331
133
  5
118
331
13C
  5
119
331
145
  5
11A
331
146
  5
11B
331
147
  5
11C
331
148
  5
11D
331
149
  5
11E
331
14A
  5
11F
331
14B
  5
120
331
14C
  5
121
331
14D
  5
123
331
14E
  5
124
331
14F
  5
125
331
150
  5
126
331
151
  5
127
331
152
  5
128
331
153
  5
277
331
154
  5
129
331
155
  5
12A
331
156
  5
12B
331
157
  5
278
331
158
  5
12C
331
159
  5
12D
331
15A
  5
12E
331
15B
  5
279
331
15C
  5
12F
331
15D
  5
130
331
15E
  5
131
331
15F
  5
132
331
160
  5
133
331
161
  5
27A
331
162
  5
13C
331
163
  5
145
331
164
  5
146
331
165
  5
147
331
166
  5
148
331
167
  5
149
331
168
  5
27B
331
169
  5
27C
331
16A
  5
27D
331
16B
  5
14A
331
16C
  5
14B
331
16D
  5
14C
331
16E
  5
14D
331
16F
  5
14E
331
170
  5
27E
331
171
  5
27F
331
172
  5
280
331
173
  5
14F
331
174
  5
150
331
175
  5
151
331
176
  5
152
331
177
  5
153
331
178
  5
154
331
179
  5
155
331
17A
  5
156
331
17B
  5
157
331
17C
  5
158
331
17D
  5
159
331
17E
  5
15A
331
17F
  5
15B
331
180
  5
15C
331
181
  5
15D
331
182
  5
15E
331
183
  5
15F
331
184
  5
160
331
185
  5
161
331
186
  5
162
331
187
  5
163
331
188
  5
164
331
189
  5
165
331
18A
  5
166
331
18B
  5
167
331
18C
  5
168
331
18D
  5
169
331
18E
  5
16A
331
18F
  5
16B
331
190
  5
16C
331
191
  5
16D
331
192
  5
16E
331
193
  5
16F
331
194
  5
170
331
196
  5
171
331
198
  5
172
331
199
  5
173
331
19A
  5
174
331
19B
  5
175
331
19C
  5
176
331
19D
  5
177
331
19E
  5
178
331
19F
  5
179
331
1B0
  5
17A
331
1C1
  5
17B
331
1C2
  5
17C
331
1C3
  5
17D
331
1C4
  5
17E
331
1C5
  5
17F
331
1C6
  5
281
331
1C7
  5
180
331
1C8
  5
181
331
1C9
  5
182
331
1CA
  5
282
331
1CB
  5
183
331
1CC
  5
184
331
1CD
  5
185
331
1CE
  5
283
331
1CF
  5
186
331
1D0
  5
187
331
1D1
  5
188
331
1D2
  5
284
331
1D3
  5
285
331
1D4
  5
189
331
1D5
  5
18A
331
1D6
  5
18B
331
1D7
  5
286
331
1D8
  5
287
331
1D9
  5
288
331
1DA
  5
289
331
1DB
  5
28A
331
1DC
  5
28B
331
1DD
  5
28C
331
1DE
  5
28D
331
1DF
  5
28E
331
1E0
  5
28F
331
1E1
  5
290
331
1E2
  5
291
331
1E3
  5
18C
331
1E5
  5
292
331
1E6
  5
293
331
1E7
  5
294
331
1E8
  5
295
331
1E9
  5
296
331
1EA
  5
297
331
1EB
  5
298
331
1EC
  5
299
331
1ED
  5
29A
331
1EE
  5
29B
331
1EF
  5
29C
331
1F0
  5
29D
331
1F1
  5
29E
331
1F2
  5
29F
331
1F3
  5
2A0
331
1F4
  5
2A1
331
1F5
  5
2A2
331
1F6
  5
2A3
331
1F7
  5
2A4
331
1F8
  5
2A5
331
1F9
  5
2A6
331
1FA
  5
2A7
331
1FB
  5
18D
331
1FC
  5
18E
331
1FD
  5
18F
331
1FE
  5
2A8
331
1FF
  5
190
331
200
  5
191
331
201
  5
192
331
202
  5
2A9
331
203
  5
193
331
204
  5
194
331
205
  5
196
331
206
  5
198
331
207
  5
199
331
208
  5
19A
331
209
  5
19B
331
20A
  5
19C
331
20B
  5
19D
331
20C
  5
19E
331
20D
  5
19F
331
20E
  5
1B0
331
20F
  5
1C1
331
210
  5
1C2
331
211
  5
1C3
331
212
  5
1C4
331
213
  5
1C5
331
214
  5
1C6
331
215
  5
1C7
331
216
  5
1C8
331
217
  5
1C9
331
218
  5
1CA
331
219
  5
1CB
331
21A
  5
1CC
331
21B
  5
1CD
331
21C
  5
1CE
331
21D
  5
1CF
331
21E
  5
1D0
331
21F
  5
1D1
331
220
  5
1D2
331
221
  5
1D3
331
222
  5
1D4
331
223
  5
1D5
331
224
  5
1D6
331
225
  5
1D7
331
226
  5
1D8
331
227
  5
1D9
331
228
  5
1DA
331
229
  5
1DB
331
22A
  5
1DC
331
22B
  5
1DD
331
22C
  5
1DE
331
22E
  5
1DF
331
22F
  5
1E0
331
230
  5
1E1
331
231
  5
2AA
331
232
  5
1E2
331
233
  5
1E3
331
234
  5
1E5
331
235
  5
2AB
331
236
  5
1E6
331
237
  5
1E7
331
238
  5
1E8
331
239
  5
1E9
331
23A
  5
1EA
331
23B
  5
1EB
331
23C
  5
1EC
331
23D
  5
1ED
331
23E
  5
1EE
331
23F
  5
1EF
331
240
  5
1F0
331
241
  5
1F1
331
242
  5
1F2
331
243
  5
1F3
331
244
  5
1F4
331
245
  5
1F5
331
246
  5
1F6
331
247
  5
1F7
331
248
  5
1F8
331
249
  5
1F9
331
24A
  5
1FA
331
24B
  5
1FB
331
24C
  5
1FC
331
24D
  5
1FD
331
24E
  5
1FE
331
24F
  5
1FF
331
250
  5
200
331
251
  5
201
331
252
  5
202
331
253
  5
203
331
254
  5
204
331
255
  5
205
331
256
  5
206
331
257
  5
207
331
258
  5
208
331
259
  5
209
331
25A
  5
20A
331
25B
  5
20B
331
25C
  5
20C
331
25D
  5
20D
331
25E
  5
20E
331
25F
  5
20F
331
260
  5
210
331
261
  5
211
331
262
  5
212
331
263
  5
213
331
264
  5
214
331
265
  5
215
331
266
  5
216
331
267
  5
217
331
268
  5
218
331
269
  5
219
331
26A
  5
21A
331
26B
  5
21B
331
26C
  5
21C
331
26D
  5
21D
331
26E
  5
21E
331
26F
  5
21F
331
270
  5
220
331
271
  5
221
331
272
  5
222
331
273
  5
223
331
274
  5
224
331
275
  5
225
331
276
  5
226
331
277
  5
227
331
278
  5
228
331
279
  5
229
331
27A
  5
22A
331
27B
  5
22B
331
27C
  5
22C
331
27D
  5
22E
331
27E
  5
22F
331
27F
  5
230
331
280
  5
231
331
281
  5
232
331
282
  5
233
331
283
  5
234
331
284
  5
235
331
285
  5
236
331
286
  5
2AC
331
287
  5
237
331
288
  5
238
331
289
  5
239
331
28A
  5
23A
331
28B
  5
2AD
331
28C
  5
2AE
331
28D
  5
23B
331
28E
  5
23C
331
28F
  5
23D
331
290
  5
2AF
331
291
  5
23E
331
292
  5
23F
331
293
  5
240
331
294
  5
2B0
331
295
  5
241
331
296
  5
242
331
297
  5
243
331
298
  5
2B1
331
299
  5
244
331
29A
  5
245
331
29B
  5
246
331
29C
  5
2B2
331
29D
  5
2B3
331
29E
  5
2B4
331
29F
  5
247
331
2A0
  5
248
331
2A1
  5
249
331
2A2
  5
24A
331
2A3
  5
24B
331
2A4
  5
24C
331
2A5
  5
24D
331
2A6
  5
2B5
331
2A7
  5
24E
331
2A8
  5
24F
331
2A9
  5
250
331
2AA
  5
251
331
2AB
  5
252
331
2AC
  5
253
331
2AD
  5
254
331
2AE
  5
255
331
2AF
  5
256
331
2B0
  5
257
331
2B1
  5
258
331
2B2
  5
259
331
2B3
  5
2B6
331
2B4
  5
2B7
331
2B5
  5
2B8
331
2B6
  5
2B9
331
2B7
  5
2BA
331
2B8
  5
2BB
331
2B9
  5
2BC
331
2BA
  5
25A
331
2BB
  5
25B
331
2BC
  5
25C
331
2C9
  5
25D
331
2CA
  5
25E
331
2CB
  5
25F
331
2CC
  5
260
331
2CD
  5
261
331
2CE
  5
2C9
331
2CF
  5
2CA
331
2D0
  5
2CB
331
2D1
  5
2CC
331
2D2
  5
2CD
331
2D3
  5
2CE
331
2D4
  5
262
331
2D5
  5
263
331
2D6
  5
264
331
2D7
  5
2CF
331
2D8
  5
2D0
331
32E
  5
2D8
  0
LAYOUT
  5
34B
102
{ACAD_REACTORS
330
347
330
347
102
}
102
{ACAD_XDICTIONARY
360
34C
102
}
330
347
100
AcDbPlotSettings
  1

  2
none_device
  4
Letter_(8.50_x_11.00_Inches)
  6

 40
6.35
 41
6.35
 42
6.350006
 43
6.350006
 44
215.899994
 45
279.399994
 46
0.0
 47
0.0
 48
0.0
 49
0.0
140
0.0
141
0.0
142
1.0
143
1.0
 70
   688
 72
     0
 73
     1
 74
     5
  7

 75
    16
 76
     0
 77
     2
 78
   300
147
1.0
148
0.0
149
0.0
100
AcDbLayout
  1
Layout1
 70
     1
 71
     1
 10
-0.25
 20
-0.25
 11
10.75
 21
8.25
 12
0.0
 22
0.0
 32
0.0
 14
1.049744
 24
0.799667
 34
-0.001526
 15
9.450623
 25
7.200577
 35
0.0
146
0.0
 13
0.0
 23
0.0
 33
0.0
 16
1.0
 26
0.0
 36
0.0
 17
0.0
 27
1.0
 37
0.0
 76
     0
330
348
1001
ACAD_PSEXT
1000
None
1000
None
1000
Not applicable
1000
The layout will not be plotted unless a new plotter configuration name is selected.
1070
     0
  0
LAYOUT
  5
346
102
{ACAD_REACTORS
330
347
330
347
102
}
330
347
100
AcDbPlotSettings
  1

  2
none_device
  4
ANSI_A_(8.50_x_11.00_Inches)
  6

 40
6.35
 41
19.049999
 42
6.350006
 43
19.049988
 44
215.899994
 45
279.399994
 46
0.0
 47
0.0
 48
0.0
 49
0.0
140
0.0
141
0.0
142
1.0
143
2.584895
 70
 11952
 72
     0
 73
     1
 74
     0
  7

 75
     0
 76
     0
 77
     2
 78
   300
147
0.386863
148
0.0
149
0.0
100
AcDbLayout
  1
Model
 70
     1
 71
     0
 10
0.0
 20
0.0
 11
12.0
 21
9.0
 12
0.0
 22
0.0
 32
0.0
 14
0.0
 24
0.0
 34
0.0
 15
0.0
 25
0.0
 35
0.0
146
0.0
 13
0.0
 23
0.0
 33
0.0
 16
1.0
 26
0.0
 36
0.0
 17
0.0
 27
1.0
 37
0.0
 76
     0
330
343
331
49
  0
MLINESTYLE
  5
340
102
{ACAD_REACTORS
330
341
102
}
330
341
100
AcDbMlineStyle
  2
STANDARD
 70
     0
  3

 62
   256
 51
90.0
 52
90.0
 71
     2
 49
0.5
 62
   256
  6
BYLAYER
 49
-0.5
 62
   256
  6
BYLAYER
  0
ACDBPLACEHOLDER
  5
335
102
{ACAD_REACTORS
330
336
102
}
330
336
  0
XRECORD
  5
323
102
{ACAD_REACTORS
330
35B
102
}
330
35B
100
AcDbXrecord
280
     1
310
3E4F020000004D6F64656C6572000000000000000000000000000000000000000000000000000000000000000000000000000000000000000000000000000000000000000000000000000000000000000000000000000000000000000000000000000000000000000000000000000000000000000000000000000000000000
310
00000000000000000000000000000000000000000000000000000000000000000000000000000000000000000000000000000000000000000000000000000000000000000000000000000000000000000000000000000000000000000000000000000000000000000000000000000000000000000000000000000000000000
310
00
310
00000000000000000000000000000000000000000000000000000000000000000000000000000000000000000000000000000000000000000000000000000000000000000000000000000000000000000000000000000000000000000000000000000000000000000000000000000000000000000000000000000000000000
310
00000000000000000000000000000000000000000000000000000000000000000000000000000000000000000000000000000000000000000000000000000000000000000000000000000000000000000000000000000000000000000000000000000000000000000000000000000000000000000000000000000000000000
310
00
310
00000000000000000000000000000000000000000000000000000000000000000000000000000000000000000000000000000000000000000000000000000000000000000000000000000000000000000000000000000000000000000000000000000000000000000000000000000000000000000000000000000000000000
310
00000000000000000000000000000000000000000000000000000000000000000000000000000000000000000000000000000000000000000000000000000000000000000000000000000000000000000000000000000000000000000000000000000000000000000000000000000000000000000000000000000000000000
310
00
310
00000000000000000000000000000000000000000000000000000000000000000000000000000000000000000000000000000000000000000000000000000000000000000000000000000000000000000000000000000000000000000000000000000000000000000000000000000000000000000000000000000000000000
310
00000000000000000000000000000000000000000000000000000000000000000000000000000000000000000000000000000000000000000000000000000000000000000000000000000000000000000000000000000000000000000000000000000000000000000000000000000000000000000000000000000000000000
310
00
310
00000000000000000000000000000000000000000000000000000000000000000000000000000000000000000000000000000000000000000000000000000000000000000000000000000000000000000000000000000000000000000000000000000000000000000000000000000000000000000000000000000000000000
310
00000000000000000000000000000000000000000000000000000000000000000000000000000000000000000000000000000000000000000000000000000000000000000000000000000000000000000000000000000000000000000000000000000000000000000000000000000000000000000000000000000000000000
310
00
310
00000000000000000000000000000000000000000000000000000000000000000000000000000000000000000000000000000000000000000000000000000000000000000000000000000000000000000000000000000000000000000000000000000000000000000000000000000000000000000000000000000000000000
310
00000000000000000000000000000000000000000000000000000000000000000000000000000000000000000000000000000000000000000000000000000000000000000000000000000000000000000000000000000000000000000000000000000000000000000000000000000000000000000000000000000000000000
310
00
310
00000000000000000000000000000000000000000000000000000000000000000000000000000000000000000000000000000000000000000000000000000000000000000000000000000000000000000000000000000000000000000000000000000000000000000000000000000000000000000000000000000000000000
310
00000000000000000000000000000000000000000000000000000000000000000000000000000000000000000000000000000000000000000000000000000000000000000000000000000000000000000000000000000000000000000000000000000000000000000000000000000000000000000000000000000000000000
310
00
310
00000000000000000000000000000000000000000000000000000000000000000000000000000000000000000000000000000000000000000000000000000000000000000000000000000000000000000000000000000000000000000000000000000000000000000000000000000000000000000000000000000000000000
310
00000000000000000000000000000000000000000000000000000000000000000000000000000000000000000000000000000000000000000000000000000000000000000000000000000000000000000000000000000000000000000000000000000000000000000000000000000000000000000000000000000000000000
310
00
310
00000000000000000000000000000000000000000000000000000000000000000000000000000000000000000000000000000000000000000000000000000000000000000000000000000000000000000000000000000000000000000000000000000000000000000000000000000000000000000000000000000000000000
310
00000000000000000000000000000000000000000000000000000000000000000000000000000000000000000000000000000000000000000000000000000000000000000000000000000000000000000000000000000000000000000000000000000000000000000000000000000000000000000000000000000000000000
310
00
310
00000000000000000000000000000000000000000000000000000000000000000000000000000000000000000000000000000000000000000000000000000000000000000000000000000000000000000000000000000000000000000000000000000000000000000000000000000000000000000000000000000000000000
310
00000000000000000000000000000000000000000000000000000000000000000000000000000000000000000000000000000000000000000000000000000000000000000000000000000000000000000000000000000000000000000000000000000000000000000000000000000000000000000000000000000000000000
310
00
310
00000000000000000000000000000000000000000000000000000000000000000000000000000000000000000000000000000000000000000000000000000000000000000000000000000000000000000000000000000000000000000000000000000000000000000000000000000000000000000000000000000000000000
310
00000000000000000000000000000000000000000000000000000000000000000000000000000000000000000000000000000000000000000000000000000000000000000000000000000000000000000000000000000000000000000000000000000000000000000000000000000000000000000000000000000000000000
310
00
310
00000000000000000000000000000000000000000000000000000000000000000000000000000000000000000000000000000000000000000000000000000000000000000000000000000000000000000000000000000000000000000000000000000000000000000000000000000000000000000000000000000000000000
310
00000000000000000000000000000000000000000000000000000000000000000000000000000000000000000000000000000000000000000000000000000000000000000000000000000000000000000000000000000000000000000000000000000000000000000000000000000000000000000000000000000000000000
310
00
310
00000000000000000000000000000000000000000000000000000000000000000000000000000000000000000000000000000000000000000000000000000000000000000000000000000000000000000000000000000000000000000000000000000000000000000000000000000000000000000000000000000000000000
310
00000000000000000000000000000000000000000000000000000000000000000000000000000000000000000000000000000000000000000000000000000000000000000000000000000000000000000000000000000000000000000000000000000000000000000000000000000000000000000000000000000000000000
310
00
310
00000000000000000000000000000000000000000000000000000000000000000000000000000000000000000000000000000000000000000000000000000000000000000000000000000000000000000000000000000000000000000000000000000000000000000000000000000000000000
  0
XRECORD
  5
328
102
{ACAD_REACTORS
330
35B
102
}
330
35B
100
AcDbXrecord
280
     1
310
3E4F020000004D6F64656C6572000000000000000000000000000000000000000000000000000000000000000000000000000000000000000000000000000000000000000000000000000000000000000000000000000000000000000000000000000000000000000000000000000000000000000000000000000000000000
310
00000000000000000000000000000000000000000000000000000000000000000000000000000000000000000000000000000000000000000000000000000000000000000000000000000000000000000000000000000000000000000000000000000000000000000000000000000000000000000000000000000000000000
310
00
310
00000000000000000000000000000000000000000000000000000000000000000000000000000000000000000000000000000000000000000000000000000000000000000000000000000000000000000000000000000000000000000000000000000000000000000000000000000000000000000000000000000000000000
310
00000000000000000000000000000000000000000000000000000000000000000000000000000000000000000000000000000000000000000000000000000000000000000000000000000000000000000000000000000000000000000000000000000000000000000000000000000000000000000000000000000000000000
310
00
310
00000000000000000000000000000000000000000000000000000000000000000000000000000000000000000000000000000000000000000000000000000000000000000000000000000000000000000000000000000000000000000000000000000000000000000000000000000000000000000000000000000000000000
310
00000000000000000000000000000000000000000000000000000000000000000000000000000000000000000000000000000000000000000000000000000000000000000000000000000000000000000000000000000000000000000000000000000000000000000000000000000000000000000000000000000000000000
310
00
310
00000000000000000000000000000000000000000000000000000000000000000000000000000000000000000000000000000000000000000000000000000000000000000000000000000000000000000000000000000000000000000000000000000000000000000000000000000000000000000000000000000000000000
310
00000000000000000000000000000000000000000000000000000000000000000000000000000000000000000000000000000000000000000000000000000000000000000000000000000000000000000000000000000000000000000000000000000000000000000000000000000000000000000000000000000000000000
310
00
310
00000000000000000000000000000000000000000000000000000000000000000000000000000000000000000000000000000000000000000000000000000000000000000000000000000000000000000000000000000000000000000000000000000000000000000000000000000000000000000000000000000000000000
310
00000000000000000000000000000000000000000000000000000000000000000000000000000000000000000000000000000000000000000000000000000000000000000000000000000000000000000000000000000000000000000000000000000000000000000000000000000000000000000000000000000000000000
310
00
310
00000000000000000000000000000000000000000000000000000000000000000000000000000000000000000000000000000000000000000000000000000000000000000000000000000000000000000000000000000000000000000000000000000000000000000000000000000000000000000000000000000000000000
310
00000000000000000000000000000000000000000000000000000000000000000000000000000000000000000000000000000000000000000000000000000000000000000000000000000000000000000000000000000000000000000000000000000000000000000000000000000000000000000000000000000000000000
310
00
310
00000000000000000000000000000000000000000000000000000000000000000000000000000000000000000000000000000000000000000000000000000000000000000000000000000000000000000000000000000000000000000000000000000000000000000000000000000000000000000000000000000000000000
310
00000000000000000000000000000000000000000000000000000000000000000000000000000000000000000000000000000000000000000000000000000000000000000000000000000000000000000000000000000000000000000000000000000000000000000000000000000000000000000000000000000000000000
310
00
310
00000000000000000000000000000000000000000000000000000000000000000000000000000000000000000000000000000000000000000000000000000000000000000000000000000000000000000000000000000000000000000000000000000000000000000000000000000000000000000000000000000000000000
310
00000000000000000000000000000000000000000000000000000000000000000000000000000000000000000000000000000000000000000000000000000000000000000000000000000000000000000000000000000000000000000000000000000000000000000000000000000000000000000000000000000000000000
310
00
310
00000000000000000000000000000000000000000000000000000000000000000000000000000000000000000000000000000000000000000000000000000000000000000000000000000000000000000000000000000000000000000000000000000000000000000000000000000000000000000000000000000000000000
310
00000000000000000000000000000000000000000000000000000000000000000000000000000000000000000000000000000000000000000000000000000000000000000000000000000000000000000000000000000000000000000000000000000000000000000000000000000000000000000000000000000000000000
310
00
310
00000000000000000000000000000000000000000000000000000000000000000000000000000000000000000000000000000000000000000000000000000000000000000000000000000000000000000000000000000000000000000000000000000000000000000000000000000000000000000000000000000000000000
310
00000000000000000000000000000000000000000000000000000000000000000000000000000000000000000000000000000000000000000000000000000000000000000000000000000000000000000000000000000000000000000000000000000000000000000000000000000000000000000000000000000000000000
310
00
310
00000000000000000000000000000000000000000000000000000000000000000000000000000000000000000000000000000000000000000000000000000000000000000000000000000000000000000000000000000000000000000000000000000000000000000000000000000000000000000000000000000000000000
310
00000000000000000000000000000000000000000000000000000000000000000000000000000000000000000000000000000000000000000000000000000000000000000000000000000000000000000000000000000000000000000000000000000000000000000000000000000000000000000000000000000000000000
310
00
310
00000000000000000000000000000000000000000000000000000000000000000000000000000000000000000000000000000000000000000000000000000000000000000000000000000000000000000000000000000000000000000000000000000000000000000000000000000000000000000000000000000000000000
310
00000000000000000000000000000000000000000000000000000000000000000000000000000000000000000000000000000000000000000000000000000000000000000000000000000000000000000000000000000000000000000000000000000000000000000000000000000000000000000000000000000000000000
310
00
310
00000000000000000000000000000000000000000000000000000000000000000000000000000000000000000000000000000000000000000000000000000000000000000000000000000000000000000000000000000000000000000000000000000000000000000000000000000000000000000000000000000000000000
310
00000000000000000000000000000000000000000000000000000000000000000000000000000000000000000000000000000000000000000000000000000000000000000000000000000000000000000000000000000000000000000000000000000000000000000000000000000000000000000000000000000000000000
310
00
310
00000000000000000000000000000000000000000000000000000000000000000000000000000000000000000000000000000000000000000000000000000000000000000000000000000000000000000000000000000000000000000000000000000000000000000000000000000000000000
  0
XRECORD
  5
32F
102
{ACAD_REACTORS
330
35B
102
}
330
35B
100
AcDbXrecord
280
     1
310
3E4F020000004D6F64656C6572000000000000000000000000000000000000000000000000000000000000000000000000000000000000000000000000000000000000000000000000000000000000000000000000000000000000000000000000000000000000000000000000000000000000000000000000000000000000
310
00000000000000000000000000000000000000000000000000000000000000000000000000000000000000000000000000000000000000000000000000000000000000000000000000000000000000000000000000000000000000000000000000000000000000000000000000000000000000000000000000000000000000
310
00
310
00000000000000000000000000000000000000000000000000000000000000000000000000000000000000000000000000000000000000000000000000000000000000000000000000000000000000000000000000000000000000000000000000000000000000000000000000000000000000000000000000000000000000
310
00000000000000000000000000000000000000000000000000000000000000000000000000000000000000000000000000000000000000000000000000000000000000000000000000000000000000000000000000000000000000000000000000000000000000000000000000000000000000000000000000000000000000
310
00
310
00000000000000000000000000000000000000000000000000000000000000000000000000000000000000000000000000000000000000000000000000000000000000000000000000000000000000000000000000000000000000000000000000000000000000000000000000000000000000000000000000000000000000
310
00000000000000000000000000000000000000000000000000000000000000000000000000000000000000000000000000000000000000000000000000000000000000000000000000000000000000000000000000000000000000000000000000000000000000000000000000000000000000000000000000000000000000
310
00
310
00000000000000000000000000000000000000000000000000000000000000000000000000000000000000000000000000000000000000000000000000000000000000000000000000000000000000000000000000000000000000000000000000000000000000000000000000000000000000000000000000000000000000
310
00000000000000000000000000000000000000000000000000000000000000000000000000000000000000000000000000000000000000000000000000000000000000000000000000000000000000000000000000000000000000000000000000000000000000000000000000000000000000000000000000000000000000
310
00
310
00000000000000000000000000000000000000000000000000000000000000000000000000000000000000000000000000000000000000000000000000000000000000000000000000000000000000000000000000000000000000000000000000000000000000000000000000000000000000000000000000000000000000
310
00000000000000000000000000000000000000000000000000000000000000000000000000000000000000000000000000000000000000000000000000000000000000000000000000000000000000000000000000000000000000000000000000000000000000000000000000000000000000000000000000000000000000
310
00
310
00000000000000000000000000000000000000000000000000000000000000000000000000000000000000000000000000000000000000000000000000000000000000000000000000000000000000000000000000000000000000000000000000000000000000000000000000000000000000000000000000000000000000
310
00000000000000000000000000000000000000000000000000000000000000000000000000000000000000000000000000000000000000000000000000000000000000000000000000000000000000000000000000000000000000000000000000000000000000000000000000000000000000000000000000000000000000
310
00
310
00000000000000000000000000000000000000000000000000000000000000000000000000000000000000000000000000000000000000000000000000000000000000000000000000000000000000000000000000000000000000000000000000000000000000000000000000000000000000000000000000000000000000
310
00000000000000000000000000000000000000000000000000000000000000000000000000000000000000000000000000000000000000000000000000000000000000000000000000000000000000000000000000000000000000000000000000000000000000000000000000000000000000000000000000000000000000
310
00
310
00000000000000000000000000000000000000000000000000000000000000000000000000000000000000000000000000000000000000000000000000000000000000000000000000000000000000000000000000000000000000000000000000000000000000000000000000000000000000000000000000000000000000
310
00000000000000000000000000000000000000000000000000000000000000000000000000000000000000000000000000000000000000000000000000000000000000000000000000000000000000000000000000000000000000000000000000000000000000000000000000000000000000000000000000000000000000
310
00
310
00000000000000000000000000000000000000000000000000000000000000000000000000000000000000000000000000000000000000000000000000000000000000000000000000000000000000000000000000000000000000000000000000000000000000000000000000000000000000000000000000000000000000
310
00000000000000000000000000000000000000000000000000000000000000000000000000000000000000000000000000000000000000000000000000000000000000000000000000000000000000000000000000000000000000000000000000000000000000000000000000000000000000000000000000000000000000
310
00
310
00000000000000000000000000000000000000000000000000000000000000000000000000000000000000000000000000000000000000000000000000000000000000000000000000000000000000000000000000000000000000000000000000000000000000000000000000000000000000000000000000000000000000
310
00000000000000000000000000000000000000000000000000000000000000000000000000000000000000000000000000000000000000000000000000000000000000000000000000000000000000000000000000000000000000000000000000000000000000000000000000000000000000000000000000000000000000
310
00
310
00000000000000000000000000000000000000000000000000000000000000000000000000000000000000000000000000000000000000000000000000000000000000000000000000000000000000000000000000000000000000000000000000000000000000000000000000000000000000000000000000000000000000
310
00000000000000000000000000000000000000000000000000000000000000000000000000000000000000000000000000000000000000000000000000000000000000000000000000000000000000000000000000000000000000000000000000000000000000000000000000000000000000000000000000000000000000
310
00
310
00000000000000000000000000000000000000000000000000000000000000000000000000000000000000000000000000000000000000000000000000000000000000000000000000000000000000000000000000000000000000000000000000000000000000000000000000000000000000000000000000000000000000
310
00000000000000000000000000000000000000000000000000000000000000000000000000000000000000000000000000000000000000000000000000000000000000000000000000000000000000000000000000000000000000000000000000000000000000000000000000000000000000000000000000000000000000
310
00
310
00000000000000000000000000000000000000000000000000000000000000000000000000000000000000000000000000000000000000000000000000000000000000000000000000000000000000000000000000000000000000000000000000000000000000000000000000000000000000000000000000000000000000
310
00000000000000000000000000000000000000000000000000000000000000000000000000000000000000000000000000000000000000000000000000000000000000000000000000000000000000000000000000000000000000000000000000000000000000000000000000000000000000000000000000000000000000
310
00
310
00000000000000000000000000000000000000000000000000000000000000000000000000000000000000000000000000000000000000000000000000000000000000000000000000000000000000000000000000000000000000000000000000000000000000000000000000000000000000
  0
XRECORD
  5
322
102
{ACAD_REACTORS
330
35B
102
}
330
35B
100
AcDbXrecord
280
     1
310
DF56060034040701D0009A9999999999B93F000000000000000000000000000000000400000009000000000000000200000064000000640000000100000001000000190000007B14AE47E17A843F00000000004060409A9999999999B93F00000000004C2D41000000000070F7400000000000942141000000000000000000
310
0000000000000000000000000000000AD482040000000000000000000000000000F03F000000000000000000000000000030402D431CEBE2362A3F00000000000008400000000000000000009807C000000000000000007C1A61B9A711364020000000050000000A000000200000002000000020000000000000000000F03F
310
00
310
0000000000F03F000000000000F03F333333333333D33F333333333333D33F333333333333D33F000000000000F43F000000000000F43F000000000000F03F0200000064000000000000000000000000000840000000000000F83F00000000000000000000000000000000008056409A9999999999B93F0000000000000000
310
00000000000000000000000000000000000000000000000000000000000000000000000000000000000000000000000000000000000000000000000000000000000000000000000000000000000000000000000000000000000000000000000000000000000000000000000000000000000000000000000000000000000000
310
00
310
0000000000000000000000000000000000000000000000000000000000000000000000000000000000000000000000000000000000000000000000000000000000000000000000000000000000000000000000000000000000000000000000000000000000000000000000000000000000000000000000009A9999999999A9
310
3F9100000000000000000000000000000035A781D547960F40000000000000F03F000000000000F03F666666666666164000000000104068F200000000000000000000000000000000000000000000000000000000000000000000000000000000000000000000000000000000000000000000000000000000000000000000
310
00
310
00000000000000000000000000000000000000000000000000000000000000000000000000000000000000000000000000000000000000000000000000000000000000000000000000000000000000000000000000000000000000000000000000000000000000000000000000000000000000000000000000000000000000
310
000000000000000000000000000000000000000000000000000000000000000000000000000000000000000000000000000000000000000000000000FF000000000000000000000000000000000000000000000000000000000000000000000000000000000000000000000000000000000000000000000000000000000000
310
00
310
0000000000000000000000000000000000000000000000000000000000000000000000000000000000000000000000000000000000000000000000000000000000000000
  0
DICTIONARY
  5
34C
330
34B
100
AcDbDictionary
280
     1
281
     1
  3
ADSK_XREC_LAYOUTTHUMBNAIL
360
34D
  0
XRECORD
  5
34D
102
{ACAD_REACTORS
330
34C
102
}
330
34C
100
AcDbXrecord
280
     1
310
28000000B40000008B0000000100080000000000BC61000000000000000000000001000000000000FFFFFF0000000000FFFFFF000000000000000000000000000000000000000000000000000000000000000000330000006600000099000000CC000000FF00000000330000333300006633000099330000CC330000FF3300
310
0000660000336600006666000099660000CC660000FF66000000990000339900006699000099990000CC990000FF99000000CC000033CC000066CC000099CC0000CCCC0000FFCC000000FF000033FF000066FF000099FF0000CCFF0000FFFF000000003300330033006600330099003300CC003300FF003300003333003333
310
33006633330099333300CC333300FF33330000663300336633006666330099663300CC663300FF66330000993300339933006699330099993300CC993300FF99330000CC330033CC330066CC330099CC3300CCCC3300FFCC330000FF330033FF330066FF330099FF3300CCFF3300FFFF330000006600330066006600660099
310
006600CC006600FF00660000336600333366006633660099336600CC336600FF33660000666600336666006666660099666600CC666600FF66660000996600339966006699660099996600CC996600FF99660000CC660033CC660066CC660099CC6600CCCC6600FFCC660000FF660033FF660066FF660099FF6600CCFF6600
310
FFFF660000009900330099006600990099009900CC009900FF00990000339900333399006633990099339900CC339900FF33990000669900336699006666990099669900CC669900FF66990000999900339999006699990099999900CC999900FF99990000CC990033CC990066CC990099CC9900CCCC9900FFCC990000FF99
310
0033FF990066FF990099FF9900CCFF9900FFFF99000000CC003300CC006600CC009900CC00CC00CC00FF00CC000033CC003333CC006633CC009933CC00CC33CC00FF33CC000066CC003366CC006666CC009966CC00CC66CC00FF66CC000099CC003399CC006699CC009999CC00CC99CC00FF99CC0000CCCC0033CCCC0066CC
310
CC0099CCCC00CCCCCC00FFCCCC0000FFCC0033FFCC0066FFCC0099FFCC00CCFFCC00FFFFCC000000FF003300FF006600FF009900FF00CC00FF00FF00FF000033FF003333FF006633FF009933FF00CC33FF00FF33FF000066FF003366FF006666FF009966FF00CC66FF00FF66FF000099FF003399FF006699FF009999FF00CC
310
99FF00FF99FF0000CCFF0033CCFF0066CCFF0099CCFF00CCCCFF00FFCCFF0000FFFF0033FFFF0066FFFF0099FFFF00CCFFFF00FFFFFF00000000000D0D0D001A1A1A00282828003535350043434300505050005D5D5D006B6B6B00787878008686860093939300A1A1A100AEAEAE00BBBBBB00C9C9C900D6D6D600E4E4E400
310
F1F1F100FFFFFF0000000000000000000000000000000000000000000000000000000000000000000000000000000000E2E2E2E2E2E2E2E2E2E2E2E2E2E2E2E2E2E2E2E2E2E2E2E2E2E2E2E2E2E2E2E2E2E2E2E2E2E2E2E2E2E2E2E2E2E2E2E2E2E2E2E2E2E2E2E2E2E2E2E2E2E2E2E2E2E2E2E2E2E2E2E2E2E2E2E2E2E2E2
310
E2E2E2E2E2E2E2E2E2E2E2E2E2E2E2E2E2E2E2E2E2E2E2E2E2E2E2E2E2E2E2E2E2E2E2E2E2E2E2E2E2E2E2E2E2E2E2E2E2E2E2E2E2E2E2E2E2E2E2E2E2E2E2E2E2E2E2E2E2E2E2E2E2E2E2E2E2E2E2E2E2E2E2E2E2E2E2E2E2E2E2E2E2E2E2E2E2E2E2E2EFF5F5F5F5F5F5F5F5F5F5F5F5F5F5F5F5F5F5F5F5F5F5F5F5F5F5
310
F5F5F5F5F5F5F5F5F5F5F5F5F5F5F5F5F5F5F5F5F5F5F5F5F5F5F5F5F5F5F5F5F5F5F5F5F5F5F5F5F5F5F5F5F5F5F5F5F5F5F5F5F5F5F5F5F5F5F5F5F5F5F5F5F5F5F5F5F5F5F5F5F5F5F5F5F5F5F5F5F5F5F5F5F5F5F5F5F5F5F5F5F5F5F5F5F5F5F5F5F5F5F5F5F5F5F5F5F5F5F5F5F5F5F5F5F5F5F5F5F5F5F5F5F5F5F5
310
F5F5F5F5F5F5F5F5F5F5F5F5F5F5F5F5F5F5F5F5F5F5F5F5E2E2EFF5F5F5F5F5F5F5F5F5F5F5F5F5F5F5F5F5F5F5F5F5F5F5F5F5F5F5F5F5F5F5F5F5F5F5F5F5F5F5F5F5F5F5F5F5F5F5F5F5F5F5F5F5F5F5F5F5F5F5F5F5F5F5F5F5F5F5F5F5F5F5F5F5F5F5F5F5F5F5F5F5F5F5F5F5F5F5F5F5F5F5F5F5F5F5F5F5F5F5F5
310
F5F5F5F5F5F5F5F5F5F5F5F5F5F5F5F5F5F5F5F5F5F5F5F5F5F5F5F5F5F5F5F5F5F5F5F5F5F5F5F5F5F5F5F5F5F5F5F5F5F5F5F5F5F5F5F5F5F5F5F5F5F5F5F5F5F5F5F5F5F5F5F5F5F5F5F5F5E2E2EFF5F5F5F5F5F5F5F5F5F5F5F5F5F5F5F5F5F5F5F5F5F5F5F5F5F5F5F5F5F5F5F5F5F5F5F5F5F5F5F5F5F5F5F5F5F5F5
310
F5F5F5F5F5F5F5F5F5F5F5F5F5F5F5F5F5F5F5F5F5F5F5F5F5F5F5F5F5F5F5F5F5F5F5F5F5F5F5F5F5F5F5F5F5F5F5F5F5F5F5F5F5F5F5F5F5F5F5F5F5F5F5F5F5F5F5F5F5F5F5F5F5F5F5F5F5F5F5F5F5F5F5F5F5F5F5F5F5F5F5F5F5F5F5F5F5F5F5F5F5F5F5F5F5F5F5F5F5F5F5F5F5F5F5F5F5F5F5F5F5F5F5F5F5F5F5
310
F5F5F5E2E2EFF5F5F5E2E2E2E2E2E2E2E2F5F5F5F5F5F5F5F5F5E2E2E2E2E2E2E2E2E2E2E2E2E2E2E2E2F5F5F5F5F5F5F5F5E2E2E2E2E2E2E2E2E2E2E2E2E2E2E2E2F5F5F5F5F5F5F5F5F5E2E2E2E2E2E2E2E2E2E2E2E2E2E2E2F5F5F5F5F5F5F5F5F5E2E2E2E2E2E2E2E2E2E2E2E2E2E2E2F5F5F5F5F5F5F5F5F5E2E2E2E2
310
E2E2E2E2E2E2E2E2E2E2E2E2F5F5F5F5F5F5F5F5E2E2E2E2E2E2E2E2E2E2E2E2E2E2E2E2F5F5F5F5F5F5F5F5F5E2E2E2E2E2E2E2E2F5F5F5E2E2EFF5F5F5E2F5F5F5F5F5F5F5F5F5F5F5F5F5F5F5F5F5F5F5F5F5F5F5F5F5F5F5F5F5F5F5F5F5F5F5F5F5F5F5F5F5F5F5F5F5F5F5F5F5F5F5F5F5F5F5F5F5F5F5F5F5F5F5F5
310
F5F5F5F5F5F5F5F5F5F5F5F5F5F5F5F5F5F5F5F5F5F5F5F5F5F5F5F5F5F5F5F5F5F5F5F5F5F5F5F5F5F5F5F5F5F5F5F5F5F5F5F5F5F5F5F5F5F5F5F5F5F5F5F5F5F5F5F5F5F5F5F5F5F5F5F5F5F5F5F5F5F5F5F5F5F5F5F5F5F5F5F5F5F5F5F5F5F5F5F5F5F5F5F5F5E2F5F5F5E2E2EFF5F5F5E2F5F5F5F5F5F5F5F5F5F5F5
310
F5F5F5F5F5F5F5F5F5F5F5F5F5F5F5F5F5F5F5F5F5F5F5F5F5F5F5F5F5F5F5F5F5F5F5F5F5F5F5F5F5F5F5F5F5F5F5F5F5F5F5F5F5F5F5F5F5F5F5F5F5F5F5F5F5F5F5F5F5F5F5F5F5F5F5F5F5F5F5F5F5F5F5F5F5F5F5F5F5F5F5F5F5F5F5F5F5F5F5F5F5F5F5F5F5F5F5F5F5F5F5F5F5F5F5F5F5F5F5F5F5F5F5F5F5F5F5
310
F5F5F5F5F5F5F5F5F5F5F5F5F5F5F5F5F5F5F5F5F5F5F5F5F5F5F5F5F5F5F5E2F5F5F5E2E2EFF5F5F5E2F5F5F5F5F5F5F5F5F5F5F5F5F5F5F5F5F5F5F5F5F5F5F5F5F5F5F5F5F5F5F5F5F5F5F5F5F5F5F5F5F5F5F5F5F5F5F5F5F5F5F5F5F5F5F5F5F5F5F5F5F5F5F5F5F5F5F5F5F5F5F5F5F5F5F5F5F5F5F5F5F5F5F5F5F5
310
F5F5F5F5F5F5F5F5F5F5F5F5F5F5F5F5F5F5F5F5F5F5F5F5F5F5F5F5F5F5F5F5F5F5F5F5F5F5F5F5F5F5F5F5F5F5F5F5F5F5F5F5F5F5F5F5F5F5F5F5F5F5F5F5F5F5F5F5F5F5F5F5F5F5F5F5F5F5F5F5F5F5F5F5E2F5F5F5E2E2EFF5F5F5E2F5F5F5F5F5F5F5F5F5F5F5F5F5F5F5F5F5F5F5F5F5F5F5F5F5F5F5F5F5F5F5F5
310
F5F5F5F5F5F5F5F5F5F5F5F5F5F5F5F5F5F5F5F5F5F5F5F5F5F5F5F5F5F5F5F5F5F5F5F5F5F5F5F5F5F5F5F5F5F5F5F5F5F5F5F5F5F5F5F5F5F5F5F5F5F5F5F5F5F5F5F5F5F5F5F5F5F5F5F5F5F5F5F5F5F5F5F5F5F5F5F5F5F5F5F5F5F5F5F5F5F5F5F5F5F5F5F5F5F5F5F5F5F5F5F5F5F5F5F5F5F5F5F5F5F5F5F5F5F5F5
310
F5F5F5F5F5F5F5F5F5F5E2F5F5F5E2E2EFF5F5F5E2F5F5F5F5F5F5F5F5F5F5F5F5F5F5F5F5F5F5F5F5F5F5F5F5F5F5F5F5F5F5F5F5F5F5F5F5F5F5F5F5F5F5F5F5F5F5F5F5F5F5F5F5F5F5F5F5F5F5F5F5F5F5F5F5F5F5F5F5F5F5F5F5F5F5F5F5F5F5F5F5F5F5F5F5F5F5F5F5F5F5F5F5F5F5F5F5F5F5F5F5F5F5F5F5F5F5
310
F5F5F5F5F5F5F5F5F5F5F5F5F5F5F5F5F5F5F5F5F5F5F5F5F5F5F5F5F5F5F5F5F5F5F5F5F5F5F5F5F5F5F5F5F5F5F5F5F5F5F5F5F5F5F5F5F5F5F5F5F5F5F5E2F5F5F5E2E2EFF5F5F5E2F5F5F5F5F5F5F5F5F5F5F5F5F5F5F5F5F5F5F5F5F5F5F5F5F5F5F5F5F5F5F5F5F5F5F5F5F5F5F5F5F5F5F5F5F5F5F5F5F5F5F5F5F5
310
F5F5F5F5F5F5F5F5F5F5F5F5F5F5F5F5F5F5F5F5F5F5F5F5F5F5F5F5F5F5F5F5F5F5F5F5F5F5F5F5F5F5F5F5F5F5F5F5F5F5F5F5F5F5F5F5F5F5F5F5F5F5F5F5F5F5F5F5F5F5F5F5F5F5F5F5F5F5F5F5F5F5F5F5F5F5F5F5F5F5F5F5F5F5F5F5F5F5F5F5F5F5F5F5F5F5F5F5F5F5F5F5F5F5F5F5E2F5F5F5E2E2EFF5F5F5E2
310
F5F5F5F5F5F5F5F5F5F5F5F5F5F5F5F5F5F5F5F5F5F5F5F5F5F5F5F5F5F5F5F5F5F5F5F5F5F5F5F5F5F5F5F5F5F5F5F5F5F5F5F5F5F5F5F5F5F5F5F5F5F5F5F5F5F5F5F5F5F5F5F5F5F5F5F5F5F5F5F5F5F5F5F5F5F5F5F5F5F5F5F5F5F5F5F5F5F5F5F5F5F5F5F5F5F5F5F5F5F5F5F5F5F5F5F5F5F5F5F5F5F5F5F5F5F5F5
310
F5F5F5F5F5F5F5F5F5F5F5F5F5F5F5F5F5F5F5F5F5F5F5F5F5F5F5F5F5F5F5F5F5F5F5F5F5F5F5F5F5F5E2F5F5F5E2E2EFF5F5F5E2F5F5F5F5F5F5F5F5F5F5F5F5F5F5F5F5F5F5F5F5F5F5F5F5F5F5F5F5F5F5F5F5F5F5F5F5F5F5F5F5F5F5F5F5F5F5F5F5F5F5F5F5F5F5F5F5F5F5F5F5F5F5F5F5F5F5F5F5F5F5F5F5F5F5
310
F5F5F5F5F5F5F5F5F5F5F5F5F5F5F5F5F5F5F5F5F5F5F5F5F5F5F5F5F5F5F5F5F5F5F5F5F5F5F5F5F5F5F5F5F5F5F5F5F5F5F5F5F5F5F5F5F5F5F5F5F5F5F5F5F5F5F5F5F5F5F5F5F5F5F5F5F5F5F5F5F5F5F5F5F5F5F5F5F5F5F5F5F5F5F5E2F5F5F5E2E2EFF5F5F5F5F5F5F5F5F5F5F5F5F5F5F5F5F5F5F5F5F5F5F5F5F5
310
F5F5F5F5F5F5F5F5F5F5F5F5F5F5F5F5F5F5F5F5F5F5F5F5F5F5F5F5F5F5F5F5F5F5F5F5F5F5F5F5F5F5F5F5F5F5F5F5F5F5F5F5F5F5F5F5F5F5F5F5F5F5F5F5F5F5F5F5F5F5F5F5F5F5F5F5F5F5F5F5F5F5F5F5F5F5F5F5F5F5F5F5F5F5F5F5F5F5F5F5F5F5F5F5F5F5F5F5F5F5F5F5F5F5F5F5F5F5F5F5F5F5F5F5F5F5F5
310
F5F5F5F5F5F5F5F5F5F5F5F5F5F5F5F5F5F5F5F5F5F5F5F5F5E2E2EFF5F5F5F5F5F5F5F5F5F5F5F5F5F5F5F5F5F5F5F5F5F5F5F5F5F5F5F5F5F5F5F5F5F5F5F5F5F5F5F5F5F5F5F5F5F5F5F5F5F5F5F5F5F5F5F5F5F5F5F5F5F5F5F5F5F5F5F5F5F5F5F5F5F5F5F5F5F5F5F5F5F5F5F5F5F5F5F5F5F5F5F5F5F5F5F5F5F5F5
310
F5F5F5F5F5F5F5F5F5F5F5F5F5F5F5F5F5F5F5F5F5F5F5F5F5F5F5F5F5F5F5F5F5F5F5F5F5F5F5F5F5F5F5F5F5F5F5F5F5F5F5F5F5F5F5F5F5F5F5F5F5F5F5F5F5F5F5F5F5F5F5F5F5F5F5F5F5F5E2E2EFF5F5F5F5F5F5F5F5F5F5F5F5F5F5F5F5F5F5F5F5F5F5F5F5F5F5F5F5F5F5F5F5F5F5F5F5F5F5F5F5F5F5F5F5F5F5
310
F5F5F5F5F5F5F5F5F5F5F5F5F5F5F5F5F5F5F5F5F5F5F5F5F5F5F5F5F5F5F5F5F5F5F5F5F5F5F5F5F5F5F5F5F5F5F5F5F5F5F5F5F5F5F5F5F5F5F5F5F5F5F5F5F5F5F5F5F5F5F5F5F5F5F5F5F5F5F5F5F5F5F5F5F5F5F5F5F5F5F5F5F5F5F5F5F5F5F5F5F5F5F5F5F5F5F5F5F5F5F5F5F5F5F5F5F5F5F5F5F5F5F5F5F5F5F5
310
F5F5F5F5E2E2EFF5F5F5F5F5F5F5F5F5F5F5F5F5F5F5F5F5F5F5F5F5F5F5F5F5F5F5F5F5F5F5F5F5F5F5F5F5F5F5F5F5F5F5F5F5F5F5F5F5F5F5F5F5F5F5F5F5F5F5F5F5F5F5F5F5F5F5F5F5F5F5F5F5F5F5F5F5F5F5F5F5F5F5F5F5F5F5F5F5F5F5F5F5F5F5F5F5F5F5F5F5F5F5F5F5F5F5F5F5F5F5F5F5F5F5F5F5F5F5F5
310
F5F5F5F5F5F5F5F5F5F5F5F5F5F5F5F5F5F5F5F5F5F5F5F5F5F5F5F5F5F5F5F5F5F5F5F5F5F5F5F5F5F5F5F5F5F5F5F5F5F5F5F5F5F5F5F5F5E2E2EFF5F5F5F5F5F5F5F5F5F5F5F5F5F5F5F5F5F5F5F5E2E2E2E2E2E2E2E2E2E2E2E2E2E2E2E2E2E2E2E2E2E2E2E2E2E2E2E2E2E2E2E2E2E2E2E2E2E2E2E2E2E2E2E2E2E2E2
310
E2E2E2E2E2E2E2E2E2E2E2E2E2E2E2E2E2E2E2E2E2E2E2E2E2E2E2E2E2E2E2E2E2E2E2E2E2E2E2E2E2E2E2E2E2E2E2E2E2E2E2E2E2E2E2E2E2E2E2E2E2E2E2E2E2E2E2E2E2E2E2E2E2E2E2E2E2E2E2E2E2E2E2E2E2E2E2E2E2E2F5F5F5F5F5F5F5F5F5F5F5F5F5F5F5F5F5F5F5F5E2E2EFF5F5F5F5F5F5F5F5F5F5F5F5F5F5
310
F5F5F5F5F5F5E2F5F5F5F5F5F5F5F5F5F5F5F5F5F5F5F5F5F5F5F5F5F5F5F5F5F5F5F5F5F5F5F5F5F5F5F5F5F5F5F5F5F5F5F5F5F5F5F5F5F5F5F5F5F5F5F5F5F5F5F5F5F5F5F5F5F5F5F5F5F5F5F5F5F5F5F5F5F5F5F5F5F5F5F5F5F5F5F5F5F5F5F5F5F5F5F5F5F5F5F5F5F5F5F5F5F5F5F5F5F5F5F5F5F5F5F5F5F5F5F5
310
F5F5F5F5F5F5F5F5F5F5F5F5F5F5F5E2F5F5F5F5F5F5F5F5F5F5F5F5F5F5F5F5F5F5F5F5E2E2EFF5F5F5F5F5F5F5F5F5F5F5F5F5F5F5F5F5F5F5F5E2F5F5F5F5F5F5F5F5F5F5F5F5F5F5F5F5F5F5F5F5F5F5F5F5F5F5F5F5F5F5F5F5F5F5F5F5F5F5F5F5F5F5F5F5F5F5F5F5F5F5F5F5F5F5F5F5F5F5F5F5F5F5F5F5F5F5F5
310
F5F5F5F5F5F5F5F5F5F5F5F5F5F5F5F5F5F5F5F5F5F5F5F5F5F5F5F5F5F5F5F5F5F5F5F5F5F5F5F5F5F5F5F5F5F5F5F5F5F5F5F5F5F5F5F5F5F5F5F5F5F5F5F5F5F5F5F5E2F5F5F5F5F5F5F5F5F5F5F5F5F5F5F5F5F5F5F5F5E2E2EFF5F5F5F5F5F5F5F5F5F5F5F5F5F5F5F5F5F5F5F5E2F5F5F5F5F5F5F5F5F5F5F5F5F5F5
310
F5F5F5F5F5F5F5F5F5F5F5F5F5F5F5F5F5F5F5F5F5F5F5F5F5F5F5F5F5F5F5F5F5F5F5F5F5F5F5F5F5F5F5F5F5F5F5F5F5F5F5F5F5F5F5F5F5F5F5F5F5F5F5F5F5F5F5F5F5F5F5F5F5F5F5F5F5F5F5F5F5F5F5F5F5F5F5F5F5F5F5F5F5F5F5F5F5F5F5F5F5F5F5F5F5F5F5F5F5F5F5F5F5F5F5F5F5F5F5F5F5E2F5F5F5F5F5
310
F5F5F5F5F5F5F5F5F5F5F5F5F5F5F5E2E2EFF5F5F5F5F5F5F5F5F5F5F5F5F5F5F5F5F5F5F5F5E2F5F5F5F5F5F5F5F5F5F5F5F5F5F5F5F5F5F5F5F5F5F5F5F5F5F5F5F5F5F5F5F5F5F5F5F5F5F5F5F5F5F5F5F5F5F5F5F5F5F5F5F5F5F5F5F5F5F5F5F5F5F5F5F5F5F5F5F5F5F5F5F5F5F5F5F5F5F5F5F5F5F5F5F5F5F5F5F5
310
F5F5F5F5F5F5F5F5F5F5F5F5F5F5F5F5F5F5F5F5F5F5F5F5F5F5F5F5F5F5F5F5F5F5F5F5F5F5F5F5F5F5F5F5F5F5F5E2F5F5F5F5F5F5F5F5F5F5F5F5F5F5F5F5F5F5F5F5E2E2EFF5F5F5E2F5F5F5F5F5F5F5F5F5F5F5F5F5F5F5F5E2F5F5F5F5F5F5F5F5F5F5F5F5F5F5F5F5F5F5F5F5F5F5F5F5F5F5F5F5F5F5F5F5F5F5F5
310
F5F5F5F5F5F5F5F5F5F5F5F5F5F5F5F5F5F5F5F5F5F5F5F5F5F5F5F5F5F5F5F5F5F5F5F5F5F5F5F5F5F5F5F5F5F5F5F5F5F5F5F5F5F5F5F5F5F5F5F5F5F5F5F5F5F5F5F5F5F5F5F5F5F5F5F5F5F5F5F5F5F5F5F5F5F5F5F5F5F5F5F5F5F5F5F5F5F5F5F5E2F5F5F5F5F5F5F5F5F5F5F5F5F5F5F5F5E2F5F5F5E2E2EFF5F5F5
310
E2F5F5F5F5F5F5F5F5F5F5F5F5F5F5F5F5E2F5F5F5F5F5F5F5F5F5F5F5F5F5F5F5F5F5F5F5F5F5F5F5F5F5F5F5F5F5F5F5F5F5F5F5F5F5F5F5F5F5F5F5F5F5F5F5F5F5F5F5F5F5F5F5F5F5F5F5F5F5F5F5F5F5F5F5F5F5F5F5F5F5F5F5F5F5F5F5F5F5F5F5F5F5F5F5F5F5F5F5F5F5F5F5F5F5F5F5F5F5F5F5F5F5F5F5F5F5
310
F5F5F5F5F5F5F5F5F5F5F5F5F5F5F5F5F5F5F5F5F5F5F5F5F5F5E2F5F5F5F5F5F5F5F5F5F5F5F5F5F5F5F5E2F5F5F5E2E2EFF5F5F5E2F5F5F5F5F5F5F5F5F5F5F5F5F5F5F5F5E2F5F5F5F5F5F5F5F5F5F5F5F5F5F5F5F5F5F5F5F5F5F5F5F5F5F5F5F5F5F5F5F5F5F5F5F5F5F5F5F5F5F5F5F5F5F5F5F5F5F5F5F5F5F5F5F5
310
F5F5F5F5F5F5F5F5F5F5F5F5F5F5F5F5F5F5F5F5F5F5F5F5F5F5F5F5F5F5F5F5F5F5F5F5F5F5F5F5F5F5F5F5F5F5F5F5F5F5F5F5F5F5F5F5F5F5F5F5F5F5F5F5F5F5F5F5F5F5F5F5F5F5F5F5F5F5F5E2F5F5F5F5F5F5F5F5F5F5F5F5F5F5F5F5E2F5F5F5E2E2EFF5F5F5E2F5F5F5F5F5F5F5F5F5F5F5F5F5F5F5F5E2F5F5F5
310
F5F5F5F5F5F5F5F5F5F5F5F5F5F5F5F5F5F5F5F5F5F5F5F5F5F5F5F5F5F5F5F5F5F5F5F5F5F5F5F5F5F5F5F5F5F5F5F5F5F5F5F5F5F5F5F5F5F5F5F5F5F5F5F5F5F5F5F5F5F5F5F5F5F5F5F5F5F5F5F5F5F5F5F5F5F5F5F5F5F5F5F5F5F5F5F5F5F5F5F5F5F5F5F5F5F5F5F5F5F5F5F5F5F5F5F5F5F5F5F5F5F5F5F5F5F5F5
310
F5F5F5F5F5E2F5F5F5F5F5F5F5F5F5F5F5F5F5F5F5F5E2F5F5F5E2E2EFF5F5F5E2F5F5F5F5F5F5F5F5F5F5F5F5F5F5F5F5E2F5F5F5F5F5F5F5F5F5F5F5F5F5F5F5F5F5F5F5F5F5F5F5F5F5F5F5F5F5F5F5F5F5F5F5F5F5F5F5F5F5F5F5F5F5F5F5F5F5F5F5F5F5F5F5F5F5F5F5F5F5F5F5F5F5F5F5F5F5F5F5F5F5F5F5F5F5
310
F5F5F5F5F5F5F5F5F5F5F5F5F5F5F5F5F5F5F5F5F5F5F5F5F5F5F5F5F5F5F5F5F5F5F5F5F5F5F5F5F5F5F5F5F5F5F5F5F5F5F5F5F5F5F5F5F5F5E2F5F5F5F5F5F5F5F5F5F5F5F5F5F5F5F5E2F5F5F5E2E2EFF5F5F5E2F5F5F5F5F5F5F5F5F5F5F5F5F5F5F5F5E2F5F5F5F5F5F5F5F5F5F5F5F5F5F5F5F5F5F5F5F5F5F5F5F5
310
F5F5F5F5F5F5F5F5F5F5F5F5F5F5F5F5F5F5F5F5F5F5F5F5F5F5F5F5F5F5F5F5F5F5F5F5F5F5F5F5F5F5F5F5F5F5F5F5F5F5F5F5F5F5F5F5F5F5F5F5F5F5F5F5F5F5F5F5F5F5F5F5F5F5F5F5F5F5F5F5F5F5F5F5F5F5F5F5F5F5F5F5F5F5F5F5F5F5F5F5F5F5F5F5F5F5F5F5F5F5F5E2F5F5F5F5F5F5F5F5F5F5F5F5F5F5F5
310
F5E2F5F5F5E2E2EFF5F5F5E2F5F5F5F5F5F5F5F5F5F5F5F5F5F5F5F5E2F5F5F5F5F5F5F5F5F5F5F5F5F5F5F5F5F5F5F5F5F5F5F5F5F5F5F5F5F5F5F5F5F5F5F5F5F5F5F5F5F5F5F5F5F5F5F5F5F5F5F5F5F5F5F5F5F5F5F5F5F5F5F5F5F5F5F5F5F5F5F5F5F5F5F5F5F5F5F5F5F5F5F5F5F5F5F5F5F5F5F5F5F5F5F5F5F5F5
310
F5F5F5F5F5F5F5F5F5F5F5F5F5F5F5F5F5F5F5F5F5F5F5F5F5F5F5F5F5F5F5F5F5F5F5F5F5E2F5F5F5F5F5F5F5F5F5F5F5F5F5F5F5F5E2F5F5F5E2E2EFF5F5F5E2F5F5F5F5F5F5F5F5F5F5F5F5F5F5F5F5E2F5F5F5F5F5F5F5F5F5F5F5F5F5F5F5F5F5F5F5F5F5F5F5F5F5F5F5F5F5F5F5F5F5F5F5F5F5F5F5F5F5F5F5F5F5
310
F5F5F5F5F5F5F5F5F5F5F5F5F5F5F5F5F5F5F5F5F5F5F5F5F5F5F5F5F5F5F5F5F5F5F5F5F5F5F5F5F5F5F5F5F5F5F5F5F5F5F5F5F5F5F5F5F5F5F5F5F5F5F5F5F5F5F5F5F5F5F5F5F5F5F5F5F5F5F5F5F5F5F5F5F5F5F5F5F5F5E2F5F5F5F5F5F5F5F5F5F5F5F5F5F5F5F5E2F5F5F5E2E2EFF5F5F5E2F5F5F5F5F5F5F5F5F5
310
F5F5F5F5F5F5F5E2F5F5F5F5F5F5F5F5F5F5F5F5F5F5F5F5F5F5F5F5F5F5F5F5F5F5F5F5F5F5F5F5F5F5F5F5F5F5F5F5F5F5F5F5F5F5F5F5F5F5F5F5F5F5F5F5F5F5F5F5F5F5F5F5F5F5F5F5F5F5F5F5F5F5F5F5F5F5F5F5F5F5F5F5F5F5F5F5F5F5F5F5F5F5F5F5F5F5F5F5F5F5F5F5F5F5F5F5F5F5F5F5F5F5F5F5F5F5F5
310
F5F5F5F5F5F5F5F5F5F5F5F5F5F5F5F5E2F5F5F5F5F5F5F5F5F5F5F5F5F5F5F5F5E2F5F5F5E2E2EFF5F5F5E2F5F5F5F5F5F5F5F5F5F5F5F5F5F5F5F5E2F5F5F5F5F5F5F5F5F5F5F5F5F5F5F5F5F5F5F5F5F5F5F5F5F5F5F5F5F5F5F5F5F5F5F5F5F5F5F5F5F5F5F5F5F5F5F5F5F5F5F5F5F5F5F5F5F5F5F5F5F5F5F5F5F5F5
310
F5F5F5F5F5F5F5F5F5F5F5F5F5F5F5F5F5F5F5F5F5F5F5F5F5F5F5F5F5F5F5F5F5F5F5F5F5F5F5F5F5F5F5F5F5F5F5F5F5F5F5F5F5F5F5F5F5F5F5F5F5F5F5F5F5F5F5F5F5E2F5F5F5F5F5F5F5F5F5F5F5F5F5F5F5F5E2F5F5F5E2E2EFF5F5F5E2F5F5F5F5F5F5F5F5F5F5F5F5F5F5F5F5E2F5F5F5F5F5F5F5F5F5F5F5F5F5
310
F5F5F5F5F5F5F5F5F5F5F5F5F5F5F5F5F5F5F5F5F5F5F5F5F5F5F5F5F5F5F5F5F5F5F5F5F5F5F5F5F5F5F5F5F5F5F5F5F5F5F5F5F5F5F5F5F5F5F5F5F5F5F5F5F5F5F5F5F5F5F5F5F5F5F5F5F5F5F5F5F5F5F5F5F5F5F5F5F5F5F5F5F5F5F5F5F5F5F5F5F5F5F5F5F5F5F5F5F5F5F5F5F5F5F5F5F5F5F5F5F5F5E2F5F5F5F5
310
F5F5F5F5F5F5F5F5F5F5F5F5E2F5F5F5E2E2EFF5F5F5E2F5F5F5F5F5F5F5F5F5F5F5F5F5F5F5F5E2F5F5F5F5F5F5F5F5F5F5F5F5F5F5F5F5F5F5F5F5F5F5F5F5F5F5F5F5F5F5F5F5F5F5F5F5F5F5F5F5F5F5F5F5F5F5F5F5F5F5F5F5F5F5F5F5F5F5F5F5F5F5F5F5F5F5F5F5F5F5F5F5F5F5F5F5F5F5F5F5F5F5F5F5F5F5F5
310
F5F5F5F5F5F5F5F5F5F5F5F5F5F5F5F5F5F5F5F5F5F5F5F5F5F5F5F5F5F5F5F5F5F5F5F5F5F5F5F5F5F5F5F5F5F5F5F5E2F5F5F5F5F5F5F5F5F5F5F5F5F5F5F5F5E2F5F5F5E2E2EFF5F5F5E2F5F5F5F5F5F5F5F5F5F5F5F5F5F5F5F5E2F5F5F5F5F5F5F5F5F5F5F5F5F5F5F5F5F5F5F5F5F5F5F5F5F5F5F5F5F5F5F5F5F5F5
310
F5F5F5F5F5F5F5F5F5F5F5F5F5F5F5F5F5F5F5F5F5F5F5F5F5F5F5F5F5F5F5F5F5F5F5F5F5F5F5F5F5F5F5F5F5F5F5F5F5F5F5F5F5F5F5F5F5F5F5F5F5F5F5F5F5F5F5F5F5F5F5F5F5F5F5F5F5F5F5F5F5F5F5F5F5F5F5F5F5F5F5F5F5F5F5F5F5F5F5F5F5E2F5F5F5F5F5F5F5F5F5F5F5F5F5F5F5F5E2F5F5F5E2E2EFF5F5
310
F5E2F5F5F5F5F5F5F5F5F5F5F5F5F5F5F5F5E2F5F5F5F5F5F5F5F5F5F5F5F5F5F5F5F5F5F5F5F5F5F5F5F5F5F5F5F5F5F5F5F5F5F5F5F5F5F5F5F5F5F5F5F5F5F5F5F5F5F5F5F5F5F5F5F5F5F5F5F5F5F5F5F5F5F5F5F5F5F5F5F5F5F5F5F5F5F5F5F5F5F5F5F5F5F5F5F5F5F5F5F5F5F5F5F5F5F5F5F5F5F5F5F5F5F5F5F5
310
F5F5F5F5F5F5F5F5F5F5F5F5F5F5F5F5F5F5F5F5F5F5F5F5F5F5F5E2F5F5F5F5F5F5F5F5F5F5F5F5F5F5F5F5E2F5F5F5E2E2EFF5F5F5E2F5F5F5F5F5F5F5F5F5F5F5F5F5F5F5F5E2F5F5F5F5F5F5F5F5F5F5F5F5F5F5F5F5F5F5F5F5F5F5F5F5F5F5F5F5F5F5F5F5F5F5F5F5F5F5F5F5F5F5F5F5F5F5F5F5F5F5F5F5F5F5F5
310
F5F5F5F5F5F5F5F5F5F5F5F5F5F5F5F5F5F5F5F5F5F5F5F5F5F5F5F5F5F5F5F5F5F5F5F5F5F5F5F5F5F5F5F5F5F5F5F5F5F5F5F5F5F5F5F5F5F5F5F5F5F5F5F5F5F5F5F5F5F5F5F5F5F5F5F5F5F5F5F5E2F5F5F5F5F5F5F5F5F5F5F5F5F5F5F5F5E2F5F5F5E2E2EFF5F5F5E2F5F5F5F5F5F5F5F5F5F5F5F5F5F5F5F5E2F5F5
310
F5F5F5F5F5F5F5F5F5F5F5F5F5F5F5F5F5F5F5F5F5F5F5F5F5F5F5F5F5F5F5F5F5F5F5F5F5F5F5F5F5F5F5F5F5F5F5F5F5F5F5F5F5F5F5F5F5F5F5F5F5F5F5F5F5F5F5F5F5F5F5F5F5F5F5F5F5F5F5F5F5F5F5F5F5F5F5F5F5F5F5F5F5F5F5F5F5F5F5F5F5F5F5F5F5F5F5F5F5F5F5F5F5F5F5F5F5F5F5F5F5F5F5F5F5F5F5
310
F5F5F5F5F5F5E2F5F5F5F5F5F5F5F5F5F5F5F5F5F5F5F5E2F5F5F5E2E2EFF5F5F5E2F5F5F5F5F5F5F5F5F5F5F5F5F5F5F5F5E2F5F5F5F5F5F5F5F5F5F5F5F5F5F5F5F5F5F5F5F5F5F5F5F5F5F5F5F5F5F5F5F5F5F5F5F5F5F5F5F5F5F5F5F5F5F5F5F5F5F5F5F5F5F5F5F5F5F5F5F5F5F5F5F5F5F5F5F5F5F5F5F5F5F5F5F5
310
F5F5F5F5F5F5F5F5F5F5F5F5F5F5F5F5F5F5F5F5F5F5F5F5F5F5F5F5F5F5F5F5F5F5F5F5F5F5F5F5F5F5F5F5F5F5F5F5F5F5F5F5F5F5F5F5F5F5F5E2F5F5F5F5F5F5F5F5F5F5F5F5F5F5F5F5E2F5F5F5E2E2EFF5F5F5F5F5F5F5F5F5F5F5F5F5F5F5F5F5F5F5F5E2F5F5F5F5F5F5F5F5F5F5F5F5F5F5F5F5F5F5F5F5F5F5F5
310
F5F5F5F5F5F5F5F5F5F5F5F5F5F5F5F5F5F5F5F5F5F5F5F5F5F5F5F5F5F5F5F5F5F5F5F5F5F5F5F5F5F5F5F5F5F5F5F5F5F5F5F5F5F5F5F5F5F5F5F5F5F5F5F5F5F5F5F5F5F5F5F5F5F5F5F5F5F5F5F5F5F5F5F5F5F5F5F5F5F5F5F5F5F5F5F5F5F5F5F5F5F5F5F5F5F5F5F5F5F5F5F5E2F5F5F5F5F5F5F5F5F5F5F5F5F5F5
310
F5F5F5F5F5F5E2E2EFF5F5F5F5F5F5F5F5F5F5F5F5F5F5F5F5F5F5F5F5E2F5F5F5F5F5F5F5F5F5F5F5F5F5F5F5F5F5F5F5F5F5F5F5F5F5F5F5F5F5F5F5F5F5F5F5F5F5F5F5F5F5F5F5F5F5F5F5F5F5F5F5F5F5F5F5F5F5F5F5F5F5F5F5F5F5F5F5F5F5F5F5F5F5F5F5F5F5F5F5F5F5F5F5F5F5F5F5F5F5F5F5F5F5F5F5F5F5
310
F5F5F5F5F5F5F5F5F5F5F5F5F5F5F5F5F5F5F5F5F5F5F5F5F5F5F5F5F5F5F5F5F5F5F5F5F5F5E2F5F5F5F5F5F5F5F5F5F5F5F5F5F5F5F5F5F5F5F5E2E2EFF5F5F5F5F5F5F5F5F5F5F5F5F5F5F5F5F5F5F5F5E2F5F5F5F5F5F5F5F5F5F5F5F5F5F5F5F5F5F5F5F5F5F5F5F5F5F5F5F5F5F5F5F5F5F5F5F5F5F5F5F5F5F5F5F5
310
F5F5F5F5F5F5F5F5F5F5F5F5F5F5F5F5F5F5F5F5F5F5F5F5F5F5F5F5F5F5F5F5F5F5F5F5F5F5F5F5F5F5F5F5F5F5F5F5F5F5F5F5F5F5F5F5F5F5F5F5F5F5F5F5F5F5F5F5F5F5F5F5F5F5F5F5F5F5F5F5F5F5F5F5F5F5F5F5F5F5F5E2F5F5F5F5F5F5F5F5F5F5F5F5F5F5F5F5F5F5F5F5E2E2EFF5F5F5F5F5F5F5F5F5F5F5F5
310
F5F5F5F5F5F5F5F5E2F5F5F5F5F5F5F5F5F5F5F5F5F5F5F5F5F5F5F5F5F5F5F5F5F5F5F5F5F5F5F5F5F5F5F5F5F5F5F5F5F5F5F5F5F5F5F5F5F5F5F5F5F5F5F5F5F5F5F5F5F5F5F5F5F5F5F5F5F5F5F5F5F5F5F5F5F5F5F5F5F5F5F5F5F5F5F5F5F5F5F5F5F5F5F5F5F5F5F5F5F5F5F5F5F5F5F5F5F5F5F5F5F5F5F5F5F5F5
310
F5F5F5F5F5F5F5F5F5F5F5F5F5F5F5F5F5E2F5F5F5F5F5F5F5F5F5F5F5F5F5F5F5F5F5F5F5F5E2E2EFF5F5F5F5F5F5F5F5F5F5F5F5F5F5F5F5F5F5F5F5E2F5F5F5F5F5F5F5F5F5F5F5F5F5F5F5F5F5F5F5F5F5F5F5F5F5F5F5F5F5F5F5F5F5F5F5F5F5F5F5F5F5F5F5F5F5F5F5F5F5F5F5F5F5F5F5F5F5F5F5F5F5F5F5F5F5
310
F5F5F5F5F5F5F5F5F5F5F5F5F5F5F5F5F5F5F5F5F5F5F5F5F5F5F5F5F5F5F5F5F5F5F5F5F5F5F5F5F5F5F5F5F5F5F5F5F5F5F5F5F5F5F5F5F5F5F5F5F5F5F5F5F5F5F5F5F5F5E2F5F5F5F5F5F5F5F5F5F5F5F5F5F5F5F5F5F5F5F5E2E2EFF5F5F5F5F5F5F5F5F5F5F5F5F5F5F5F5F5F5F5F5E2F5F5F5F5F5F5F5F5F5F5F5F5
310
F5F5F5F5F5F5F5F5F5F5F5F5F5F5F5F5F5F5F5F5F5F5F5F5F5F5F5F5F5F5F5F5F5F5F5F5F5F5F5F5F5F5F5F5F5F5F5F5F5F5F5F5F5F5F5F5F5F5F5F5F5F5F5F5F5F5F5F5F5F5F5F5F5F5F5F5F5F5F5F5F5F5F5F5F5F5F5F5F5F5F5F5F5F5F5F5F5F5F5F5F5F5F5F5F5F5F5F5F5F5F5F5F5F5F5F5F5F5F5F5F5F5F5E2F5F5F5
310
F5F5F5F5F5F5F5F5F5F5F5F5F5F5F5F5F5E2E2EFF5F5F5F5F5F5F5F5F5F5F5F5F5F5F5F5F5F5F5F5E2F5F5F5F5F5F5F5F5F5F5F5F5F5F5F5F5F5F5F5F5F5F5F5F5F5F5F5F5F5F5F5F5F5F5F5F5F5F5F5F5F5F5F5F5F5F5F5F5F5F5F5F5F5F5F5F5F5F5F5F5F5F5F5F5F5F5F5F5F5F5F5F5F5F5F5F5F5F5F5F5F5F5F5F5F5F5
310
F5F5F5F5F5F5F5F5F5F5F5F5F5F5F5F5F5F5F5F5F5F5F5F5F5F5F5F5F5F5F5F5F5F5F5F5F5F5F5F5F5F5F5F5F5F5F5F5F5E2F5F5F5F5F5F5F5F5F5F5F5F5F5F5F5F5F5F5F5F5E2E2EFF5F5F5F5F5F5F5F5F5F5F5F5F5F5F5F5F5F5F5F5E2F5F5F5F5F5F5F5F5F5F5F5F5F5F5F5F5F5F5F5F5F5F5F5F5F5F5F5F5F5F5F5F5F5
310
F5F5F5F5F5F5F5F5F5F5F5F5F5F5F5F5F5F5F5F5F5F5F5F5F5F5F5F5F5F5F5F5F5F5F5F5F5F5F5F5F5F5F5F5F5F5F5F5F5F5F5F5F5F5F5F5F5F5F5F5F5F5F5F5F5F5F5F5F5F5F5F5F5F5F5F5F5F5F5F5F5F5F5F5F5F5F5F5F5F5F5F5F5F5F5F5F5F5F5F5F5F5E2F5F5F5F5F5F5F5F5F5F5F5F5F5F5F5F5F5F5F5F5E2E2EFF5
310
F5F5F5F5F5F5F5F5F5F5F5F5F5F5F5F5F5F5F5E2F5F5F5F5F5F5F5F5F5F5F5F5F5F5F5F5F5F5F5F5F5F5F5F5F5F5F5F5F5F5F5F5F5F5F5F5F5F5F5F5F5F5F5F5F5F5F5F5F5F5F5F5F5F5F5F5F5F5F5F5F5F5F5F5F5F5F5F5F5F5F5F5F5F5F5F5F5F5F5F5F5F5F5F5F5F5F5F5F5F5F5F5F5F5F5F5F5F5F5F5F5F5F5F5F5F5F5
310
F5F5F5F5F5F5F5F5F5F5F5F5F5F5F5F5F5F5F5F5F5F5F5F5F5F5F5F5E2F5F5F5F5F5F5F5F5F5F5F5F5F5F5F5F5F5F5F5F5E2E2EFF5F5F5E2F5F5F5F5F5F5F5F5F5F5F5F5F5F5F5F5E2F5F5F5F5F5F5F5F5F5F5F5F5F5F5F5F5F5F5F5F5F5F5F5F5F5F5F5F5F5F5F5F5F5F5F5F5F5F5F5F5F5F5F5F5F5F5F5F5F5F5F5F5F5F5
310
F5F5F5F5F5F5F5F5F5F5F5F5F5F5F5F5F5F5F5F5F5F5F5F5F5F5F5F5F5F5F5F5F5F5F5F5F5F5F5F5F5F5F5F5F5F5F5F5F5F5F5F5F5F5F5F5F5F5F5F5F5F5F5F5F5F5F5F5F5F5F5F5F5F5F5F5F5F5F5F5F5E2F5F5F5F5F5F5F5F5F5F5F5F5F5F5F5F5E2F5F5F5E2E2EFF5F5F5E2F5F5F5F5F5F5F5F5F5F5F5F5F5F5F5F5E2F5
310
F5F5F5F5F5F5F5F5F5F5F5F5F5F5F5F5F5F5F5F5F5F5F5F5F5F5F5F5F5F5F5F5F5F5F5F5F5F5F5F5F5F5F5F5F5F5F5F5F5F5F5F5F5F5F5F5F5F5F5F5F5F5F5F5F5F5F5F5F5F5F5F5F5F5F5F5F5F5F5F5F5F5F5F5F5F5F5F5F5F5F5F5F5F5F5F5F5F5F5F5F5F5F5F5F5F5F5F5F5F5F5F5F5F5F5F5F5F5F5F5F5F5F5F5F5F5F5
310
F5F5F5F5F5F5F5E2F5F5F5F5F5F5F5F5F5F5F5F5F5F5F5F5E2F5F5F5E2E2EFF5F5F5E2F5F5F5F5F5F5F5F5F5F5F5F5F5F5F5F5E2F5F5F5F5F5F5F5F5F5F5F5F5F5F5F5F5F5F5F5F5F5F5F5F5F5F5F5F5F5F5F5F5F5F5F5F5F5F5F5F5F5F5F5F5F5F5F5F5F5F5F5F5F5F5F5F5F5F5F5F5F5F5F5F5F5F5F5F5F5F5F5F5F5F5F5
310
F5F5F5F5F5F5F5F5F5F5F5F5F5F5F5F5F5F5F5F5F5F5F5F5F5F5F5F5F5F5F5F5F5F5F5F5F5F5F5F5F5F5F5F5F5F5F5F5F5F5F5F5F5F5F5F5F5F5F5F5E2F5F5F5F5F5F5F5F5F5F5F5F5F5F5F5F5E2F5F5F5E2E2EFF5F5F5E2F5F5F5F5F5F5F5F5F5F5F5F5F5F5F5F5E2F5F5F5F5F5F5F5F5F5F5F5F5F5F5F5F5F5F5F5F5F5F5
310
F5F5F5F5F5F5F5F5F5F5F5F5F5F5F5F5F5F5F5F5F5F5F5F5F5F5F5F5F5F5F5F5F5F5F5F5F5F5F5F5F5F5F5F5F5F5F5F5F5F5F5F5F5F5F5F5F5F5F5F5F5F5F5F5F5F5F5F5F5F5F5F5F5F5F5F5F5F5F5F5F5F5F5F5F5F5F5F5F5F5F5F5F5F5F5F5F5F5F5F5F5F5F5F5F5F5F5F5F5F5F5F5F5E2F5F5F5F5F5F5F5F5F5F5F5F5F5
310
F5F5F5E2F5F5F5E2E2EFF5F5F5E2F5F5F5F5F5F5F5F5F5F5F5F5F5F5F5F5E2F5F5F5F5F5F5F5F5F5F5F5F5F5F5F5F5F5F5F5F5F5F5F5F5F5F5F5F5F5F5F5F5F5F5F5F5F5F5F5F5F5F5F5F5F5F5F5F5F5F5F5F5F5F5F5F5F5F5F5F5F5F5F5F5F5F5F5F5F5F5F5F5F5F5F5F5F5F5F5F5F5F5F5F5F5F5F5F5F5F5F5F5F5F5F5F5
310
F5F5F5F5F5F5F5F5F5F5F5F5F5F5F5F5F5F5F5F5F5F5F5F5F5F5F5F5F5F5F5F5F5F5F5F5F5F5F5E2F5F5F5F5F5F5F5F5F5F5F5F5F5F5F5F5E2F5F5F5E2E2EFF5F5F5E2F5F5F5F5F5F5F5F5F5F5F5F5F5F5F5F5E2F5F5F5F5F5F5F5F5F5F5F5F5F5F5F5F5F5F5F5F5F5F5F5F5F5F5F5F5F5F5F5F5F5F5F5F5F5F5F5F5F5F5F5
310
F5F5F5F5F5F5F5F5F5F5F5F5F5F5F5F5F5F5F5F5F5F5F5F5F5F5F5F5F5F5F5F5F5F5F5F5F5F5F5F5F5F5F5F5F5F5F5F5F5F5F5F5F5F5F5F5F5F5F5F5F5F5F5F5F5F5F5F5F5F5F5F5F5F5F5F5F5F5F5F5F5F5F5F5F5F5F5F5F5F5F5F5E2F5F5F5F5F5F5F5F5F5F5F5F5F5F5F5F5E2F5F5F5E2E2EFF5F5F5E2F5F5F5F5F5F5F5
310
F5F5F5F5F5F5F5F5F5E2F5F5F5F5F5F5F5F5F5F5F5F5F5F5F5F5F5F5F5F5F5F5F5F5F5F5F5F5F5F5F5F5F5F5F5F5F5F5F5F5F5F5F5F5F5F5F5F5F5F5F5F5F5F5F5F5F5F5F5F5F5F5F5F5F5F5F5F5F5F5F5F5F5F5F5F5F5F5F5F5F5F5F5F5F5F5F5F5F5F5F5F5F5F5F5F5F5F5F5F5F5F5F5F5F5F5F5F5F5F5F5F5F5F5F5F5F5
310
F5F5F5F5F5F5F5F5F5F5F5F5F5F5F5F5F5F5E2F5F5F5F5F5F5F5F5F5F5F5F5F5F5F5F5E2F5F5F5E2E2EFF5F5F5E2F5F5F5F5F5F5F5F5F5F5F5F5F5F5F5F5E2F5F5F5F5F5F5F5F5F5F5F5F5F5F5F5F5F5F5F5F5F5F5F5F5F5F5F5F5F5F5F5F5F5F5F5F5F5F5F5F5F5F5F5F5F5F5F5F5F5F5F5F5F5F5F5F5F5F5F5F5F5F5F5F5
310
F5F5F5F5F5F5F5F5F5F5F5F5F5F5F5F5F5F5F5F5F5F5F5F5F5F5F5F5F5F5F5F5F5F5F5F5F5F5F5F5F5F5F5F5F5F5F5F5F5F5F5F5F5F5F5F5F5F5F5F5F5F5F5F5F5F5F5F5F5F5F5E2F5F5F5F5F5F5F5F5F5F5F5F5F5F5F5F5E2F5F5F5E2E2EFF5F5F5E2F5F5F5F5F5F5F5F5F5F5F5F5F5F5F5F5E2F5F5F5F5F5F5F5F5F5F5F5
310
F5F5F5F5F5F5F5F5F5F5F5F5F5F5F5F5F5F5F5F5F5F5F5F5F5F5F5F5F5F5F5F5F5F5F5F5F5F5F5F5F5F5F5F5F5F5F5F5F5F5F5F5F5F5F5F5F5F5F5F5F5F5F5F5F5F5F5F5F5F5F5F5F5F5F5F5F5F5F5F5F5F5F5F5F5F5F5F5F5F5F5F5F5F5F5F5F5F5F5F5F5F5F5F5F5F5F5F5F5F5F5F5F5F5F5F5F5F5F5F5F5F5F5F5E2F5F5
310
F5F5F5F5F5F5F5F5F5F5F5F5F5F5E2F5F5F5E2E2EFF5F5F5E2F5F5F5F5F5F5F5F5F5F5F5F5F5F5F5F5E2F5F5F5F5F5F5F5F5F5F5F5F5F5F5F5F5F5F5F5F5F5F5F5F5F5F5F5F5F5F5F5F5F5F5F5F5F5F5F5F5F5F5F5F5F5F5F5F5F5F5F5F5F5F5F5F5F5F5F5F5F5F5F5F5F5F5F5F5F5F5F5F5F5F5F5F5F5F5F5F5F5F5F5F5F5
310
F5F5F5F5F5F5F5F5F5F5F5F5F5F5F5F5F5F5F5F5F5F5F5F5F5F5F5F5F5F5F5F5F5F5F5F5F5F5F5F5F5F5F5F5F5F5F5F5F5F5E2F5F5F5F5F5F5F5F5F5F5F5F5F5F5F5F5E2F5F5F5E2E2EFF5F5F5E2F5F5F5F5F5F5F5F5F5F5F5F5F5F5F5F5E2F5F5F5F5F5F5F5F5F5F5F5F5F5F5F5F5F5F5F5F5F5F5F5F5F5F5F5F5F5F5F5F5
310
F5F5F5F5F5F5F5F5F5F5F5F5F5F5F5F5F5F5F5F5F5F5F5F5F5F5F5F5F5F5F5F5F5F5F5F5F5F5F5F5F5F5F5F5F5F5F5F5F5F5F5F5F5F5F5F5F5F5F5F5F5F5F5F5F5F5F5F5F5F5F5F5F5F5F5F5F5F5F5F5F5F5F5F5F5F5F5F5F5F5F5F5F5F5F5F5F5F5F5F5F5F5F5E2F5F5F5F5F5F5F5F5F5F5F5F5F5F5F5F5E2F5F5F5E2E2EF
310
F5F5F5E2F5F5F5F5F5F5F5F5F5F5F5F5F5F5F5F5E2F5F5F5F5F5F5F5F5F5F5F5F5F5F5F5F5F5F5F5F5F5F5F5F5F5F5F5F5F5F5F5F5F5F5F5F5F5F5F5F5F5F5F5F5F5F5F5F5F5F5F5F5F5F5F5F5F5F5F5F5F5F5F5F5F5F5F5F5F5F5F5F5F5F5F5F5F5F5F5F5F5F5F5F5F5F5F5F5F5F5F5F5F5F5F5F5F5F5F5F5F5F5F5F5F5F5
310
F5F5F5F5F5F5F5F5F5F5F5F5F5F5F5F5F5F5F5F5F5F5F5F5F5F5F5F5F5E2F5F5F5F5F5F5F5F5F5F5F5F5F5F5F5F5E2F5F5F5E2E2EFF5F5F5E2F5F5F5F5F5F5F5F5F5F5F5F5F5F5F5F5E2F5F5F5F5F5F5F5F5F5F5F5F5F5F5F5F5F5F5F5F5F5F5F5F5F5F5F5F5F5F5F5F5F5F5F5F5F5F5F5F5F5F5F5F5F5F5F5F5F5F5F5F5F5
310
F5F5F5F5F5F5F5F5F5F5F5F5F5F5F5F5F5F5F5F5F5F5F5F5F5F5F5F5F5F5F5F5F5F5F5F5F5F5F5F5F5F5F5F5F5F5F5F5F5F5F5F5F5F5F5F5F5F5F5F5F5F5F5F5F5F5F5F5F5F5F5F5F5F5F5F5F5F5F5F5F5F5E2F5F5F5F5F5F5F5F5F5F5F5F5F5F5F5F5E2F5F5F5E2E2EFF5F5F5E2F5F5F5F5F5F5F5F5F5F5F5F5F5F5F5F5E2
310
F5F5F5F5F5F5F5F5F5F5F5F5F5F5F5F5F5F5F5F5F5F5F5F5F5F5F5F5F5F5F5F5F5F5F5F5F5F5F5F5F5F5F5F5F5F5F5F5F5F5F5F5F5F5F5F5F5F5F5F5F5F5F5F5F5F5F5F5F5F5F5F5F5F5F5F5F5F5F5F5F5F5F5F5F5F5F5F5F5F5F5F5F5F5F5F5F5F5F5F5F5F5F5F5F5F5F5F5F5F5F5F5F5F5F5F5F5F5F5F5F5F5F5F5F5F5F5
310
F5F5F5F5F5F5F5F5E2F5F5F5F5F5F5F5F5F5F5F5F5F5F5F5F5E2F5F5F5E2E2EFF5F5F5E2F5F5F5F5F5F5F5F5F5F5F5F5F5F5F5F5E2F5F5F5F5F5F5F5F5F5F5F5F5F5F5F5F5F5F5F5F5F5F5F5F5F5F5F5F5F5F5F5F5F5F5F5F5F5F5F5F5F5F5F5F5F5F5F5F5F5F5F5F5F5F5F5F5F5F5F5F5F5F5F5F5F5F5F5F5F5F5F5F5F5F5
310
F5F5F5F5F5F5F5F5F5F5F5F5F5F5F5F5F5F5F5F5F5F5F5F5F5F5F5F5F5F5F5F5F5F5F5F5F5F5F5F5F5F5F5F5F5F5F5F5F5F5F5F5F5F5F5F5F5F5F5F5F5E2F5F5F5F5F5F5F5F5F5F5F5F5F5F5F5F5E2F5F5F5E2E2EFF5F5F5E2F5F5F5F5F5F5F5F5F5F5F5F5F5F5F5F5E2F5F5F5F5F5F5F5F5F5F5F5F5F5F5F5F5F5F5F5F5F5
310
F5F5F5F5F5F5F5F5F5F5F5F5F5F5F5F5F5F5F5F5F5F5F5F5F5F5F5F5F5F5F5F5F5F5F5F5F5F5F5F5F5F5F5F5F5F5F5F5F5F5F5F5F5F5F5F5F5F5F5F5F5F5F5F5F5F5F5F5F5F5F5F5F5F5F5F5F5F5F5F5F5F5F5F5F5F5F5F5F5F5F5F5F5F5F5F5F5F5F5F5F5F5F5F5F5F5F5F5F5F5F5F5F5F5E2F5F5F5F5F5F5F5F5F5F5F5F5
310
F5F5F5F5E2F5F5F5E2E2EFF5F5F5E2F5F5F5F5F5F5F5F5F5F5F5F5F5F5F5F5E2F5F5F5F5F5F5F5F5F5F5F5F5F5F5F5F5F5F5F5F5F5F5F5F5F5F5F5F5F5F5F5F5F5F5F5F5F5F5F5F5F5F5F5F5F5F5F5F5F5F5F5F5F5F5F5F5F5F5F5F5F5F5F5F5F5F5F5F5F5F5F5F5F5F5F5F5F5F5F5F5F5F5F5F5F5F5F5F5F5F5F5F5F5F5F5
310
F5F5F5F5F5F5F5F5F5F5F5F5F5F5F5F5F5F5F5F5F5F5F5F5F5F5F5F5F5F5F5F5F5F5F5F5F5F5F5F5E2F5F5F5F5F5F5F5F5F5F5F5F5F5F5F5F5E2F5F5F5E2E2EFF5F5F5F5F5F5F5F5F5F5F5F5F5F5F5F5F5F5F5F5E2F5F5F5F5F5F5F5F5F5F5F5F5F5F5F5F5F5F5F5F5F5F5F5F5F5F5F5F5F5F5F5F5F5F5F5F5F5F5F5F5F5F5
310
F5F5F5F5F5F5F5F5F5F5F5F5F5F5F5F5F5F5F5F5F5F5F5F5F5F5F5F5F5F5F5F5F5F5F5F5F5F5F5F5F5F5F5F5F5F5F5F5F5F5F5F5F5F5F5F5F5F5F5F5F5F5F5F5F5F5F5F5F5F5F5F5F5F5F5F5F5F5F5F5F5F5F5F5F5F5F5F5F5F5F5F5F5E2F5F5F5F5F5F5F5F5F5F5F5F5F5F5F5F5F5F5F5F5E2E2EFF5F5F5F5F5F5F5F5F5F5
310
F5F5F5F5F5F5F5F5F5F5E2F5F5F5F5F5F5F5F5F5F5F5F5F5F5F5F5F5F5F5F5F5F5F5F5F5F5F5F5F5F5F5F5F5F5F5F5F5F5F5F5F5F5F5F5F5F5F5F5F5F5F5F5F5F5F5F5F5F5F5F5F5F5F5F5F5F5F5F5F5F5F5F5F5F5F5F5F5F5F5F5F5F5F5F5F5F5F5F5F5F5F5F5F5F5F5F5F5F5F5F5F5F5F5F5F5F5F5F5F5F5F5F5F5F5F5F5
310
F5F5F5F5F5F5F5F5F5F5F5F5F5F5F5F5F5F5F5E2F5F5F5F5F5F5F5F5F5F5F5F5F5F5F5F5F5F5F5F5E2E2EFF5F5F5F5F5F5F5F5F5F5F5F5F5F5F5F5F5F5F5F5E2F5F5F5F5F5F5F5F5F5F5F5F5F5F5F5F5F5F5F5F5F5F5F5F5F5F5F5F5F5F5F5F5F5F5F5F5F5F5F5F5F5F5F5F5F5F5F5F5F5F5F5F5F5F5F5F5F5F5F5F5F5F5F5
310
F5F5F5F5F5F5F5F5F5F5F5F5F5F5F5F5F5F5F5F5F5F5F5F5F5F5F5F5F5F5F5F5F5F5F5F5F5F5F5F5F5F5F5F5F5F5F5F5F5F5F5F5F5F5F5F5F5F5F5F5F5F5F5F5F5F5F5F5F5F5F5F5E2F5F5F5F5F5F5F5F5F5F5F5F5F5F5F5F5F5F5F5F5E2E2EFF5F5F5F5F5F5F5F5F5F5F5F5F5F5F5F5F5F5F5F5E2F5F5F5F5F5F5F5F5F5F5
310
F5F5F5F5F5F5F5F5F5F5F5F5F5F5F5F5F5F5F5F5F5F5F5F5F5F5F5F5F5F5F5F5F5F5F5F5F5F5F5F5F5F5F5F5F5F5F5F5F5F5F5F5F5F5F5F5F5F5F5F5F5F5F5F5F5F5F5F5F5F5F5F5F5F5F5F5F5F5F5F5F5F5F5F5F5F5F5F5F5F5F5F5F5F5F5F5F5F5F5F5F5F5F5F5F5F5F5F5F5F5F5F5F5F5F5F5F5F5F5F5F5F5F5F5F5E2F5
310
F5F5F5F5F5F5F5F5F5F5F5F5F5F5F5F5F5F5F5E2E2EFF5F5F5F5F5F5F5F5F5F5F5F5F5F5F5F5F5F5F5F5E2F5F5F5F5F5F5F5F5F5F5F5F5F5F5F5F5F5F5F5F5F5F5F5F5F5F5F5F5F5F5F5F5F5F5F5F5F5F5F5F5F5F5F5F5F5F5F5F5F5F5F5F5F5F5F5F5F5F5F5F5F5F5F5F5F5F5F5F5F5F5F5F5F5F5F5F5F5F5F5F5F5F5F5F5
310
F5F5F5F5F5F5F5F5F5F5F5F5F5F5F5F5F5F5F5F5F5F5F5F5F5F5F5F5F5F5F5F5F5F5F5F5F5F5F5F5F5F5F5F5F5F5F5F5F5F5F5E2F5F5F5F5F5F5F5F5F5F5F5F5F5F5F5F5F5F5F5F5E2E2EFF5F5F5F5F5F5F5F5F5F5F5F5F5F5F5F5F5F5F5F5E2F5F5F5F5F5F5F5F5F5F5F5F5F5F5F5F5F5F5F5F5F5F5F5F5F5F5F5F5F5F5F5
310
F5F5F5F5F5F5F5F5F5F5F5F5F5F5F5F5F5F5F5F5F5F5F5F5F5F5F5F5F5F5F5F5F5F5F5F5F5F5F5F5F5F5F5F5F5F5F5F5F5F5F5F5F5F5F5F5F5F5F5F5F5F5F5F5F5F5F5F5F5F5F5F5F5F5F5F5F5F5F5F5F5F5F5F5F5F5F5F5F5F5F5F5F5F5F5F5F5F5F5F5F5F5F5F5E2F5F5F5F5F5F5F5F5F5F5F5F5F5F5F5F5F5F5F5F5E2E2
310
EFF5F5F5F5F5F5F5F5F5F5F5F5F5F5F5F5F5F5F5F5E2F5F5F5F5F5F5F5F5F5F5F5F5F5F5F5F5F5F5F5F5F5F5F5F5F5F5F5F5F5F5F5F5F5F5F5F5F5F5F5F5F5F5F5F5F5F5F5F5F5F5F5F5F5F5F5F5F5F5F5F5F5F5F5F5F5F5F5F5F5F5F5F5F5F5F5F5F5F5F5F5F5F5F5F5F5F5F5F5F5F5F5F5F5F5F5F5F5F5F5F5F5F5F5F5F5
310
F5F5F5F5F5F5F5F5F5F5F5F5F5F5F5F5F5F5F5F5F5F5F5F5F5F5F5F5F5F5E2F5F5F5F5F5F5F5F5F5F5F5F5F5F5F5F5F5F5F5F5E2E2EFF5F5F5F5F5F5F5F5F5F5F5F5F5F5F5F5F5F5F5F5E2F5F5F5F5F5F5F5F5F5F5F5F5F5F5F5F5F5F5F5F5F5F5F5F5F5F5F5F5F5F5F5F5F5F5F5F5F5F5F5F5F5F5F5F5F5F5F5F5F5F5F5F5
310
F5F5F5F5F5F5F5F5F5F5F5F5F5F5F5F5F5F5F5F5F5F5F5F5F5F5F5F5F5F5F5F5F5F5F5F5F5F5F5F5F5F5F5F5F5F5F5F5F5F5F5F5F5F5F5F5F5F5F5F5F5F5F5F5F5F5F5F5F5F5F5F5F5F5F5F5F5F5F5F5F5F5F5E2F5F5F5F5F5F5F5F5F5F5F5F5F5F5F5F5F5F5F5F5E2E2EFF5F5F5F5F5F5F5F5F5F5F5F5F5F5F5F5F5F5F5F5
310
E2F5F5F5F5F5F5F5F5F5F5F5F5F5F5F5F5F5F5F5F5F5F5F5F5F5F5F5F5F5F5F5F5F5F5F5F5F5F5F5F5F5F5F5F5F5F5F5F5F5F5F5F5F5F5F5F5F5F5F5F5F5F5F5F5F5F5F5F5F5F5F5F5F5F5F5F5F5F5F5F5F5F5F5F5F5F5F5F5F5F5F5F5F5F5F5F5F5F5F5F5F5F5F5F5F5F5F5F5F5F5F5F5F5F5F5F5F5F5F5F5F5F5F5F5F5F5
310
F5F5F5F5F5F5F5F5F5E2F5F5F5F5F5F5F5F5F5F5F5F5F5F5F5F5F5F5F5F5E2E2EFF5F5F5E2F5F5F5F5F5F5F5F5F5F5F5F5F5F5F5F5E2F5F5F5F5F5F5F5F5F5F5F5F5F5F5F5F5F5F5F5F5F5F5F5F5F5F5F5F5F5F5F5F5F5F5F5F5F5F5F5F5F5F5F5F5F5F5F5F5F5F5F5F5F5F5F5F5F5F5F5F5F5F5F5F5F5F5F5F5F5F5F5F5F5
310
F5F5F5F5F5F5F5F5F5F5F5F5F5F5F5F5F5F5F5F5F5F5F5F5F5F5F5F5F5F5F5F5F5F5F5F5F5F5F5F5F5F5F5F5F5F5F5F5F5F5F5F5F5F5F5F5F5F5F5F5F5F5E2F5F5F5F5F5F5F5F5F5F5F5F5F5F5F5F5E2F5F5F5E2E2EFF5F5F5E2F5F5F5F5F5F5F5F5F5F5F5F5F5F5F5F5E2F5F5F5F5F5F5F5F5F5F5F5F5F5F5F5F5F5F5F5F5
310
F5F5F5F5F5F5F5F5F5F5F5F5F5F5F5F5F5F5F5F5F5F5F5F5F5F5F5F5F5F5F5F5F5F5F5F5F5F5F5F5F5F5F5F5F5F5F5F5F5F5F5F5F5F5F5F5F5F5F5F5F5F5F5F5F5F5F5F5F5F5F5F5F5F5F5F5F5F5F5F5F5F5F5F5F5F5F5F5F5F5F5F5F5F5F5F5F5F5F5F5F5F5F5F5F5F5F5F5F5F5F5F5F5F5F5E2F5F5F5F5F5F5F5F5F5F5F5
310
F5F5F5F5F5E2F5F5F5E2E2EFF5F5F5E2F5F5F5F5F5F5F5F5F5F5F5F5F5F5F5F5E2F5F5F5F5F5F5F5F5F5F5F5F5F5F5F5F5F5F5F5F5F5F5F5F5F5F5F5F5F5F5F5F5F5F5F5F5F5F5F5F5F5F5F5F5F5F5F5F5F5F5F5F5F5F5F5F5F5F5F5F5F5F5F5F5F5F5F5F5F5F5F5F5F5F5F5F5F5F5F5F5F5F5F5F5F5F5F5F5F5F5F5F5F5F5
310
F5F5F5F5F5F5F5F5F5F5F5F5F5F5F5F5F5F5F5F5F5F5F5F5F5F5F5F5F5F5F5F5F5F5F5F5F5F5F5F5F5E2F5F5F5F5F5F5F5F5F5F5F5F5F5F5F5F5E2F5F5F5E2E2EFF5F5F5E2F5F5F5F5F5F5F5F5F5F5F5F5F5F5F5F5E2F5F5F5F5F5F5F5F5F5F5F5F5F5F5F5F5F5F5F5F5F5F5F5F5F5F5F5F5F5F5F5F5F5F5F5F5F5F5F5F5F5
310
F5F5F5F5F5F5F5F5F5F5F5F5F5F5F5F5F5F5F5F5F5F5F5F5F5F5F5F5F5F5F5F5F5F5F5F5F5F5F5F5F5F5F5F5F5F5F5F5F5F5F5F5F5F5F5F5F5F5F5F5F5F5F5F5F5F5F5F5F5F5F5F5F5F5F5F5F5F5F5F5F5F5F5F5F5F5F5F5F5F5F5F5F5F5E2F5F5F5F5F5F5F5F5F5F5F5F5F5F5F5F5E2F5F5F5E2E2EFF5F5F5E2F5F5F5F5F5
310
F5F5F5F5F5F5F5F5F5F5F5E2F5F5F5F5F5F5F5F5F5F5F5F5F5F5F5F5F5F5F5F5F5F5F5F5F5F5F5F5F5F5F5F5F5F5F5F5F5F5F5F5F5F5F5F5F5F5F5F5F5F5F5F5F5F5F5F5F5F5F5F5F5F5F5F5F5F5F5F5F5F5F5F5F5F5F5F5F5F5F5F5F5F5F5F5F5F5F5F5F5F5F5F5F5F5F5F5F5F5F5F5F5F5F5F5F5F5F5F5F5F5F5F5F5F5F5
310
F5F5F5F5F5F5F5F5F5F5F5F5F5F5F5F5F5F5F5F5E2F5F5F5F5F5F5F5F5F5F5F5F5F5F5F5F5E2F5F5F5E2E2EFF5F5F5E2F5F5F5F5F5F5F5F5F5F5F5F5F5F5F5F5E2F5F5F5F5F5F5F5F5F5F5F5F5F5F5F5F5F5F5F5F5F5F5F5F5F5F5F5F5F5F5F5F5F5F5F5F5F5F5F5F5F5F5F5F5F5F5F5F5F5F5F5F5F5F5F5F5F5F5F5F5F5F5
310
F5F5F5F5F5F5F5F5F5F5F5F5F5F5F5F5F5F5F5F5F5F5F5F5F5F5F5F5F5F5F5F5F5F5F5F5F5F5F5F5F5F5F5F5F5F5F5F5F5F5F5F5F5F5F5F5F5F5F5F5F5F5F5F5F5F5F5F5F5F5F5F5F5E2F5F5F5F5F5F5F5F5F5F5F5F5F5F5F5F5E2F5F5F5E2E2EFF5F5F5E2F5F5F5F5F5F5F5F5F5F5F5F5F5F5F5F5E2F5F5F5F5F5F5F5F5F5
310
F5F5F5F5F5F5F5F5F5F5F5F5F5F5F5F5F5F5F5F5F5F5F5F5F5F5F5F5F5F5F5F5F5F5F5F5F5F5F5F5F5F5F5F5F5F5F5F5F5F5F5F5F5F5F5F5F5F5F5F5F5F5F5F5F5F5F5F5F5F5F5F5F5F5F5F5F5F5F5F5F5F5F5F5F5F5F5F5F5F5F5F5F5F5F5F5F5F5F5F5F5F5F5F5F5F5F5F5F5F5F5F5F5F5F5F5F5F5F5F5F5F5F5F5F5F5E2
310
F5F5F5F5F5F5F5F5F5F5F5F5F5F5F5F5E2F5F5F5E2E2EFF5F5F5E2F5F5F5F5F5F5F5F5F5F5F5F5F5F5F5F5E2F5F5F5F5F5F5F5F5F5F5F5F5F5F5F5F5F5F5F5F5F5F5F5F5F5F5F5F5F5F5F5F5F5F5F5F5F5F5F5F5F5F5F5F5F5F5F5F5F5F5F5F5F5F5F5F5F5F5F5F5F5F5F5F5F5F5F5F5F5F5F5F5F5F5F5F5F5F5F5F5F5F5F5
310
F5F5F5F5F5F5F5F5F5F5F5F5F5F5F5F5F5F5F5F5F5F5F5F5F5F5F5F5F5F5F5F5F5F5F5F5F5F5F5F5F5F5F5F5F5F5F5F5F5F5F5F5E2F5F5F5F5F5F5F5F5F5F5F5F5F5F5F5F5E2F5F5F5E2E2EFF5F5F5E2F5F5F5F5F5F5F5F5F5F5F5F5F5F5F5F5E2F5F5F5F5F5F5F5F5F5F5F5F5F5F5F5F5F5F5F5F5F5F5F5F5F5F5F5F5F5F5
310
F5F5F5F5F5F5F5F5F5F5F5F5F5F5F5F5F5F5F5F5F5F5F5F5F5F5F5F5F5F5F5F5F5F5F5F5F5F5F5F5F5F5F5F5F5F5F5F5F5F5F5F5F5F5F5F5F5F5F5F5F5F5F5F5F5F5F5F5F5F5F5F5F5F5F5F5F5F5F5F5F5F5F5F5F5F5F5F5F5F5F5F5F5F5F5F5F5F5F5F5F5F5F5F5F5E2F5F5F5F5F5F5F5F5F5F5F5F5F5F5F5F5E2F5F5F5E2
310
E2EFF5F5F5E2F5F5F5F5F5F5F5F5F5F5F5F5F5F5F5F5E2F5F5F5F5F5F5F5F5F5F5F5F5F5F5F5F5F5F5F5F5F5F5F5F5F5F5F5F5F5F5F5F5F5F5F5F5F5F5F5F5F5F5F5F5F5F5F5F5F5F5F5F5F5F5F5F5F5F5F5F5F5F5F5F5F5F5F5F5F5F5F5F5F5F5F5F5F5F5F5F5F5F5F5F5F5F5F5F5F5F5F5F5F5F5F5F5F5F5F5F5F5F5F5F5
310
F5F5F5F5F5F5F5F5F5F5F5F5F5F5F5F5F5F5F5F5F5F5F5F5F5F5F5F5F5F5F5E2F5F5F5F5F5F5F5F5F5F5F5F5F5F5F5F5E2F5F5F5E2E2EFF5F5F5E2F5F5F5F5F5F5F5F5F5F5F5F5F5F5F5F5E2F5F5F5F5F5F5F5F5F5F5F5F5F5F5F5F5F5F5F5F5F5F5F5F5F5F5F5F5F5F5F5F5F5F5F5F5F5F5F5F5F5F5F5F5F5F5F5F5F5F5F5
310
F5F5F5F5F5F5F5F5F5F5F5F5F5F5F5F5F5F5F5F5F5F5F5F5F5F5F5F5F5F5F5F5F5F5F5F5F5F5F5F5F5F5F5F5F5F5F5F5F5F5F5F5F5F5F5F5F5F5F5F5F5F5F5F5F5F5F5F5F5F5F5F5F5F5F5F5F5F5F5F5F5F5F5F5E2F5F5F5F5F5F5F5F5F5F5F5F5F5F5F5F5E2F5F5F5E2E2EFF5F5F5E2F5F5F5F5F5F5F5F5F5F5F5F5F5F5F5
310
F5E2F5F5F5F5F5F5F5F5F5F5F5F5F5F5F5F5F5F5F5F5F5F5F5F5F5F5F5F5F5F5F5F5F5F5F5F5F5F5F5F5F5F5F5F5F5F5F5F5F5F5F5F5F5F5F5F5F5F5F5F5F5F5F5F5F5F5F5F5F5F5F5F5F5F5F5F5F5F5F5F5F5F5F5F5F5F5F5F5F5F5F5F5F5F5F5F5F5F5F5F5F5F5F5F5F5F5F5F5F5F5F5F5F5F5F5F5F5F5F5F5F5F5F5F5F5
310
F5F5F5F5F5F5F5F5F5F5E2F5F5F5F5F5F5F5F5F5F5F5F5F5F5F5F5E2F5F5F5E2E2EFF5F5F5E2F5F5F5F5F5F5F5F5F5F5F5F5F5F5F5F5E2F5F5F5F5F5F5F5F5F5F5F5F5F5F5F5F5F5F5F5F5F5F5F5F5F5F5F5F5F5F5F5F5F5F5F5F5F5F5F5F5F5F5F5F5F5F5F5F5F5F5F5F5F5F5F5F5F5F5F5F5F5F5F5F5F5F5F5F5F5F5F5F5
310
F5F5F5F5F5F5F5F5F5F5F5F5F5F5F5F5F5F5F5F5F5F5F5F5F5F5F5F5F5F5F5F5F5F5F5F5F5F5F5F5F5F5F5F5F5F5F5F5F5F5F5F5F5F5F5F5F5F5F5F5F5F5F5E2F5F5F5F5F5F5F5F5F5F5F5F5F5F5F5F5E2F5F5F5E2E2EFF5F5F5E2F5F5F5F5F5F5F5F5F5F5F5F5F5F5F5F5E2F5F5F5F5F5F5F5F5F5F5F5F5F5F5F5F5F5F5F5
310
F5F5F5F5F5F5F5F5F5F5F5F5F5F5F5F5F5F5F5F5F5F5F5F5F5F5F5F5F5F5F5F5F5F5F5F5F5F5F5F5F5F5F5F5F5F5F5F5F5F5F5F5F5F5F5F5F5F5F5F5F5F5F5F5F5F5F5F5F5F5F5F5F5F5F5F5F5F5F5F5F5F5F5F5F5F5F5F5F5F5F5F5F5F5F5F5F5F5F5F5F5F5F5F5F5F5F5F5F5F5F5F5F5F5F5F5E2F5F5F5F5F5F5F5F5F5F5
310
F5F5F5F5F5F5E2F5F5F5E2E2EFF5F5F5E2F5F5F5F5F5F5F5F5F5F5F5F5F5F5F5F5E2F5F5F5F5F5F5F5F5F5F5F5F5F5F5F5F5F5F5F5F5F5F5F5F5F5F5F5F5F5F5F5F5F5F5F5F5F5F5F5F5F5F5F5F5F5F5F5F5F5F5F5F5F5F5F5F5F5F5F5F5F5F5F5F5F5F5F5F5F5F5F5F5F5F5F5F5F5F5F5F5F5F5F5F5F5F5F5F5F5F5F5F5F5
310
F5F5F5F5F5F5F5F5F5F5F5F5F5F5F5F5F5F5F5F5F5F5F5F5F5F5F5F5F5F5F5F5F5F5F5F5F5F5F5F5F5F5E2F5F5F5F5F5F5F5F5F5F5F5F5F5F5F5F5E2F5F5F5E2E2EFF5F5F5E2F5F5F5F5F5F5F5F5F5F5F5F5F5F5F5F5E2F5F5F5F5F5F5F5F5F5F5F5F5F5F5F5F5F5F5F5F5F5F5F5F5F5F5F5F5F5F5F5F5F5F5F5F5F5F5F5F5
310
F5F5F5F5F5F5F5F5F5F5F5F5F5F5F5F5F5F5F5F5F5F5F5F5F5F5F5F5F5F5F5F5F5F5F5F5F5F5F5F5F5F5F5F5F5F5F5F5F5F5F5F5F5F5F5F5F5F5F5F5F5F5F5F5F5F5F5F5F5F5F5F5F5F5F5F5F5F5F5F5F5F5F5F5F5F5F5F5F5F5F5F5F5F5F5E2F5F5F5F5F5F5F5F5F5F5F5F5F5F5F5F5E2F5F5F5E2E2EFF5F5F5E2F5F5F5F5
310
F5F5F5F5F5F5F5F5F5F5F5F5E2F5F5F5F5F5F5F5F5F5F5F5F5F5F5F5F5F5F5F5F5F5F5F5F5F5F5F5F5F5F5F5F5F5F5F5F5F5F5F5F5F5F5F5F5F5F5F5F5F5F5F5F5F5F5F5F5F5F5F5F5F5F5F5F5F5F5F5F5F5F5F5F5F5F5F5F5F5F5F5F5F5F5F5F5F5F5F5F5F5F5F5F5F5F5F5F5F5F5F5F5F5F5F5F5F5F5F5F5F5F5F5F5F5F5
310
F5F5F5F5F5F5F5F5F5F5F5F5F5F5F5F5F5F5F5F5F5E2F5F5F5F5F5F5F5F5F5F5F5F5F5F5F5F5E2F5F5F5E2E2EFF5F5F5F5F5F5F5F5F5F5F5F5F5F5F5F5F5F5F5F5E2F5F5F5F5F5F5F5F5F5F5F5F5F5F5F5F5F5F5F5F5F5F5F5F5F5F5F5F5F5F5F5F5F5F5F5F5F5F5F5F5F5F5F5F5F5F5F5F5F5F5F5F5F5F5F5F5F5F5F5F5F5
310
F5F5F5F5F5F5F5F5F5F5F5F5F5F5F5F5F5F5F5F5F5F5F5F5F5F5F5F5F5F5F5F5F5F5F5F5F5F5F5F5F5F5F5F5F5F5F5F5F5F5F5F5F5F5F5F5F5F5F5F5F5F5F5F5F5F5F5F5F5F5F5F5F5F5E2F5F5F5F5F5F5F5F5F5F5F5F5F5F5F5F5F5F5F5F5E2E2EFF5F5F5F5F5F5F5F5F5F5F5F5F5F5F5F5F5F5F5F5E2F5F5F5F5F5F5F5F5
310
F5F5F5F5F5F5F5F5F5F5F5F5F5F5F5F5F5F5F5F5F5F5F5F5F5F5F5F5F5F5F5F5F5F5F5F5F5F5F5F5F5F5F5F5F5F5F5F5F5F5F5F5F5F5F5F5F5F5F5F5F5F5F5F5F5F5F5F5F5F5F5F5F5F5F5F5F5F5F5F5F5F5F5F5F5F5F5F5F5F5F5F5F5F5F5F5F5F5F5F5F5F5F5F5F5F5F5F5F5F5F5F5F5F5F5F5F5F5F5F5F5F5F5F5F5F5F5
310
E2F5F5F5F5F5F5F5F5F5F5F5F5F5F5F5F5F5F5F5F5E2E2EFF5F5F5F5F5F5F5F5F5F5F5F5F5F5F5F5F5F5F5F5E2F5F5F5F5F5F5F5F5F5F5F5F5F5F5F5F5F5F5F5F5F5F5F5F5F5F5F5F5F5F5F5F5F5F5F5F5F5F5F5F5F5F5F5F5F5F5F5F5F5F5F5F5F5F5F5F5F5F5F5F5F5F5F5F5F5F5F5F5F5F5F5F5F5F5F5F5F5F5F5F5F5F5
310
F5F5F5F5F5F5F5F5F5F5F5F5F5F5F5F5F5F5F5F5F5F5F5F5F5F5F5F5F5F5F5F5F5F5F5F5F5F5F5F5F5F5F5F5F5F5F5F5F5F5F5F5F5E2F5F5F5F5F5F5F5F5F5F5F5F5F5F5F5F5F5F5F5F5E2E2EFF5F5F5F5F5F5F5F5F5F5F5F5F5F5F5F5F5F5F5F5E2F5F5F5F5F5F5F5F5F5F5F5F5F5F5F5F5F5F5F5F5F5F5F5F5F5F5F5F5F5
310
F5F5F5F5F5F5F5F5F5F5F5F5F5F5F5F5F5F5F5F5F5F5F5F5F5F5F5F5F5F5F5F5F5F5F5F5F5F5F5F5F5F5F5F5F5F5F5F5F5F5F5F5F5F5F5F5F5F5F5F5F5F5F5F5F5F5F5F5F5F5F5F5F5F5F5F5F5F5F5F5F5F5F5F5F5F5F5F5F5F5F5F5F5F5F5F5F5F5F5F5F5F5F5F5F5F5E2F5F5F5F5F5F5F5F5F5F5F5F5F5F5F5F5F5F5F5F5
310
E2E2EFF5F5F5F5F5F5F5F5F5F5F5F5F5F5F5F5F5F5F5F5E2F5F5F5F5F5F5F5F5F5F5F5F5F5F5F5F5F5F5F5F5F5F5F5F5F5F5F5F5F5F5F5F5F5F5F5F5F5F5F5F5F5F5F5F5F5F5F5F5F5F5F5F5F5F5F5F5F5F5F5F5F5F5F5F5F5F5F5F5F5F5F5F5F5F5F5F5F5F5F5F5F5F5F5F5F5F5F5F5F5F5F5F5F5F5F5F5F5F5F5F5F5F5F5
310
F5F5F5F5F5F5F5F5F5F5F5F5F5F5F5F5F5F5F5F5F5F5F5F5F5F5F5F5F5F5F5F5E2F5F5F5F5F5F5F5F5F5F5F5F5F5F5F5F5F5F5F5F5E2E2EFF5F5F5F5F5F5F5F5F5F5F5F5F5F5F5F5F5F5F5F5E2F5F5F5F5F5F5F5F5F5F5F5F5F5F5F5F5F5F5F5F5F5F5F5F5F5F5F5F5F5F5F5F5F5F5F5F5F5F5F5F5F5F5F5F5F5F5F5F5F5F5
310
F5F5F5F5F5F5F5F5F5F5F5F5F5F5F5F5F5F5F5F5F5F5F5F5F5F5F5F5F5F5F5F5F5F5F5F5F5F5F5F5F5F5F5F5F5F5F5F5F5F5F5F5F5F5F5F5F5F5F5F5F5F5F5F5F5F5F5F5F5F5F5F5F5F5F5F5F5F5F5F5F5F5F5F5F5E2F5F5F5F5F5F5F5F5F5F5F5F5F5F5F5F5F5F5F5F5E2E2EFF5F5F5F5F5F5F5F5F5F5F5F5F5F5F5F5F5F5
310
F5F5E2F5F5F5F5F5F5F5F5F5F5F5F5F5F5F5F5F5F5F5F5F5F5F5F5F5F5F5F5F5F5F5F5F5F5F5F5F5F5F5F5F5F5F5F5F5F5F5F5F5F5F5F5F5F5F5F5F5F5F5F5F5F5F5F5F5F5F5F5F5F5F5F5F5F5F5F5F5F5F5F5F5F5F5F5F5F5F5F5F5F5F5F5F5F5F5F5F5F5F5F5F5F5F5F5F5F5F5F5F5F5F5F5F5F5F5F5F5F5F5F5F5F5F5F5
310
F5F5F5F5F5F5F5F5F5F5F5E2F5F5F5F5F5F5F5F5F5F5F5F5F5F5F5F5F5F5F5F5E2E2EFF5F5F5F5F5F5F5F5F5F5F5F5F5F5F5F5F5F5F5F5E2F5F5F5F5F5F5F5F5F5F5F5F5F5F5F5F5F5F5F5F5F5F5F5F5F5F5F5F5F5F5F5F5F5F5F5F5F5F5F5F5F5F5F5F5F5F5F5F5F5F5F5F5F5F5F5F5F5F5F5F5F5F5F5F5F5F5F5F5F5F5F5
310
F5F5F5F5F5F5F5F5F5F5F5F5F5F5F5F5F5F5F5F5F5F5F5F5F5F5F5F5F5F5F5F5F5F5F5F5F5F5F5F5F5F5F5F5F5F5F5F5F5F5F5F5F5F5F5F5F5F5F5F5F5F5F5F5E2F5F5F5F5F5F5F5F5F5F5F5F5F5F5F5F5F5F5F5F5E2E2EFF5F5F5F5F5F5F5F5F5F5F5F5F5F5F5F5F5F5F5F5E2F5F5F5F5F5F5F5F5F5F5F5F5F5F5F5F5F5F5
310
F5F5F5F5F5F5F5F5F5F5F5F5F5F5F5F5F5F5F5F5F5F5F5F5F5F5F5F5F5F5F5F5F5F5F5F5F5F5F5F5F5F5F5F5F5F5F5F5F5F5F5F5F5F5F5F5F5F5F5F5F5F5F5F5F5F5F5F5F5F5F5F5F5F5F5F5F5F5F5F5F5F5F5F5F5F5F5F5F5F5F5F5F5F5F5F5F5F5F5F5F5F5F5F5F5F5F5F5F5F5F5F5F5F5F5F5F5E2F5F5F5F5F5F5F5F5F5
310
F5F5F5F5F5F5F5F5F5F5F5E2E2EFF5F5F5E2F5F5F5F5F5F5F5F5F5F5F5F5F5F5F5F5E2F5F5F5F5F5F5F5F5F5F5F5F5F5F5F5F5F5F5F5F5F5F5F5F5F5F5F5F5F5F5F5F5F5F5F5F5F5F5F5F5F5F5F5F5F5F5F5F5F5F5F5F5F5F5F5F5F5F5F5F5F5F5F5F5F5F5F5F5F5F5F5F5F5F5F5F5F5F5F5F5F5F5F5F5F5F5F5F5F5F5F5F5
310
F5F5F5F5F5F5F5F5F5F5F5F5F5F5F5F5F5F5F5F5F5F5F5F5F5F5F5F5F5F5F5F5F5F5F5F5F5F5F5F5F5F5F5E2F5F5F5F5F5F5F5F5F5F5F5F5F5F5F5F5E2F5F5F5E2E2EFF5F5F5E2F5F5F5F5F5F5F5F5F5F5F5F5F5F5F5F5E2F5F5F5F5F5F5F5F5F5F5F5F5F5F5F5F5F5F5F5F5F5F5F5F5F5F5F5F5F5F5F5F5F5F5F5F5F5F5F5
310
F5F5F5F5F5F5F5F5F5F5F5F5F5F5F5F5F5F5F5F5F5F5F5F5F5F5F5F5F5F5F5F5F5F5F5F5F5F5F5F5F5F5F5F5F5F5F5F5F5F5F5F5F5F5F5F5F5F5F5F5F5F5F5F5F5F5F5F5F5F5F5F5F5F5F5F5F5F5F5F5F5F5F5F5F5F5F5F5F5F5F5F5F5F5F5F5E2F5F5F5F5F5F5F5F5F5F5F5F5F5F5F5F5E2F5F5F5E2E2EFF5F5F5E2F5F5F5
310
F5F5F5F5F5F5F5F5F5F5F5F5F5E2F5F5F5F5F5F5F5F5F5F5F5F5F5F5F5F5F5F5F5F5F5F5F5F5F5F5F5F5F5F5F5F5F5F5F5F5F5F5F5F5F5F5F5F5F5F5F5F5F5F5F5F5F5F5F5F5F5F5F5F5F5F5F5F5F5F5F5F5F5F5F5F5F5F5F5F5F5F5F5F5F5F5F5F5F5F5F5F5F5F5F5F5F5F5F5F5F5F5F5F5F5F5F5F5F5F5F5F5F5F5F5F5F5
310
F5F5F5F5F5F5F5F5F5F5F5F5F5F5F5F5F5F5F5F5F5F5E2F5F5F5F5F5F5F5F5F5F5F5F5F5F5F5F5E2F5F5F5E2E2EFF5F5F5E2F5F5F5F5F5F5F5F5F5F5F5F5F5F5F5F5E2F5F5F5F5F5F5F5F5F5F5F5F5F5F5F5F5F5F5F5F5F5F5F5F5F5F5F5F5F5F5F5F5F5F5F5F5F5F5F5F5F5F5F5F5F5F5F5F5F5F5F5F5F5F5F5F5F5F5F5F5
310
F5F5F5F5F5F5F5F5F5F5F5F5F5F5F5F5F5F5F5F5F5F5F5F5F5F5F5F5F5F5F5F5F5F5F5F5F5F5F5F5F5F5F5F5F5F5F5F5F5F5F5F5F5F5F5F5F5F5F5F5F5F5F5F5F5F5F5F5F5F5F5F5F5F5F5E2F5F5F5F5F5F5F5F5F5F5F5F5F5F5F5F5E2F5F5F5E2E2EFF5F5F5E2F5F5F5F5F5F5F5F5F5F5F5F5F5F5F5F5E2F5F5F5F5F5F5F5
310
F5F5F5F5F5F5F5F5F5F5F5F5F5F5F5F5F5F5F5F5F5F5F5F5F5F5F5F5F5F5F5F5F5F5F5F5F5F5F5F5F5F5F5F5F5F5F5F5F5F5F5F5F5F5F5F5F5F5F5F5F5F5F5F5F5F5F5F5F5F5F5F5F5F5F5F5F5F5F5F5F5F5F5F5F5F5F5F5F5F5F5F5F5F5F5F5F5F5F5F5F5F5F5F5F5F5F5F5F5F5F5F5F5F5F5F5F5F5F5F5F5F5F5F5F5F5F5
310
F5E2F5F5F5F5F5F5F5F5F5F5F5F5F5F5F5F5E2F5F5F5E2E2EFF5F5F5E2F5F5F5F5F5F5F5F5F5F5F5F5F5F5F5F5E2F5F5F5F5F5F5F5F5F5F5F5F5F5F5F5F5F5F5F5F5F5F5F5F5F5F5F5F5F5F5F5F5F5F5F5F5F5F5F5F5F5F5F5F5F5F5F5F5F5F5F5F5F5F5F5F5F5F5F5F5F5F5F5F5F5F5F5F5F5F5F5F5F5F5F5F5F5F5F5F5F5
310
F5F5F5F5F5F5F5F5F5F5F5F5F5F5F5F5F5F5F5F5F5F5F5F5F5F5F5F5F5F5F5F5F5F5F5F5F5F5F5F5F5F5F5F5F5F5F5F5F5F5F5F5F5F5E2F5F5F5F5F5F5F5F5F5F5F5F5F5F5F5F5E2F5F5F5E2E2EFF5F5F5E2F5F5F5F5F5F5F5F5F5F5F5F5F5F5F5F5E2F5F5F5F5F5F5F5F5F5F5F5F5F5F5F5F5F5F5F5F5F5F5F5F5F5F5F5F5
310
F5F5F5F5F5F5F5F5F5F5F5F5F5F5F5F5F5F5F5F5F5F5F5F5F5F5F5F5F5F5F5F5F5F5F5F5F5F5F5F5F5F5F5F5F5F5F5F5F5F5F5F5F5F5F5F5F5F5F5F5F5F5F5F5F5F5F5F5F5F5F5F5F5F5F5F5F5F5F5F5F5F5F5F5F5F5F5F5F5F5F5F5F5F5F5F5F5F5F5F5F5F5F5F5F5F5F5E2F5F5F5F5F5F5F5F5F5F5F5F5F5F5F5F5E2F5F5
310
F5E2E2EFF5F5F5E2F5F5F5F5F5F5F5F5F5F5F5F5F5F5F5F5E2F5F5F5F5F5F5F5F5F5F5F5F5F5F5F5F5F5F5F5F5F5F5F5F5F5F5F5F5F5F5F5F5F5F5F5F5F5F5F5F5F5F5F5F5F5F5F5F5F5F5F5F5F5F5F5F5F5F5F5F5F5F5F5F5F5F5F5F5F5F5F5F5F5F5F5F5F5F5F5F5F5F5F5F5F5F5F5F5F5F5F5F5F5F5F5F5F5F5F5F5F5F5
310
F5F5F5F5F5F5F5F5F5F5F5F5F5F5F5F5F5F5F5F5F5F5F5F5F5F5F5F5F5F5F5F5F5E2F5F5F5F5F5F5F5F5F5F5F5F5F5F5F5F5E2F5F5F5E2E2EFF5F5F5E2F5F5F5F5F5F5F5F5F5F5F5F5F5F5F5F5E2F5F5F5F5F5F5F5F5F5F5F5F5F5F5F5F5F5F5F5F5F5F5F5F5F5F5F5F5F5F5F5F5F5F5F5F5F5F5F5F5F5F5F5F5F5F5F5F5F5
310
F5F5F5F5F5F5F5F5F5F5F5F5F5F5F5F5F5F5F5F5F5F5F5F5F5F5F5F5F5F5F5F5F5F5F5F5F5F5F5F5F5F5F5F5F5F5F5F5F5F5F5F5F5F5F5F5F5F5F5F5F5F5F5F5F5F5F5F5F5F5F5F5F5F5F5F5F5F5F5F5F5F5F5F5F5F5E2F5F5F5F5F5F5F5F5F5F5F5F5F5F5F5F5E2F5F5F5E2E2EFF5F5F5E2F5F5F5F5F5F5F5F5F5F5F5F5F5
310
F5F5F5E2F5F5F5F5F5F5F5F5F5F5F5F5F5F5F5F5F5F5F5F5F5F5F5F5F5F5F5F5F5F5F5F5F5F5F5F5F5F5F5F5F5F5F5F5F5F5F5F5F5F5F5F5F5F5F5F5F5F5F5F5F5F5F5F5F5F5F5F5F5F5F5F5F5F5F5F5F5F5F5F5F5F5F5F5F5F5F5F5F5F5F5F5F5F5F5F5F5F5F5F5F5F5F5F5F5F5F5F5F5F5F5F5F5F5F5F5F5F5F5F5F5F5F5
310
F5F5F5F5F5F5F5F5F5F5F5F5E2F5F5F5F5F5F5F5F5F5F5F5F5F5F5F5F5E2F5F5F5E2E2EFF5F5F5E2F5F5F5F5F5F5F5F5F5F5F5F5F5F5F5F5E2F5F5F5F5F5F5F5F5F5F5F5F5F5F5F5F5F5F5F5F5F5F5F5F5F5F5F5F5F5F5F5F5F5F5F5F5F5F5F5F5F5F5F5F5F5F5F5F5F5F5F5F5F5F5F5F5F5F5F5F5F5F5F5F5F5F5F5F5F5F5
310
F5F5F5F5F5F5F5F5F5F5F5F5F5F5F5F5F5F5F5F5F5F5F5F5F5F5F5F5F5F5F5F5F5F5F5F5F5F5F5F5F5F5F5F5F5F5F5F5F5F5F5F5F5F5F5F5F5F5F5F5F5F5F5F5F5E2F5F5F5F5F5F5F5F5F5F5F5F5F5F5F5F5E2F5F5F5E2E2EFF5F5F5E2F5F5F5F5F5F5F5F5F5F5F5F5F5F5F5F5E2F5F5F5F5F5F5F5F5F5F5F5F5F5F5F5F5F5
310
F5F5F5F5F5F5F5F5F5F5F5F5F5F5F5F5F5F5F5F5F5F5F5F5F5F5F5F5F5F5F5F5F5F5F5F5F5F5F5F5F5F5F5F5F5F5F5F5F5F5F5F5F5F5F5F5F5F5F5F5F5F5F5F5F5F5F5F5F5F5F5F5F5F5F5F5F5F5F5F5F5F5F5F5F5F5F5F5F5F5F5F5F5F5F5F5F5F5F5F5F5F5F5F5F5F5F5F5F5F5F5F5F5F5F5F5F5F5E2F5F5F5F5F5F5F5F5
310
F5F5F5F5F5F5F5F5E2F5F5F5E2E2EFF5F5F5E2F5F5F5F5F5F5F5F5F5F5F5F5F5F5F5F5E2F5F5F5F5F5F5F5F5F5F5F5F5F5F5F5F5F5F5F5F5F5F5F5F5F5F5F5F5F5F5F5F5F5F5F5F5F5F5F5F5F5F5F5F5F5F5F5F5F5F5F5F5F5F5F5F5F5F5F5F5F5F5F5F5F5F5F5F5F5F5F5F5F5F5F5F5F5F5F5F5F5F5F5F5F5F5F5F5F5F5F5
310
F5F5F5F5F5F5F5F5F5F5F5F5F5F5F5F5F5F5F5F5F5F5F5F5F5F5F5F5F5F5F5F5F5F5F5F5F5F5F5F5F5F5F5F5E2F5F5F5F5F5F5F5F5F5F5F5F5F5F5F5F5E2F5F5F5E2E2EFF5F5F5E2F5F5F5F5F5F5F5F5F5F5F5F5F5F5F5F5E2F5F5F5F5F5F5F5F5F5F5F5F5F5F5F5F5F5F5F5F5F5F5F5F5F5F5F5F5F5F5F5F5F5F5F5F5F5F5
310
F5F5F5F5F5F5F5F5F5F5F5F5F5F5F5F5F5F5F5F5F5F5F5F5F5F5F5F5F5F5F5F5F5F5F5F5F5F5F5F5F5F5F5F5F5F5F5F5F5F5F5F5F5F5F5F5F5F5F5F5F5F5F5F5F5F5F5F5F5F5F5F5F5F5F5F5F5F5F5F5F5F5F5F5F5F5F5F5F5F5F5F5F5F5F5F5F5E2F5F5F5F5F5F5F5F5F5F5F5F5F5F5F5F5E2F5F5F5E2E2EFF5F5F5E2F5F5
310
F5F5F5F5F5F5F5F5F5F5F5F5F5F5E2F5F5F5F5F5F5F5F5F5F5F5F5F5F5F5F5F5F5F5F5F5F5F5F5F5F5F5F5F5F5F5F5F5F5F5F5F5F5F5F5F5F5F5F5F5F5F5F5F5F5F5F5F5F5F5F5F5F5F5F5F5F5F5F5F5F5F5F5F5F5F5F5F5F5F5F5F5F5F5F5F5F5F5F5F5F5F5F5F5F5F5F5F5F5F5F5F5F5F5F5F5F5F5F5F5F5F5F5F5F5F5F5
310
F5F5F5F5F5F5F5F5F5F5F5F5F5F5F5F5F5F5F5F5F5F5F5E2F5F5F5F5F5F5F5F5F5F5F5F5F5F5F5F5E2F5F5F5E2E2EFF5F5F5E2F5F5F5F5F5F5F5F5F5F5F5F5F5F5F5F5E2F5F5F5F5F5F5F5F5F5F5F5F5F5F5F5F5F5F5F5F5F5F5F5F5F5F5F5F5F5F5F5F5F5F5F5F5F5F5F5F5F5F5F5F5F5F5F5F5F5F5F5F5F5F5F5F5F5F5F5
310
F5F5F5F5F5F5F5F5F5F5F5F5F5F5F5F5F5F5F5F5F5F5F5F5F5F5F5F5F5F5F5F5F5F5F5F5F5F5F5F5F5F5F5F5F5F5F5F5F5F5F5F5F5F5F5F5F5F5F5F5F5F5F5F5F5F5F5F5F5F5F5F5F5F5F5F5E2F5F5F5F5F5F5F5F5F5F5F5F5F5F5F5F5E2F5F5F5E2E2EFF5F5F5E2F5F5F5F5F5F5F5F5F5F5F5F5F5F5F5F5E2F5F5F5F5F5F5
310
F5F5F5F5F5F5F5F5F5F5F5F5F5F5F5F5F5F5F5F5F5F5F5F5F5F5F5F5F5F5F5F5F5F5F5F5F5F5F5F5F5F5F5F5F5F5F5F5F5F5F5F5F5F5F5F5F5F5F5F5F5F5F5F5F5F5F5F5F5F5F5F5F5F5F5F5F5F5F5F5F5F5F5F5F5F5F5F5F5F5F5F5F5F5F5F5F5F5F5F5F5F5F5F5F5F5F5F5F5F5F5F5F5F5F5F5F5F5F5F5F5F5F5F5F5F5F5
310
F5F5E2F5F5F5F5F5F5F5F5F5F5F5F5F5F5F5F5E2F5F5F5E2E2EFF5F5F5F5F5F5F5F5F5F5F5F5F5F5F5F5F5F5F5F5E2F5F5F5F5F5F5F5F5F5F5F5F5F5F5F5F5F5F5F5F5F5F5F5F5F5F5F5F5F5F5F5F5F5F5F5F5F5F5F5F5F5F5F5F5F5F5F5F5F5F5F5F5F5F5F5F5F5F5F5F5F5F5F5F5F5F5F5F5F5F5F5F5F5F5F5F5F5F5F5F5
310
F5F5F5F5F5F5F5F5F5F5F5F5F5F5F5F5F5F5F5F5F5F5F5F5F5F5F5F5F5F5F5F5F5F5F5F5F5F5F5F5F5F5F5F5F5F5F5F5F5F5F5F5F5F5F5E2F5F5F5F5F5F5F5F5F5F5F5F5F5F5F5F5F5F5F5F5E2E2EFF5F5F5F5F5F5F5F5F5F5F5F5F5F5F5F5F5F5F5F5E2F5F5F5F5F5F5F5F5F5F5F5F5F5F5F5F5F5F5F5F5F5F5F5F5F5F5F5
310
F5F5F5F5F5F5F5F5F5F5F5F5F5F5F5F5F5F5F5F5F5F5F5F5F5F5F5F5F5F5F5F5F5F5F5F5F5F5F5F5F5F5F5F5F5F5F5F5F5F5F5F5F5F5F5F5F5F5F5F5F5F5F5F5F5F5F5F5F5F5F5F5F5F5F5F5F5F5F5F5F5F5F5F5F5F5F5F5F5F5F5F5F5F5F5F5F5F5F5F5F5F5F5F5F5F5F5F5E2F5F5F5F5F5F5F5F5F5F5F5F5F5F5F5F5F5F5
310
F5F5E2E2EFF5F5F5F5F5F5F5F5F5F5F5F5F5F5F5F5F5F5F5F5E2F5F5F5F5F5F5F5F5F5F5F5F5F5F5F5F5F5F5F5F5F5F5F5F5F5F5F5F5F5F5F5F5F5F5F5F5F5F5F5F5F5F5F5F5F5F5F5F5F5F5F5F5F5F5F5F5F5F5F5F5F5F5F5F5F5F5F5F5F5F5F5F5F5F5F5F5F5F5F5F5F5F5F5F5F5F5F5F5F5F5F5F5F5F5F5F5F5F5F5F5F5
310
F5F5F5F5F5F5F5F5F5F5F5F5F5F5F5F5F5F5F5F5F5F5F5F5F5F5F5F5F5F5F5F5F5F5E2F5F5F5F5F5F5F5F5F5F5F5F5F5F5F5F5F5F5F5F5E2E2EFF5F5F5F5F5F5F5F5F5F5F5F5F5F5F5F5F5F5F5F5E2F5F5F5F5F5F5F5F5F5F5F5F5F5F5F5F5F5F5F5F5F5F5F5F5F5F5F5F5F5F5F5F5F5F5F5F5F5F5F5F5F5F5F5F5F5F5F5F5
310
F5F5F5F5F5F5F5F5F5F5F5F5F5F5F5F5F5F5F5F5F5F5F5F5F5F5F5F5F5F5F5F5F5F5F5F5F5F5F5F5F5F5F5F5F5F5F5F5F5F5F5F5F5F5F5F5F5F5F5F5F5F5F5F5F5F5F5F5F5F5F5F5F5F5F5F5F5F5F5F5F5F5F5F5F5F5F5E2F5F5F5F5F5F5F5F5F5F5F5F5F5F5F5F5F5F5F5F5E2E2EFF5F5F5F5F5F5F5F5F5F5F5F5F5F5F5F5
310
F5F5F5F5E2E2E2E2E2E2E2E2E2E2E2E2E2E2E2E2E2E2E2E2E2E2E2E2E2E2E2E2E2E2E2E2E2E2E2E2E2E2E2E2E2E2E2E2E2E2E2E2E2E2E2E2E2E2E2E2E2E2E2E2E2E2E2E2E2E2E2E2E2E2E2E2E2E2E2E2E2E2E2E2E2E2E2E2E2E2E2E2E2E2E2E2E2E2E2E2E2E2E2E2E2E2E2E2E2E2E2E2E2E2E2E2E2E2E2E2E2E2E2E2E2E2E2
310
E2E2E2E2E2E2E2E2E2E2E2E2E2E2F5F5F5F5F5F5F5F5F5F5F5F5F5F5F5F5F5F5F5F5E2E2EFF5F5F5F5F5F5F5F5F5F5F5F5F5F5F5F5F5F5F5F5F5F5F5F5F5F5F5F5F5F5F5F5F5F5F5F5F5F5F5F5F5F5F5F5F5F5F5F5F5F5F5F5F5F5F5F5F5F5F5F5F5F5F5F5F5F5F5F5F5F5F5F5F5F5F5F5F5F5F5F5F5F5F5F5F5F5F5F5F5F5
310
F5F5F5F5F5F5F5F5F5F5F5F5F5F5F5F5F5F5F5F5F5F5F5F5F5F5F5F5F5F5F5F5F5F5F5F5F5F5F5F5F5F5F5F5F5F5F5F5F5F5F5F5F5F5F5F5F5F5F5F5F5F5F5F5F5F5F5F5F5F5F5F5F5F5F5F5F5F5F5F5F5F5F5F5F5F5F5E2E2EFF5F5F5F5F5F5F5F5F5F5F5F5F5F5F5F5F5F5F5F5F5F5F5F5F5F5F5F5F5F5F5F5F5F5F5F5F5
310
F5F5F5F5F5F5F5F5F5F5F5F5F5F5F5F5F5F5F5F5F5F5F5F5F5F5F5F5F5F5F5F5F5F5F5F5F5F5F5F5F5F5F5F5F5F5F5F5F5F5F5F5F5F5F5F5F5F5F5F5F5F5F5F5F5F5F5F5F5F5F5F5F5F5F5F5F5F5F5F5F5F5F5F5F5F5F5F5F5F5F5F5F5F5F5F5F5F5F5F5F5F5F5F5F5F5F5F5F5F5F5F5F5F5F5F5F5F5F5F5F5F5F5F5F5F5F5
310
F5F5F5F5F5F5F5F5F5F5F5F5F5E2E2EFF5F5F5F5F5F5F5F5F5F5F5F5F5F5F5F5F5F5F5F5F5F5F5F5F5F5F5F5F5F5F5F5F5F5F5F5F5F5F5F5F5F5F5F5F5F5F5F5F5F5F5F5F5F5F5F5F5F5F5F5F5F5F5F5F5F5F5F5F5F5F5F5F5F5F5F5F5F5F5F5F5F5F5F5F5F5F5F5F5F5F5F5F5F5F5F5F5F5F5F5F5F5F5F5F5F5F5F5F5F5F5
310
F5F5F5F5F5F5F5F5F5F5F5F5F5F5F5F5F5F5F5F5F5F5F5F5F5F5F5F5F5F5F5F5F5F5F5F5F5F5F5F5F5F5F5F5F5F5F5F5F5F5F5F5F5F5F5F5F5F5F5F5F5F5F5F5F5F5E2E2EFF5F5F5F5F5F5F5F5F5F5F5F5F5F5F5F5F5F5F5F5F5F5F5F5F5F5F5F5F5F5F5F5F5F5F5F5F5F5F5F5F5F5F5F5F5F5F5F5F5F5F5F5F5F5F5F5F5F5
310
F5F5F5F5F5F5F5F5F5F5F5F5F5F5F5F5F5F5F5F5F5F5F5F5F5F5F5F5F5F5F5F5F5F5F5F5F5F5F5F5F5F5F5F5F5F5F5F5F5F5F5F5F5F5F5F5F5F5F5F5F5F5F5F5F5F5F5F5F5F5F5F5F5F5F5F5F5F5F5F5F5F5F5F5F5F5F5F5F5F5F5F5F5F5F5F5F5F5F5F5F5F5F5F5F5F5F5F5F5F5F5F5F5F5F5F5F5F5F5E2E2EFF5F5F5E2F5
310
F5F5F5F5F5F5F5F5F5F5F5F5F5F5F5F5F5F5F5F5F5F5F5F5F5F5F5F5F5F5F5F5F5F5F5F5F5F5F5F5F5F5F5F5F5F5F5F5F5F5F5F5F5F5F5F5F5F5F5F5F5F5F5F5F5F5F5F5F5F5F5F5F5F5F5F5F5F5F5F5F5F5F5F5F5F5F5F5F5F5F5F5F5F5F5F5F5F5F5F5F5F5F5F5F5F5F5F5F5F5F5F5F5F5F5F5F5F5F5F5F5F5F5F5F5F5F5
310
F5F5F5F5F5F5F5F5F5F5F5F5F5F5F5F5F5F5F5F5F5F5F5F5F5F5F5F5F5F5F5F5F5F5F5F5F5F5F5F5F5E2F5F5F5E2E2EFF5F5F5E2F5F5F5F5F5F5F5F5F5F5F5F5F5F5F5F5F5F5F5F5F5F5F5F5F5F5F5F5F5F5F5F5F5F5F5F5F5F5F5F5F5F5F5F5F5F5F5F5F5F5F5F5F5F5F5F5F5F5F5F5F5F5F5F5F5F5F5F5F5F5F5F5F5F5F5
310
F5F5F5F5F5F5F5F5F5F5F5F5F5F5F5F5F5F5F5F5F5F5F5F5F5F5F5F5F5F5F5F5F5F5F5F5F5F5F5F5F5F5F5F5F5F5F5F5F5F5F5F5F5F5F5F5F5F5F5F5F5F5F5F5F5F5F5F5F5F5F5F5F5F5F5F5F5F5F5F5F5F5F5F5F5F5F5F5F5F5F5F5F5F5E2F5F5F5E2E2EFF5F5F5E2F5F5F5F5F5F5F5F5F5F5F5F5F5F5F5F5F5F5F5F5F5F5
310
F5F5F5F5F5F5F5F5F5F5F5F5F5F5F5F5F5F5F5F5F5F5F5F5F5F5F5F5F5F5F5F5F5F5F5F5F5F5F5F5F5F5F5F5F5F5F5F5F5F5F5F5F5F5F5F5F5F5F5F5F5F5F5F5F5F5F5F5F5F5F5F5F5F5F5F5F5F5F5F5F5F5F5F5F5F5F5F5F5F5F5F5F5F5F5F5F5F5F5F5F5F5F5F5F5F5F5F5F5F5F5F5F5F5F5F5F5F5F5F5F5F5F5F5F5F5F5
310
F5F5F5F5F5F5F5F5F5F5F5F5F5F5F5F5F5F5F5F5E2F5F5F5E2E2EFF5F5F5E2F5F5F5F5F5F5F5F5F5F5F5F5F5F5F5F5F5F5F5F5F5F5F5F5F5F5F5F5F5F5F5F5F5F5F5F5F5F5F5F5F5F5F5F5F5F5F5F5F5F5F5F5F5F5F5F5F5F5F5F5F5F5F5F5F5F5F5F5F5F5F5F5F5F5F5F5F5F5F5F5F5F5F5F5F5F5F5F5F5F5F5F5F5F5F5F5
310
F5F5F5F5F5F5F5F5F5F5F5F5F5F5F5F5F5F5F5F5F5F5F5F5F5F5F5F5F5F5F5F5F5F5F5F5F5F5F5F5F5F5F5F5F5F5F5F5F5F5F5F5F5F5F5F5F5F5F5F5F5F5F5F5F5F5F5F5F5F5F5F5F5E2F5F5F5E2E2EFF5F5F5E2F5F5F5F5F5F5F5F5F5F5F5F5F5F5F5F5F5F5F5F5F5F5F5F5F5F5F5F5F5F5F5F5F5F5F5F5F5F5F5F5F5F5F5
310
F5F5F5F5F5F5F5F5F5F5F5F5F5F5F5F5F5F5F5F5F5F5F5F5F5F5F5F5F5F5F5F5F5F5F5F5F5F5F5F5F5F5F5F5F5F5F5F5F5F5F5F5F5F5F5F5F5F5F5F5F5F5F5F5F5F5F5F5F5F5F5F5F5F5F5F5F5F5F5F5F5F5F5F5F5F5F5F5F5F5F5F5F5F5F5F5F5F5F5F5F5F5F5F5F5F5F5F5F5F5F5F5F5F5F5F5F5F5F5F5F5F5F5F5F5F5E2
310
F5F5F5E2E2EFF5F5F5E2F5F5F5F5F5F5F5F5F5F5F5F5F5F5F5F5F5F5F5F5F5F5F5F5F5F5F5F5F5F5F5F5F5F5F5F5F5F5F5F5F5F5F5F5F5F5F5F5F5F5F5F5F5F5F5F5F5F5F5F5F5F5F5F5F5F5F5F5F5F5F5F5F5F5F5F5F5F5F5F5F5F5F5F5F5F5F5F5F5F5F5F5F5F5F5F5F5F5F5F5F5F5F5F5F5F5F5F5F5F5F5F5F5F5F5F5F5
310
F5F5F5F5F5F5F5F5F5F5F5F5F5F5F5F5F5F5F5F5F5F5F5F5F5F5F5F5F5F5F5F5F5F5F5F5F5F5F5F5F5F5F5F5F5F5F5F5F5F5F5F5E2F5F5F5E2E2EFF5F5F5E2F5F5F5F5F5F5F5F5F5F5F5F5F5F5F5F5F5F5F5F5F5F5F5F5F5F5F5F5F5F5F5F5F5F5F5F5F5F5F5F5F5F5F5F5F5F5F5F5F5F5F5F5F5F5F5F5F5F5F5F5F5F5F5F5
310
F5F5F5F5F5F5F5F5F5F5F5F5F5F5F5F5F5F5F5F5F5F5F5F5F5F5F5F5F5F5F5F5F5F5F5F5F5F5F5F5F5F5F5F5F5F5F5F5F5F5F5F5F5F5F5F5F5F5F5F5F5F5F5F5F5F5F5F5F5F5F5F5F5F5F5F5F5F5F5F5F5F5F5F5F5F5F5F5F5F5F5F5F5F5F5F5F5F5F5F5F5F5F5F5F5E2F5F5F5E2E2EFF5F5F5E2F5F5F5F5F5F5F5F5F5F5F5
310
F5F5F5F5F5F5F5F5F5F5F5F5F5F5F5F5F5F5F5F5F5F5F5F5F5F5F5F5F5F5F5F5F5F5F5F5F5F5F5F5F5F5F5F5F5F5F5F5F5F5F5F5F5F5F5F5F5F5F5F5F5F5F5F5F5F5F5F5F5F5F5F5F5F5F5F5F5F5F5F5F5F5F5F5F5F5F5F5F5F5F5F5F5F5F5F5F5F5F5F5F5F5F5F5F5F5F5F5F5F5F5F5F5F5F5F5F5F5F5F5F5F5F5F5F5F5F5
310
F5F5F5F5F5F5F5F5F5F5F5F5F5F5F5F5F5F5F5F5F5F5F5F5F5F5F5F5F5F5F5E2F5F5F5E2E2EFF5F5F5E2E2E2E2E2E2E2E2F5F5F5F5F5F5F5F5F5E2E2E2E2E2E2E2E2E2E2E2E2E2E2E2E2F5F5F5F5F5F5F5F5E2E2E2E2E2E2E2E2E2E2E2E2E2E2E2E2F5F5F5F5F5F5F5F5F5E2E2E2E2E2E2E2E2E2E2E2E2E2E2E2F5F5F5F5F5
310
F5F5F5F5E2E2E2E2E2E2E2E2E2E2E2E2E2E2E2F5F5F5F5F5F5F5F5F5E2E2E2E2E2E2E2E2E2E2E2E2E2E2E2E2F5F5F5F5F5F5F5F5E2E2E2E2E2E2E2E2E2E2E2E2E2E2E2E2F5F5F5F5F5F5F5F5F5E2E2E2E2E2E2E2E2F5F5F5E2E2EFF5F5F5F5F5F5F5F5F5F5F5F5F5F5F5F5F5F5F5F5F5F5F5F5F5F5F5F5F5F5F5F5F5F5F5F5
310
F5F5F5F5F5F5F5F5F5F5F5F5F5F5F5F5F5F5F5F5F5F5F5F5F5F5F5F5F5F5F5F5F5F5F5F5F5F5F5F5F5F5F5F5F5F5F5F5F5F5F5F5F5F5F5F5F5F5F5F5F5F5F5F5F5F5F5F5F5F5F5F5F5F5F5F5F5F5F5F5F5F5F5F5F5F5F5F5F5F5F5F5F5F5F5F5F5F5F5F5F5F5F5F5F5F5F5F5F5F5F5F5F5F5F5F5F5F5F5F5F5F5F5F5F5F5F5
310
F5F5F5F5F5F5F5F5F5F5F5F5F5F5E2E2EFF5F5F5F5F5F5F5F5F5F5F5F5F5F5F5F5F5F5F5F5F5F5F5F5F5F5F5F5F5F5F5F5F5F5F5F5F5F5F5F5F5F5F5F5F5F5F5F5F5F5F5F5F5F5F5F5F5F5F5F5F5F5F5F5F5F5F5F5F5F5F5F5F5F5F5F5F5F5F5F5F5F5F5F5F5F5F5F5F5F5F5F5F5F5F5F5F5F5F5F5F5F5F5F5F5F5F5F5F5F5
310
F5F5F5F5F5F5F5F5F5F5F5F5F5F5F5F5F5F5F5F5F5F5F5F5F5F5F5F5F5F5F5F5F5F5F5F5F5F5F5F5F5F5F5F5F5F5F5F5F5F5F5F5F5F5F5F5F5F5F5F5F5F5F5F5F5F5F5E2EFEFF5F5F5F5F5F5F5F5F5F5F5F5F5F5F5F5F5F5F5F5F5F5F5F5F5F5F5F5F5F5F5F5F5F5F5F5F5F5F5F5F5F5F5F5F5F5F5F5F5F5F5F5F5F5F5F5F5
310
F5F5F5F5F5F5F5F5F5F5F5F5F5F5F5F5F5F5F5F5F5F5F5F5F5F5F5F5F5F5F5F5F5F5F5F5F5F5F5F5F5F5F5F5F5F5F5F5F5F5F5F5F5F5F5F5F5F5F5F5F5F5F5F5F5F5F5F5F5F5F5F5F5F5F5F5F5F5F5F5F5F5F5F5F5F5F5F5F5F5F5F5F5F5F5F5F5F5F5F5F5F5F5F5F5F5F5F5F5F5F5F5F5F5F5F5F5F5F5F5E2EFEFE2E2E2E2
310
E2E2E2E2E2E2E2E2E2E2E2E2E2E2E2E2E2E2E2E2E2E2E2E2E2E2E2E2E2E2E2E2E2E2E2E2E2E2E2E2E2E2E2E2E2E2E2E2E2E2E2E2E2E2E2E2E2E2E2E2E2E2E2E2E2E2E2E2E2E2E2E2E2E2E2E2E2E2E2E2E2E2E2E2E2E2E2E2E2E2E2E2E2E2E2E2E2E2E2E2E2E2E2E2E2E2E2E2E2E2E2E2E2E2E2E2E2E2E2E2E2E2E2E2E2E2E2
310
E2E2E2E2E2E2E2E2E2E2E2E2E2E2E2E2E2E2E2E2E2E2E2E2E2E2E2E2E2E2E2E2E2E2E2E2E2E2E2E2E2E2E2E2E2E2E2EFEF
  0
ENDSEC
  0
EOF
