  0
SECTION
  2
HEADER
  9
$ACADVER
  1
AC1018
  9
$ACADMAINTVER
 70
     0
  9
$DWGCODEPAGE
  3
ANSI_1252
  9
$AUTHOR
  1
g6edxjah
  9
$LASTSAVEDBY
  1
g6edxjah
  9
$INSBASE
 10
0.0
 20
0.0
 30
0.0
  9
$EXTMIN
 10
54.885771
 20
-45.90251
 30
0.0
  9
$EXTMAX
 10
65.886646
 20
-37.401833
 30
0.0
  9
$LIMMIN
 10
32.581118
 20
-69.457262
  9
$LIMMAX
 10
88.191299
 20
-13.847082
  9
$ORTHOMODE
 70
     0
  9
$REGENMODE
 70
     1
  9
$FILLMODE
 70
     1
  9
$QTEXTMODE
 70
     0
  9
$MIRRTEXT
 70
     0
  9
$LTSCALE
 40
1.0
  9
$ATTMODE
 70
     1
  9
$TEXTSIZE
 40
0.10125
  9
$TRACEWID
 40
0.05
  9
$TEXTSTYLE
  7
Standard
  9
$CLAYER
  8
Level 10
  9
$CELTYPE
  6
Continuous
  9
$CECOLOR
 62
     7
  9
$CELTSCALE
 40
1.0
  9
$DISPSILH
 70
     0
  9
$DIMSCALE
 40
1.0
  9
$DIMASZ
 40
0.10125
  9
$DIMEXO
 40
0.050625
  9
$DIMDLI
 40
0.0
  9
$DIMRND
 40
0.0
  9
$DIMDLE
 40
0.0
  9
$DIMEXE
 40
0.050625
  9
$DIMTP
 40
0.0
  9
$DIMTM
 40
0.0
  9
$DIMTXT
 40
0.10125
  9
$DIMCEN
 40
0.09
  9
$DIMTSZ
 40
0.0
  9
$DIMTOL
 70
     0
  9
$DIMLIM
 70
     0
  9
$DIMTIH
 70
     0
  9
$DIMTOH
 70
     0
  9
$DIMSE1
 70
     0
  9
$DIMSE2
 70
     0
  9
$DIMTAD
 70
     1
  9
$DIMZIN
 70
    11
  9
$DIMBLK
  1
TerminatorOpen_0.5
  9
$DIMASO
 70
     1
  9
$DIMSHO
 70
     1
  9
$DIMPOST
  1

  9
$DIMAPOST
  1

  9
$DIMALT
 70
     0
  9
$DIMALTD
 70
     4
  9
$DIMALTF
 40
25.4
  9
$DIMLFAC
 40
1.0
  9
$DIMTOFL
 70
     0
  9
$DIMTVP
 40
0.0
  9
$DIMTIX
 70
     0
  9
$DIMSOXD
 70
     0
  9
$DIMSAH
 70
     0
  9
$DIMBLK1
  1

  9
$DIMBLK2
  1

  9
$DIMSTYLE
  2
Standard
  9
$DIMCLRD
 70
     0
  9
$DIMCLRE
 70
     0
  9
$DIMCLRT
 70
     0
  9
$DIMTFAC
 40
1.0
  9
$DIMGAP
 40
0.050625
  9
$DIMJUST
 70
     0
  9
$DIMSD1
 70
     0
  9
$DIMSD2
 70
     0
  9
$DIMTOLJ
 70
     0
  9
$DIMTZIN
 70
    11
  9
$DIMALTZ
 70
    15
  9
$DIMALTTZ
 70
    15
  9
$DIMUPT
 70
     0
  9
$DIMDEC
 70
     4
  9
$DIMTDEC
 70
     4
  9
$DIMALTU
 70
     2
  9
$DIMALTTD
 70
     4
  9
$DIMTXSTY
  7
Style-Arial
  9
$DIMAUNIT
 70
     0
  9
$DIMADEC
 70
     4
  9
$DIMALTRND
 40
0.0
  9
$DIMAZIN
 70
     3
  9
$DIMDSEP
 70
    46
  9
$DIMATFIT
 70
     1
  9
$DIMFRAC
 70
     0
  9
$DIMLDRBLK
  1
TerminatorOpen_0.5
  9
$DIMLUNIT
 70
     2
  9
$DIMLWD
 70
    -2
  9
$DIMLWE
 70
    -2
  9
$DIMTMOVE
 70
     0
  9
$LUNITS
 70
     2
  9
$LUPREC
 70
     4
  9
$SKETCHINC
 40
0.1
  9
$FILLETRAD
 40
0.0
  9
$AUNITS
 70
     0
  9
$AUPREC
 70
     4
  9
$MENU
  1
.
  9
$ELEVATION
 40
0.0
  9
$PELEVATION
 40
0.0
  9
$THICKNESS
 40
0.0
  9
$LIMCHECK
 70
     0
  9
$CHAMFERA
 40
0.0
  9
$CHAMFERB
 40
0.0
  9
$CHAMFERC
 40
0.0
  9
$CHAMFERD
 40
0.0
  9
$SKPOLY
 70
     0
  9
$TDCREATE
 40
2455364.325271377
  9
$TDUCREATE
 40
2455364.533604711
  9
$TDUPDATE
 40
2455364.325271377
  9
$TDUUPDATE
 40
2455364.533604711
  9
$TDINDWG
 40
0.0
  9
$TDUSRTIMER
 40
0.0006630093
  9
$USRTIMER
 70
     1
  9
$ANGBASE
 50
0.0
  9
$ANGDIR
 70
     0
  9
$PDMODE
 70
     0
  9
$PDSIZE
 40
0.0
  9
$PLINEWID
 40
0.0
  9
$SPLFRAME
 70
     0
  9
$SPLINETYPE
 70
     6
  9
$SPLINESEGS
 70
     8
  9
$HANDSEED
  5
4FE
  9
$SURFTAB1
 70
     6
  9
$SURFTAB2
 70
     6
  9
$SURFTYPE
 70
     6
  9
$SURFU
 70
     6
  9
$SURFV
 70
     6
  9
$UCSBASE
  2

  9
$UCSNAME
  2

  9
$UCSORG
 10
0.0
 20
0.0
 30
0.0
  9
$UCSXDIR
 10
1.0
 20
0.0
 30
0.0
  9
$UCSYDIR
 10
0.0
 20
1.0
 30
0.0
  9
$UCSORTHOREF
  2

  9
$UCSORTHOVIEW
 70
     0
  9
$UCSORGTOP
 10
0.0
 20
0.0
 30
0.0
  9
$UCSORGBOTTOM
 10
0.0
 20
0.0
 30
0.0
  9
$UCSORGLEFT
 10
0.0
 20
0.0
 30
0.0
  9
$UCSORGRIGHT
 10
0.0
 20
0.0
 30
0.0
  9
$UCSORGFRONT
 10
0.0
 20
0.0
 30
0.0
  9
$UCSORGBACK
 10
0.0
 20
0.0
 30
0.0
  9
$PUCSBASE
  2

  9
$PUCSNAME
  2

  9
$PUCSORG
 10
0.0
 20
0.0
 30
0.0
  9
$PUCSXDIR
 10
1.0
 20
0.0
 30
0.0
  9
$PUCSYDIR
 10
0.0
 20
1.0
 30
0.0
  9
$PUCSORTHOREF
  2

  9
$PUCSORTHOVIEW
 70
     0
  9
$PUCSORGTOP
 10
0.0
 20
0.0
 30
0.0
  9
$PUCSORGBOTTOM
 10
0.0
 20
0.0
 30
0.0
  9
$PUCSORGLEFT
 10
0.0
 20
0.0
 30
0.0
  9
$PUCSORGRIGHT
 10
0.0
 20
0.0
 30
0.0
  9
$PUCSORGFRONT
 10
0.0
 20
0.0
 30
0.0
  9
$PUCSORGBACK
 10
0.0
 20
0.0
 30
0.0
  9
$USERI1
 70
     0
  9
$USERI2
 70
     0
  9
$USERI3
 70
     0
  9
$USERI4
 70
     0
  9
$USERI5
 70
     0
  9
$USERR1
 40
0.0
  9
$USERR2
 40
0.0
  9
$USERR3
 40
0.0
  9
$USERR4
 40
0.0
  9
$USERR5
 40
0.0
  9
$WORLDVIEW
 70
     1
  9
$SHADEDGE
 70
     3
  9
$SHADEDIF
 70
    70
  9
$TILEMODE
 70
     1
  9
$MAXACTVP
 70
    64
  9
$PINSBASE
 10
0.0
 20
0.0
 30
0.0
  9
$PLIMCHECK
 70
     0
  9
$PEXTMIN
 10
1.049744
 20
0.799667
 30
-0.001526
  9
$PEXTMAX
 10
9.450623
 20
7.200577
 30
0.0
  9
$PLIMMIN
 10
-0.25
 20
-0.25
  9
$PLIMMAX
 10
10.75
 20
8.25
  9
$UNITMODE
 70
     0
  9
$VISRETAIN
 70
     1
  9
$PLINEGEN
 70
     0
  9
$PSLTSCALE
 70
     0
  9
$TREEDEPTH
 70
  3020
  9
$CMLSTYLE
  2
Standard
  9
$CMLJUST
 70
     0
  9
$CMLSCALE
 40
1.0
  9
$PROXYGRAPHICS
 70
     1
  9
$MEASUREMENT
 70
     0
  9
$CELWEIGHT
370
    53
  9
$ENDCAPS
280
     0
  9
$JOINSTYLE
280
     0
  9
$LWDISPLAY
290
     1
  9
$INSUNITS
 70
     2
  9
$HYPERLINKBASE
  1

  9
$STYLESHEET
  1

  9
$XEDIT
290
     1
  9
$CEPSNTYPE
380
     0
  9
$PSTYLEMODE
290
     1
  9
$FINGERPRINTGUID
  2
{02C0BBB5-38A7-4FBF-829E-00875EC88963}
  9
$VERSIONGUID
  2
{82C521FC-BF81-46B3-825E-420B6BD93A99}
  9
$EXTNAMES
290
     1
  9
$PSVPSCALE
 40
0.0
  9
$OLESTARTUP
290
     0
  9
$SORTENTS
280
   127
  9
$INDEXCTL
280
     0
  9
$HIDETEXT
280
     1
  9
$XCLIPFRAME
290
     0
  9
$HALOGAP
280
     0
  9
$OBSCOLOR
 70
   257
  9
$OBSLTYPE
280
     0
  9
$INTERSECTIONDISPLAY
280
     0
  9
$INTERSECTIONCOLOR
 70
   257
  9
$DIMASSOC
280
     1
  9
$PROJECTNAME
  1

  0
ENDSEC
  0
SECTION
  2
CLASSES
  0
CLASS
  1
ACDBDICTIONARYWDFLT
  2
AcDbDictionaryWithDefault
  3
ObjectDBX Classes
 90
        0
 91
        3
280
     0
281
     0
  0
CLASS
  1
SORTENTSTABLE
  2
AcDbSortentsTable
  3
ObjectDBX Classes
 90
        0
 91
        3
280
     0
281
     0
  0
ENDSEC
  0
SECTION
  2
TABLES
  0
TABLE
  2
VPORT
  5
4E1
330
0
100
AcDbSymbolTable
 70
     4
  0
VPORT
  5
49
330
4E1
100
AcDbSymbolTableRecord
100
AcDbViewportTableRecord
  2
*ACTIVE
 70
     0
 10
0.0
 20
0.0
 11
1.0
 21
1.0
 12
60.386208
 22
-41.652172
 13
0.0
 23
0.0
 14
0.083333
 24
0.083333
 15
0.083333
 25
0.083333
 16
0.0
 26
0.0
 36
1.0
 17
0.0
 27
0.0
 37
0.0
 40
8.840704
 41
1.884937
 42
50.0
 43
0.0
 44
0.0
 50
0.0
 51
0.0
 71
     0
 72
   100
 73
     1
 74
     2
 75
     0
 76
     0
 77
     0
 78
     1
281
     0
 65
     1
110
0.0
120
0.0
130
0.0
111
1.0
121
0.0
131
0.0
112
0.0
122
1.0
132
0.0
 79
     0
146
0.0
  0
ENDTAB
  0
TABLE
  2
LTYPE
  5
4C8
330
0
100
AcDbSymbolTable
 70
     4
  0
LTYPE
  5
4C9
330
4C8
100
AcDbSymbolTableRecord
100
AcDbLinetypeTableRecord
  2
ByBlock
 70
     0
  3

 72
    65
 73
     0
 40
0.0
  0
LTYPE
  5
4CA
330
4C8
100
AcDbSymbolTableRecord
100
AcDbLinetypeTableRecord
  2
ByLayer
 70
     0
  3

 72
    65
 73
     0
 40
0.0
  0
LTYPE
  5
4C7
330
4C8
100
AcDbSymbolTableRecord
100
AcDbLinetypeTableRecord
  2
Continuous
 70
     0
  3
Solid line
 72
    65
 73
     0
 40
0.0
  0
LTYPE
  5
4F5
330
4C8
100
AcDbSymbolTableRecord
100
AcDbLinetypeTableRecord
  2
DGN Style 2
 70
     0
  3
Dgn Style 2
 72
    65
 73
     2
 40
0.166642
 49
0.099985
 74
     0
 49
-0.066657
 74
     0
  0
LTYPE
  5
4F6
330
4C8
100
AcDbSymbolTableRecord
100
AcDbLinetypeTableRecord
  2
DGN Style 7
 70
     0
  3
Dgn Style 7
 72
    65
 73
     4
 40
0.333283
 49
0.149978
 74
     0
 49
-0.066657
 74
     0
 49
0.049993
 74
     0
 49
-0.066657
 74
     0
  0
LTYPE
  5
4F8
330
4C8
100
AcDbSymbolTableRecord
100
AcDbLinetypeTableRecord
  2
DGN Style 6
 70
     0
  3
Dgn Style 6
 72
    65
 73
     6
 40
0.316953
 49
0.000167
 74
     0
 49
-0.066657
 74
     0
 49
0.116649
 74
     0
 49
-0.066657
 74
     0
 49
0.000167
 74
     0
 49
-0.066657
 74
     0
  0
ENDTAB
  0
TABLE
  2
LAYER
  5
4C1
102
{ACAD_XDICTIONARY
360
4C2
102
}
330
0
100
AcDbSymbolTable
 70
    64
  0
LAYER
  5
4C0
330
4C1
100
AcDbSymbolTableRecord
100
AcDbLayerTableRecord
  2
0
 70
     0
 62
     7
  6
Continuous
370
    -3
390
4C4
  0
LAYER
  5
7
330
4C1
100
AcDbSymbolTableRecord
100
AcDbLayerTableRecord
  2
Level 1
 70
     0
 62
     7
  6
Continuous
370
     0
390
4C4
  0
LAYER
  5
8
330
4C1
100
AcDbSymbolTableRecord
100
AcDbLayerTableRecord
  2
2-30K
 70
     0
 62
     7
  6
Continuous
370
     0
390
4C4
1001
AcAecLayerStandard
1000

1000
2-30K
  0
LAYER
  5
9
330
4C1
100
AcDbSymbolTableRecord
100
AcDbLayerTableRecord
  2
DIM
 70
     0
 62
     7
  6
Continuous
370
     0
390
4C4
1001
AcAecLayerStandard
1000

1000
DIM
  0
LAYER
  5
A
330
4C1
100
AcDbSymbolTableRecord
100
AcDbLayerTableRecord
  2
LEGEND
 70
     0
 62
     7
  6
Continuous
370
     0
390
4C4
1001
AcAecLayerStandard
1000

1000
LEGEND
  0
LAYER
  5
B
330
4C1
100
AcDbSymbolTableRecord
100
AcDbLayerTableRecord
  2
HATCH
 70
     0
 62
     7
  6
Continuous
370
     0
390
4C4
1001
AcAecLayerStandard
1000

1000
HATCH
  0
LAYER
  5
C
330
4C1
100
AcDbSymbolTableRecord
100
AcDbLayerTableRecord
  2
TEXT
 70
     0
 62
     7
  6
Continuous
370
     0
390
4C4
1001
AcAecLayerStandard
1000

1000
TEXT
  0
LAYER
  5
D
330
4C1
100
AcDbSymbolTableRecord
100
AcDbLayerTableRecord
  2
TITLE
 70
     0
 62
     7
  6
Continuous
370
     0
390
4C4
1001
AcAecLayerStandard
1000

1000
TITLE
  0
LAYER
  5
E
330
4C1
100
AcDbSymbolTableRecord
100
AcDbLayerTableRecord
  2
Level 8
 70
     0
 62
     7
  6
Continuous
370
     0
390
4C4
  0
LAYER
  5
F
330
4C1
100
AcDbSymbolTableRecord
100
AcDbLayerTableRecord
  2
Level 9
 70
     0
 62
     7
  6
Continuous
370
     0
390
4C4
  0
LAYER
  5
10
330
4C1
100
AcDbSymbolTableRecord
100
AcDbLayerTableRecord
  2
Level 10
 70
     0
 62
     7
  6
Continuous
370
     0
390
4C4
  0
LAYER
  5
11
330
4C1
100
AcDbSymbolTableRecord
100
AcDbLayerTableRecord
  2
Level 11
 70
     0
 62
     7
  6
Continuous
370
     0
390
4C4
  0
LAYER
  5
12
330
4C1
100
AcDbSymbolTableRecord
100
AcDbLayerTableRecord
  2
Level 12
 70
     0
 62
     7
  6
Continuous
370
     0
390
4C4
  0
LAYER
  5
13
330
4C1
100
AcDbSymbolTableRecord
100
AcDbLayerTableRecord
  2
Level 13
 70
     0
 62
     7
  6
Continuous
370
     0
390
4C4
  0
LAYER
  5
14
330
4C1
100
AcDbSymbolTableRecord
100
AcDbLayerTableRecord
  2
Level 14
 70
     0
 62
     7
  6
Continuous
370
     0
390
4C4
  0
LAYER
  5
15
330
4C1
100
AcDbSymbolTableRecord
100
AcDbLayerTableRecord
  2
Level 15
 70
     0
 62
     7
  6
Continuous
370
     0
390
4C4
  0
LAYER
  5
16
330
4C1
100
AcDbSymbolTableRecord
100
AcDbLayerTableRecord
  2
Level 16
 70
     0
 62
     7
  6
Continuous
370
     0
390
4C4
  0
LAYER
  5
17
330
4C1
100
AcDbSymbolTableRecord
100
AcDbLayerTableRecord
  2
Level 17
 70
     0
 62
     7
  6
Continuous
370
     0
390
4C4
  0
LAYER
  5
18
330
4C1
100
AcDbSymbolTableRecord
100
AcDbLayerTableRecord
  2
Level 18
 70
     0
 62
     7
  6
Continuous
370
     0
390
4C4
  0
LAYER
  5
19
330
4C1
100
AcDbSymbolTableRecord
100
AcDbLayerTableRecord
  2
Level 19
 70
     0
 62
     7
  6
Continuous
370
     0
390
4C4
  0
LAYER
  5
1A
330
4C1
100
AcDbSymbolTableRecord
100
AcDbLayerTableRecord
  2
Level 20
 70
     0
 62
     7
  6
Continuous
370
     0
390
4C4
  0
LAYER
  5
1B
330
4C1
100
AcDbSymbolTableRecord
100
AcDbLayerTableRecord
  2
Level 21
 70
     0
 62
     7
  6
Continuous
370
     0
390
4C4
  0
LAYER
  5
1C
330
4C1
100
AcDbSymbolTableRecord
100
AcDbLayerTableRecord
  2
Level 22
 70
     0
 62
     7
  6
Continuous
370
     0
390
4C4
  0
LAYER
  5
1D
330
4C1
100
AcDbSymbolTableRecord
100
AcDbLayerTableRecord
  2
Level 23
 70
     0
 62
     7
  6
Continuous
370
     0
390
4C4
  0
LAYER
  5
1E
330
4C1
100
AcDbSymbolTableRecord
100
AcDbLayerTableRecord
  2
Level 24
 70
     0
 62
     7
  6
Continuous
370
     0
390
4C4
  0
LAYER
  5
1F
330
4C1
100
AcDbSymbolTableRecord
100
AcDbLayerTableRecord
  2
Level 25
 70
     0
 62
     7
  6
Continuous
370
     0
390
4C4
  0
LAYER
  5
20
330
4C1
100
AcDbSymbolTableRecord
100
AcDbLayerTableRecord
  2
Level 26
 70
     0
 62
     7
  6
Continuous
370
     0
390
4C4
  0
LAYER
  5
21
330
4C1
100
AcDbSymbolTableRecord
100
AcDbLayerTableRecord
  2
Level 27
 70
     0
 62
     7
  6
Continuous
370
     0
390
4C4
  0
LAYER
  5
22
330
4C1
100
AcDbSymbolTableRecord
100
AcDbLayerTableRecord
  2
Level 28
 70
     0
 62
     7
  6
Continuous
370
     0
390
4C4
  0
LAYER
  5
23
330
4C1
100
AcDbSymbolTableRecord
100
AcDbLayerTableRecord
  2
Level 29
 70
     0
 62
     7
  6
Continuous
370
     0
390
4C4
  0
LAYER
  5
24
330
4C1
100
AcDbSymbolTableRecord
100
AcDbLayerTableRecord
  2
Level 30
 70
     0
 62
     7
  6
Continuous
370
     0
390
4C4
  0
LAYER
  5
25
330
4C1
100
AcDbSymbolTableRecord
100
AcDbLayerTableRecord
  2
Level 31
 70
     0
 62
     7
  6
Continuous
370
     0
390
4C4
  0
LAYER
  5
26
330
4C1
100
AcDbSymbolTableRecord
100
AcDbLayerTableRecord
  2
Level 32
 70
     0
 62
     7
  6
Continuous
370
     0
390
4C4
  0
LAYER
  5
27
330
4C1
100
AcDbSymbolTableRecord
100
AcDbLayerTableRecord
  2
Level 33
 70
     0
 62
     7
  6
Continuous
370
     0
390
4C4
  0
LAYER
  5
28
330
4C1
100
AcDbSymbolTableRecord
100
AcDbLayerTableRecord
  2
Level 34
 70
     0
 62
     7
  6
Continuous
370
     0
390
4C4
  0
LAYER
  5
29
330
4C1
100
AcDbSymbolTableRecord
100
AcDbLayerTableRecord
  2
Level 35
 70
     0
 62
     7
  6
Continuous
370
     0
390
4C4
  0
LAYER
  5
2A
330
4C1
100
AcDbSymbolTableRecord
100
AcDbLayerTableRecord
  2
Level 36
 70
     0
 62
     7
  6
Continuous
370
     0
390
4C4
  0
LAYER
  5
2B
330
4C1
100
AcDbSymbolTableRecord
100
AcDbLayerTableRecord
  2
Level 37
 70
     0
 62
     7
  6
Continuous
370
     0
390
4C4
  0
LAYER
  5
2C
330
4C1
100
AcDbSymbolTableRecord
100
AcDbLayerTableRecord
  2
Level 38
 70
     0
 62
     7
  6
Continuous
370
     0
390
4C4
  0
LAYER
  5
2D
330
4C1
100
AcDbSymbolTableRecord
100
AcDbLayerTableRecord
  2
Level 39
 70
     0
 62
     7
  6
Continuous
370
     0
390
4C4
  0
LAYER
  5
2E
330
4C1
100
AcDbSymbolTableRecord
100
AcDbLayerTableRecord
  2
Level 40
 70
     0
 62
     7
  6
Continuous
370
     0
390
4C4
  0
LAYER
  5
2F
330
4C1
100
AcDbSymbolTableRecord
100
AcDbLayerTableRecord
  2
Level 41
 70
     0
 62
     7
  6
Continuous
370
     0
390
4C4
  0
LAYER
  5
30
330
4C1
100
AcDbSymbolTableRecord
100
AcDbLayerTableRecord
  2
Level 42
 70
     0
 62
     7
  6
Continuous
370
     0
390
4C4
  0
LAYER
  5
31
330
4C1
100
AcDbSymbolTableRecord
100
AcDbLayerTableRecord
  2
Level 43
 70
     0
 62
     7
  6
Continuous
370
     0
390
4C4
  0
LAYER
  5
32
330
4C1
100
AcDbSymbolTableRecord
100
AcDbLayerTableRecord
  2
Level 44
 70
     0
 62
     7
  6
Continuous
370
     0
390
4C4
  0
LAYER
  5
33
330
4C1
100
AcDbSymbolTableRecord
100
AcDbLayerTableRecord
  2
Level 45
 70
     0
 62
     7
  6
Continuous
370
     0
390
4C4
  0
LAYER
  5
34
330
4C1
100
AcDbSymbolTableRecord
100
AcDbLayerTableRecord
  2
Level 46
 70
     0
 62
     7
  6
Continuous
370
     0
390
4C4
  0
LAYER
  5
35
330
4C1
100
AcDbSymbolTableRecord
100
AcDbLayerTableRecord
  2
Level 47
 70
     0
 62
     7
  6
Continuous
370
     0
390
4C4
  0
LAYER
  5
36
330
4C1
100
AcDbSymbolTableRecord
100
AcDbLayerTableRecord
  2
Level 48
 70
     0
 62
     7
  6
Continuous
370
     0
390
4C4
  0
LAYER
  5
37
330
4C1
100
AcDbSymbolTableRecord
100
AcDbLayerTableRecord
  2
Level 49
 70
     0
 62
     7
  6
Continuous
370
     0
390
4C4
  0
LAYER
  5
38
330
4C1
100
AcDbSymbolTableRecord
100
AcDbLayerTableRecord
  2
Level 50
 70
     0
 62
     7
  6
Continuous
370
     0
390
4C4
  0
LAYER
  5
39
330
4C1
100
AcDbSymbolTableRecord
100
AcDbLayerTableRecord
  2
Level 51
 70
     0
 62
     7
  6
Continuous
370
     0
390
4C4
  0
LAYER
  5
3A
330
4C1
100
AcDbSymbolTableRecord
100
AcDbLayerTableRecord
  2
Level 52
 70
     0
 62
     7
  6
Continuous
370
     0
390
4C4
  0
LAYER
  5
3B
330
4C1
100
AcDbSymbolTableRecord
100
AcDbLayerTableRecord
  2
Level 53
 70
     0
 62
     7
  6
Continuous
370
     0
390
4C4
  0
LAYER
  5
3C
330
4C1
100
AcDbSymbolTableRecord
100
AcDbLayerTableRecord
  2
Level 54
 70
     0
 62
     7
  6
Continuous
370
     0
390
4C4
  0
LAYER
  5
3D
330
4C1
100
AcDbSymbolTableRecord
100
AcDbLayerTableRecord
  2
Level 55
 70
     0
 62
     7
  6
Continuous
370
     0
390
4C4
  0
LAYER
  5
3E
330
4C1
100
AcDbSymbolTableRecord
100
AcDbLayerTableRecord
  2
Level 56
 70
     0
 62
     7
  6
Continuous
370
     0
390
4C4
  0
LAYER
  5
3F
330
4C1
100
AcDbSymbolTableRecord
100
AcDbLayerTableRecord
  2
Level 57
 70
     0
 62
     7
  6
Continuous
370
     0
390
4C4
  0
LAYER
  5
40
330
4C1
100
AcDbSymbolTableRecord
100
AcDbLayerTableRecord
  2
Level 58
 70
     0
 62
     7
  6
Continuous
370
     0
390
4C4
  0
LAYER
  5
41
330
4C1
100
AcDbSymbolTableRecord
100
AcDbLayerTableRecord
  2
Level 59
 70
     0
 62
     7
  6
Continuous
370
     0
390
4C4
  0
LAYER
  5
42
330
4C1
100
AcDbSymbolTableRecord
100
AcDbLayerTableRecord
  2
Level 60
 70
     0
 62
     7
  6
Continuous
370
     0
390
4C4
  0
LAYER
  5
43
330
4C1
100
AcDbSymbolTableRecord
100
AcDbLayerTableRecord
  2
Level 61
 70
     0
 62
     7
  6
Continuous
370
     0
390
4C4
  0
LAYER
  5
44
330
4C1
100
AcDbSymbolTableRecord
100
AcDbLayerTableRecord
  2
Level 62
 70
     0
 62
     7
  6
Continuous
370
     0
390
4C4
  0
LAYER
  5
45
330
4C1
100
AcDbSymbolTableRecord
100
AcDbLayerTableRecord
  2
_0
 70
     0
 62
     7
  6
Continuous
370
     0
390
4C4
1001
AcAecLayerStandard
1000

1000
0
  0
ENDTAB
  0
TABLE
  2
STYLE
  5
4CC
330
0
100
AcDbSymbolTable
 70
     2
  0
STYLE
  5
4CB
330
4CC
100
AcDbSymbolTableRecord
100
AcDbTextStyleTableRecord
  2
Standard
 70
     0
 40
0.0
 41
1.0
 50
0.0
 71
     0
 42
0.10125
  3
txt
  4

  0
STYLE
  5
4EB
330
4CC
100
AcDbSymbolTableRecord
100
AcDbTextStyleTableRecord
  2
Style-Arial
 70
     0
 40
0.0
 41
1.0
 50
0.0
 71
     0
 42
0.2
  3

  4

1001
ACAD
1000
Arial
1071
       39
  0
ENDTAB
  0
TABLE
  2
VIEW
  5
4DF
330
0
100
AcDbSymbolTable
 70
     0
  0
ENDTAB
  0
TABLE
  2
UCS
  5
4E0
330
0
100
AcDbSymbolTable
 70
     0
  0
ENDTAB
  0
TABLE
  2
APPID
  5
4DE
330
0
100
AcDbSymbolTable
 70
     3
  0
APPID
  5
4E6
330
4DE
100
AcDbSymbolTableRecord
100
AcDbRegAppTableRecord
  2
ACAD
 70
     0
  0
APPID
  5
4DD
330
4DE
100
AcDbSymbolTableRecord
100
AcDbRegAppTableRecord
  2
ACAD_PSEXT
 70
     0
  0
APPID
  5
4E8
330
4DE
100
AcDbSymbolTableRecord
100
AcDbRegAppTableRecord
  2
AcAecLayerStandard
 70
     0
  0
ENDTAB
  0
TABLE
  2
DIMSTYLE
  5
4CE
330
0
100
AcDbSymbolTable
 70
     1
100
AcDbDimStyleTable
  0
DIMSTYLE
105
4CD
330
4CE
100
AcDbSymbolTableRecord
100
AcDbDimStyleTableRecord
  2
Standard
 70
     0
340
4CB
  0
ENDTAB
  0
TABLE
  2
BLOCK_RECORD
  5
4D1
330
0
100
AcDbSymbolTable
 70
     1
  0
BLOCK_RECORD
  5
4D2
102
{ACAD_XDICTIONARY
360
4F9
102
}
330
4D1
100
AcDbSymbolTableRecord
100
AcDbBlockTableRecord
  2
*Model_Space
340
4D5
  0
BLOCK_RECORD
  5
4D7
330
4D1
100
AcDbSymbolTableRecord
100
AcDbBlockTableRecord
  2
*Paper_Space
340
4DA
  0
BLOCK_RECORD
  5
4EC
330
4D1
100
AcDbSymbolTableRecord
100
AcDbBlockTableRecord
  2
TerminatorOpen_0.5
340
0
  0
ENDTAB
  0
ENDSEC
  0
SECTION
  2
BLOCKS
  0
BLOCK
  5
4D3
330
4D2
100
AcDbEntity
  8
0
100
AcDbBlockBegin
  2
*Model_Space
 70
     0
 71
     0
 10
0.0
 20
0.0
 30
0.0
  3
*Model_Space
  1

  0
ENDBLK
  5
4D4
330
4D2
100
AcDbEntity
  8
0
100
AcDbBlockEnd
  0
BLOCK
  5
4D8
330
4D7
100
AcDbEntity
 67
     1
  8
0
100
AcDbBlockBegin
  2
*Paper_Space
 70
     0
 71
     0
 10
0.0
 20
0.0
 30
0.0
  3
*Paper_Space
  1

  0
ENDBLK
  5
4D9
330
4D7
100
AcDbEntity
 67
     1
  8
0
100
AcDbBlockEnd
  0
BLOCK
  5
4F0
330
4EC
100
AcDbEntity
  8
0
100
AcDbBlockBegin
  2
TerminatorOpen_0.5
 70
     0
 71
     0
 10
0.0
 20
0.0
 30
0.0
  3
TerminatorOpen_0.5
  1

  0
LINE
  5
4ED
330
4EC
100
AcDbEntity
  8
0
  6
ByBlock
 62
     0
370
    -2
100
AcDbLine
 10
0.0
 20
0.0
 30
0.0
 11
-1.0
 21
0.0
 31
0.0
  0
LINE
  5
4EE
330
4EC
100
AcDbEntity
  8
0
  6
ByBlock
 62
     0
370
    -2
100
AcDbLine
 10
0.0
 20
0.0
 30
0.0
 11
-1.0
 21
0.25
 31
0.0
  0
LINE
  5
4EF
330
4EC
100
AcDbEntity
  8
0
  6
ByBlock
 62
     0
370
    -2
100
AcDbLine
 10
0.0
 20
0.0
 30
0.0
 11
-1.0
 21
-0.25
 31
0.0
  0
ENDBLK
  5
4F1
330
4EC
100
AcDbEntity
  8
0
100
AcDbBlockEnd
  0
ENDSEC
  0
SECTION
  2
ENTITIES
  0
LINE
  5
5B
330
4D2
100
AcDbEntity
  8
_0
  6
Continuous
 62
     7
370
    13
100
AcDbLine
 10
65.886646
 20
-45.90251
 30
0.0
 11
65.680094
 21
-45.90251
 31
0.0
  0
POINT
  5
5C
330
4D2
100
AcDbEntity
  8
_0
  6
Continuous
 62
     7
370
    13
100
AcDbPoint
 10
55.87275
 20
-38.026885
 30
0.0
  0
LINE
  5
5D
330
4D2
100
AcDbEntity
  8
_0
  6
Continuous
 62
     7
370
    13
100
AcDbLine
 10
65.886646
 20
-37.401833
 30
0.0
 11
65.680094
 21
-37.401833
 31
0.0
  0
LINE
  5
5E
330
4D2
100
AcDbEntity
  8
_0
  6
Continuous
 62
     7
370
    13
100
AcDbLine
 10
65.886646
 20
-45.90251
 30
0.0
 11
65.886646
 21
-45.695958
 31
0.0
  0
LINE
  5
5F
330
4D2
100
AcDbEntity
  8
_0
  6
Continuous
 62
     7
370
    13
100
AcDbLine
 10
54.885771
 20
-45.90251
 30
0.0
 11
54.885771
 21
-45.695958
 31
0.0
  0
LINE
  5
60
330
4D2
100
AcDbEntity
  8
_0
  6
Continuous
 62
     7
370
    13
100
AcDbLine
 10
65.886646
 20
-37.608396
 30
0.0
 11
65.886646
 21
-37.401833
 31
0.0
  0
LINE
  5
61
330
4D2
100
AcDbEntity
  8
_0
  6
Continuous
 62
     7
370
    13
100
AcDbLine
 10
55.092323
 20
-45.90251
 30
0.0
 11
54.885771
 21
-45.90251
 31
0.0
  0
LINE
  5
62
330
4D2
100
AcDbEntity
  8
_0
  6
Continuous
 62
     7
370
    13
100
AcDbLine
 10
55.092323
 20
-37.401833
 30
0.0
 11
54.885771
 21
-37.401833
 31
0.0
  0
LINE
  5
63
330
4D2
100
AcDbEntity
  8
_0
  6
Continuous
 62
     7
370
    13
100
AcDbLine
 10
54.885771
 20
-37.608396
 30
0.0
 11
54.885771
 21
-37.401833
 31
0.0
  0
LINE
  5
64
330
4D2
100
AcDbEntity
  8
_0
  6
DGN Style 2
 62
     7
370
    13
100
AcDbLine
 10
60.910656
 20
-41.157771
 30
0.0
 11
60.910656
 21
-41.175885
 31
0.0
  0
LINE
  5
65
330
4D2
100
AcDbEntity
  8
_0
  6
DGN Style 2
 62
     7
370
    13
100
AcDbLine
 10
60.810646
 20
-41.157771
 30
0.0
 11
60.810646
 21
-41.175885
 31
0.0
  0
LINE
  5
66
330
4D2
100
AcDbEntity
  8
_0
  6
Continuous
 62
     7
370
    13
100
AcDbLine
 10
60.16126
 20
-38.650312
 30
0.0
 11
60.249479
 21
-38.650312
 31
0.0
  0
LINE
  5
67
330
4D2
100
AcDbEntity
  8
_0
  6
Continuous
 62
     7
370
    13
100
AcDbLine
 10
60.933698
 20
-38.650312
 30
0.0
 11
61.021917
 21
-38.650312
 31
0.0
  0
LINE
  5
68
330
4D2
100
AcDbEntity
  8
_0
  6
Continuous
 62
     7
370
    13
100
AcDbLine
 10
61.706135
 20
-38.650312
 30
0.0
 11
61.794354
 21
-38.650312
 31
0.0
  0
LINE
  5
69
330
4D2
100
AcDbEntity
  8
_0
  6
Continuous
 62
     7
370
    13
100
AcDbLine
 10
62.478573
 20
-38.650312
 30
0.0
 11
62.566792
 21
-38.650312
 31
0.0
  0
LINE
  5
6A
330
4D2
100
AcDbEntity
  8
_0
  6
Continuous
 62
     7
370
    13
100
AcDbLine
 10
63.25101
 20
-38.650312
 30
0.0
 11
63.330542
 21
-38.650312
 31
0.0
  0
LINE
  5
6B
330
4D2
100
AcDbEntity
  8
_0
  6
Continuous
 62
     7
370
    13
100
AcDbLine
 10
59.388833
 20
-38.650312
 30
0.0
 11
59.477042
 21
-38.650312
 31
0.0
  0
LINE
  5
6C
330
4D2
100
AcDbEntity
  8
_0
  6
Continuous
 62
     7
370
    13
100
AcDbLine
 10
58.554688
 20
-38.729365
 30
0.0
 11
58.717188
 21
-38.729365
 31
0.0
  0
LINE
  5
6E
330
4D2
100
AcDbEntity
  8
LEGEND
  6
Continuous
 62
     7
370
    13
100
AcDbLine
 10
62.872906
 20
-38.871083
 30
0.0
 11
63.105458
 21
-38.871083
 31
0.0
  0
LINE
  5
6F
330
4D2
100
AcDbEntity
  8
LEGEND
  6
Continuous
 62
     7
370
    13
100
AcDbLine
 10
63.000156
 20
-38.871083
 30
0.0
 11
63.039646
 21
-38.899604
 31
0.0
  0
LINE
  5
70
330
4D2
100
AcDbEntity
  8
LEGEND
  6
Continuous
 62
     7
370
    13
100
AcDbLine
 10
63.039646
 20
-38.871083
 30
0.0
 11
63.039646
 21
-38.899604
 31
0.0
  0
LINE
  5
71
330
4D2
100
AcDbEntity
  8
LEGEND
  6
Continuous
 62
     7
370
    13
100
AcDbLine
 10
63.259042
 20
-38.62975
 30
0.0
 11
63.105458
 21
-38.871083
 31
0.0
  0
LINE
  5
72
330
4D2
100
AcDbEntity
  8
LEGEND
  6
Continuous
 62
     7
370
    13
100
AcDbLine
 10
63.605687
 20
-38.620979
 30
0.0
 11
63.605687
 21
-38.64949
 31
0.0
  0
LINE
  5
73
330
4D2
100
AcDbEntity
  8
LEGEND
  6
Continuous
 62
     7
370
    13
100
AcDbLine
 10
63.566198
 20
-38.620979
 30
0.0
 11
63.605687
 21
-38.64949
 31
0.0
  0
LINE
  5
74
330
4D2
100
AcDbEntity
  8
LEGEND
  6
Continuous
 62
     7
370
    13
100
AcDbLine
 10
63.566198
 20
-38.748396
 30
0.0
 11
63.605687
 21
-38.776917
 31
0.0
  0
LINE
  5
75
330
4D2
100
AcDbEntity
  8
LEGEND
  6
Continuous
 62
     7
370
    13
100
AcDbLine
 10
63.605687
 20
-38.719875
 30
0.0
 11
63.566198
 21
-38.748396
 31
0.0
  0
LINE
  5
76
330
4D2
100
AcDbEntity
  8
LEGEND
  6
Continuous
 62
     7
370
    13
100
AcDbLine
 10
63.605687
 20
-38.719875
 30
0.0
 11
63.605687
 21
-38.776917
 31
0.0
  0
LINE
  5
77
330
4D2
100
AcDbEntity
  8
LEGEND
  6
Continuous
 62
     7
370
    13
100
AcDbLine
 10
63.539875
 20
-38.748396
 30
0.0
 11
63.67151
 21
-38.748396
 31
0.0
  0
LINE
  5
78
330
4D2
100
AcDbEntity
  8
LEGEND
  6
Continuous
 62
     7
370
    13
100
AcDbLine
 10
63.32925
 20
-38.647302
 30
0.0
 11
63.539875
 21
-38.748396
 31
0.0
  0
LINE
  5
79
330
4D2
100
AcDbEntity
  8
LEGEND
  6
Continuous
 62
     7
370
    13
100
AcDbLine
 10
63.438948
 20
-38.620979
 30
0.0
 11
63.67151
 21
-38.620979
 31
0.0
  0
LINE
  5
7A
330
4D2
100
AcDbEntity
  8
LEGEND
  6
Continuous
 62
     7
370
    13
100
AcDbLine
 10
63.32925
 20
-38.568323
 30
0.0
 11
63.438948
 21
-38.620979
 31
0.0
  0
LINE
  5
7D
330
4D2
100
AcDbEntity
  8
LEGEND
  6
Continuous
 62
     7
370
    13
100
AcDbLine
 10
63.671687
 20
-42.507219
 30
0.0
 11
63.671687
 21
-42.46474
 31
0.0
  0
SOLID
  5
7E
330
4D2
100
AcDbEntity
  8
LEGEND
  6
Continuous
 62
     7
370
    13
100
AcDbTrace
 10
63.680021
 20
-42.507219
 30
0.0
 11
63.663354
 21
-42.507219
 31
0.0
 12
63.671687
 22
-42.557229
 32
0.0
 13
63.671687
 23
-42.557229
 33
0.0
  0
SOLID
  5
7F
330
4D2
100
AcDbEntity
  8
LEGEND
  6
Continuous
 62
     7
370
    13
100
AcDbTrace
 10
63.680021
 20
-42.46474
 30
0.0
 11
63.663354
 21
-42.46474
 31
0.0
 12
63.671687
 22
-42.41474
 32
0.0
 13
63.671687
 23
-42.41474
 33
0.0
  0
LINE
  5
81
330
4D2
100
AcDbEntity
  8
_0
  6
Continuous
 62
     7
370
    13
100
AcDbLine
 10
60.808146
 20
-43.252302
 30
0.0
 11
60.988167
 21
-43.252302
 31
0.0
  0
LINE
  5
82
330
4D2
100
AcDbEntity
  8
_0
  6
Continuous
 62
     7
370
    13
100
AcDbLine
 10
60.898156
 20
-43.162292
 30
0.0
 11
60.898156
 21
-43.342312
 31
0.0
  0
LINE
  5
83
330
4D2
100
AcDbEntity
  8
_0
  6
Continuous
 62
     7
370
    13
100
AcDbLine
 10
57.977333
 20
-43.140198
 30
0.0
 11
57.984552
 21
-43.135385
 31
0.0
  0
LINE
  5
84
330
4D2
100
AcDbEntity
  8
_0
  6
Continuous
 62
     7
370
    13
100
AcDbLine
 10
57.984552
 20
-42.879865
 30
0.0
 11
57.977333
 21
-42.884677
 31
0.0
  0
LINE
  5
85
330
4D2
100
AcDbEntity
  8
_0
  6
Continuous
 62
     7
370
    13
100
AcDbLine
 10
57.750521
 20
-42.83049
 30
0.0
 11
57.743292
 21
-42.835302
 31
0.0
  0
LINE
  5
86
330
4D2
100
AcDbEntity
  8
_0
  6
Continuous
 62
     7
370
    13
100
AcDbLine
 10
57.503344
 20
-42.787844
 30
0.0
 11
57.508604
 21
-42.784333
 31
0.0
  0
LINE
  5
87
330
4D2
100
AcDbEntity
  8
_0
  6
Continuous
 62
     7
370
    13
100
AcDbLine
 10
57.469729
 20
-42.938448
 30
0.0
 11
57.460958
 21
-42.941958
 31
0.0
  0
LWPOLYLINE
  5
8C
330
4D2
100
AcDbEntity
  8
_0
  6
Continuous
 62
     7
370
     0
100
AcDbPolyline
 90
       10
 70
   128
 43
0.0
 10
57.474274
 20
-42.873161
 42
0.033732
 10
57.472866
 20
-42.875321
 42
0.072246
 10
57.469988
 20
-42.882832
 42
0.072246
 10
57.469365
 20
-42.890851
 42
0.083492
 10
57.470832
 20
-42.897024
 42
0.106631
 10
57.473867
 20
-42.901344
 42
0.131805
 10
57.476491
 20
-42.902723
 42
0.131805
 10
57.479454
 20
-42.902604
 42
0.106631
 10
57.484049
 20
-42.900004
 42
0.006076
 10
57.484393
 20
-42.899691
  0
LINE
  5
96
330
4D2
100
AcDbEntity
  8
TITLE
  6
Continuous
 62
     7
370
    13
100
AcDbLine
 10
58.080927
 20
-42.424094
 30
0.0
 11
58.021687
 21
-42.424094
 31
0.0
  0
LINE
  5
97
330
4D2
100
AcDbEntity
  8
TITLE
  6
Continuous
 62
     7
370
    13
100
AcDbLine
 10
58.178958
 20
-42.664333
 30
0.0
 11
58.080927
 21
-42.424094
 31
0.0
  0
SOLID
  5
98
330
4D2
100
AcDbEntity
  8
TITLE
  6
Continuous
 62
     7
370
    13
100
AcDbTrace
 10
58.186708
 20
-42.66126
 30
0.0
 11
58.171219
 21
-42.667406
 31
0.0
 12
58.197365
 22
-42.710833
 32
0.0
 13
58.197365
 23
-42.710833
 33
0.0
  0
LINE
  5
99
330
4D2
100
AcDbEntity
  8
_0
  6
DGN Style 2
 62
     7
370
    13
100
AcDbLine
 10
58.145198
 20
-42.632188
 30
0.0
 11
58.145198
 21
-42.600531
 31
0.0
  0
LINE
  5
9A
330
4D2
100
AcDbEntity
  8
_0
  6
DGN Style 2
 62
     7
370
    13
100
AcDbLine
 10
58.125198
 20
-42.627958
 30
0.0
 11
58.125198
 21
-42.612812
 31
0.0
  0
LINE
  5
9B
330
4D2
100
AcDbEntity
  8
_0
  6
DGN Style 7
 62
     7
370
    13
100
AcDbLine
 10
57.846896
 20
-42.934927
 30
0.0
 11
57.904135
 21
-42.901312
 31
0.0
  0
LINE
  5
9C
330
4D2
100
AcDbEntity
  8
_0
  6
DGN Style 7
 62
     7
370
    13
100
AcDbLine
 10
57.687354
 20
-43.027896
 30
0.0
 11
57.819292
 21
-42.950406
 31
0.0
  0
LWPOLYLINE
  5
9D
330
4D2
100
AcDbEntity
  8
_0
  6
Continuous
 62
     7
370
     0
100
AcDbPolyline
 90
        4
 70
   128
 43
0.0
 10
57.469731
 20
-42.938446
 42
0.054924
 10
57.483352
 20
-42.945573
 42
0.104878
 10
57.507131
 20
-42.949493
 42
0.05747
 10
57.517297
 20
-42.947848
  0
LWPOLYLINE
  5
A1
330
4D2
100
AcDbEntity
  8
_0
  6
Continuous
 62
     7
370
     0
100
AcDbPolyline
 90
        8
 70
   128
 43
0.0
 10
57.688817
 20
-43.161645
 42
0.0205
 10
57.692242
 20
-43.156512
 42
0.105614
 10
57.706397
 20
-43.11611
 42
0.087213
 10
57.704296
 20
-43.071848
 42
0.077542
 10
57.686015
 20
-43.025569
 42
0.077542
 10
57.654505
 20
-42.987058
 42
0.087213
 10
57.616875
 20
-42.96366
 42
0.004684
 10
57.615087
 20
-42.962961
  0
LWPOLYLINE
  5
A9
330
4D2
100
AcDbEntity
  8
_0
  6
Continuous
 62
     7
370
     0
100
AcDbPolyline
 90
        7
 70
   128
 43
0.0
 10
57.615087
 20
-42.962961
 42
0.050548
 10
57.619749
 20
-42.942828
 42
0.087213
 10
57.617648
 20
-42.898567
 42
0.077542
 10
57.599367
 20
-42.852288
 42
0.077542
 10
57.567857
 20
-42.813777
 42
0.087213
 10
57.530227
 20
-42.790379
 42
0.054939
 10
57.508605
 20
-42.784336
  0
LWPOLYLINE
  5
B0
330
4D2
100
AcDbEntity
  8
_0
  6
Continuous
 62
     7
370
     0
100
AcDbPolyline
 90
        8
 70
   128
 43
0.0
 10
57.68171
 20
-43.16758
 42
0.030623
 10
57.686978
 20
-43.160022
 42
0.105614
 10
57.701133
 20
-43.11962
 42
0.087213
 10
57.699032
 20
-43.075358
 42
0.077542
 10
57.680751
 20
-43.029079
 42
0.077542
 10
57.649241
 20
-42.990568
 42
0.087213
 10
57.611611
 20
-42.96717
 42
0.004684
 10
57.609823
 20
-42.966471
  0
LWPOLYLINE
  5
B8
330
4D2
100
AcDbEntity
  8
_0
  6
Continuous
 62
     7
370
     0
100
AcDbPolyline
 90
        4
 70
   128
 43
0.0
 10
57.514281
 20
-43.126835
 42
0.077542
 10
57.545791
 20
-43.165345
 42
0.087213
 10
57.583421
 20
-43.188743
 42
0.018887
 10
57.590705
 20
-43.191357
  0
LINE
  5
BC
330
4D2
100
AcDbEntity
  8
_0
  6
Continuous
 62
     7
370
    13
100
AcDbLine
 10
57.666823
 20
-43.162948
 30
0.0
 11
57.681708
 21
-43.167583
 31
0.0
  0
LINE
  5
BD
330
4D2
100
AcDbEntity
  8
_0
  6
Continuous
 62
     7
370
    13
100
AcDbLine
 10
57.67026
 20
-43.179187
 30
0.0
 11
57.666823
 21
-43.162948
 31
0.0
  0
LINE
  5
BE
330
4D2
100
AcDbEntity
  8
_0
  6
Continuous
 62
     7
370
    13
100
AcDbLine
 10
57.653469
 20
-43.170958
 30
0.0
 11
57.669021
 21
-43.180187
 31
0.0
  0
LINE
  5
BF
330
4D2
100
AcDbEntity
  8
_0
  6
Continuous
 62
     7
370
    13
100
AcDbLine
 10
57.6525
 20
-43.189969
 30
0.0
 11
57.653469
 21
-43.170958
 31
0.0
  0
LINE
  5
C0
330
4D2
100
AcDbEntity
  8
_0
  6
Continuous
 62
     7
370
    13
100
AcDbLine
 10
57.635312
 20
-43.176833
 30
0.0
 11
57.651031
 21
-43.190583
 31
0.0
  0
LINE
  5
C1
330
4D2
100
AcDbEntity
  8
_0
  6
Continuous
 62
     7
370
    13
100
AcDbLine
 10
57.632927
 20
-43.195427
 30
0.0
 11
57.635312
 21
-43.176833
 31
0.0
  0
LINE
  5
C2
330
4D2
100
AcDbEntity
  8
_0
  6
Continuous
 62
     7
370
    13
100
AcDbLine
 10
57.617156
 20
-43.1795
 30
0.0
 11
57.630948
 21
-43.195667
 31
0.0
  0
LINE
  5
C3
330
4D2
100
AcDbEntity
  8
_0
  6
Continuous
 62
     7
370
    13
100
AcDbLine
 10
57.608219
 20
-43.19526
 30
0.0
 11
57.617156
 21
-43.1795
 31
0.0
  0
LINE
  5
C4
330
4D2
100
AcDbEntity
  8
_0
  6
Continuous
 62
     7
370
    13
100
AcDbLine
 10
57.597927
 20
-43.1795
 30
0.0
 11
57.607875
 21
-43.195208
 31
0.0
  0
LINE
  5
C5
330
4D2
100
AcDbEntity
  8
_0
  6
Continuous
 62
     7
370
    13
100
AcDbLine
 10
57.590708
 20
-43.191354
 30
0.0
 11
57.597927
 21
-43.1795
 31
0.0
  0
LINE
  5
C6
330
4D2
100
AcDbEntity
  8
_0
  6
Continuous
 62
     7
370
    13
100
AcDbLine
 10
57.615385
 20
-42.671448
 30
0.0
 11
57.443802
 21
-42.729615
 31
0.0
  0
LINE
  5
C7
330
4D2
100
AcDbEntity
  8
_0
  6
Continuous
 62
     7
370
    13
100
AcDbLine
 10
57.339708
 20
-43.108094
 30
0.0
 11
57.443802
 21
-42.729615
 31
0.0
  0
LINE
  5
C8
330
4D2
100
AcDbEntity
  8
_0
  6
Continuous
 62
     7
370
    13
100
AcDbLine
 10
57.984552
 20
-43.135385
 30
0.0
 11
57.984552
 21
-42.879865
 31
0.0
  0
LINE
  5
C9
330
4D2
100
AcDbEntity
  8
_0
  6
Continuous
 62
     7
370
    13
100
AcDbLine
 10
57.984552
 20
-42.879865
 30
0.0
 11
57.750521
 21
-42.83049
 31
0.0
  0
LINE
  5
CA
330
4D2
100
AcDbEntity
  8
_0
  6
Continuous
 62
     7
370
    13
100
AcDbLine
 10
57.620198
 20
-42.67626
 30
0.0
 11
57.448615
 21
-42.734417
 31
0.0
  0
LINE
  5
CB
330
4D2
100
AcDbEntity
  8
_0
  6
Continuous
 62
     7
370
    13
100
AcDbLine
 10
57.344521
 20
-43.112906
 30
0.0
 11
57.448615
 21
-42.734417
 31
0.0
  0
LINE
  5
CC
330
4D2
100
AcDbEntity
  8
_0
  6
Continuous
 62
     7
370
    13
100
AcDbLine
 10
57.493271
 20
-43.062479
 30
0.0
 11
57.344521
 21
-43.112906
 31
0.0
  0
LINE
  5
CD
330
4D2
100
AcDbEntity
  8
_0
  6
Continuous
 62
     7
370
    13
100
AcDbLine
 10
57.577292
 20
-42.832281
 30
0.0
 11
57.620198
 21
-42.67626
 31
0.0
  0
LWPOLYLINE
  5
CE
330
4D2
100
AcDbEntity
  8
_0
  6
Continuous
 62
     7
370
     0
100
AcDbPolyline
 90
       17
 70
   128
 43
0.0
 10
57.488679
 20
-42.89002
 42
0.072246
 10
57.489302
 20
-42.882001
 42
0.083492
 10
57.487835
 20
-42.875828
 42
0.106631
 10
57.4848
 20
-42.871508
 42
0.131805
 10
57.482176
 20
-42.870128
 42
0.131805
 10
57.479213
 20
-42.870248
 42
0.106631
 10
57.474618
 20
-42.872848
 42
0.083492
 10
57.470644
 20
-42.877794
 42
0.072246
 10
57.467765
 20
-42.885305
 42
0.072246
 10
57.467143
 20
-42.893324
 42
0.083492
 10
57.468609
 20
-42.899496
 42
0.106631
 10
57.471644
 20
-42.903817
 42
0.131805
 10
57.474269
 20
-42.905196
 42
0.131805
 10
57.477231
 20
-42.905077
 42
0.106631
 10
57.481827
 20
-42.902477
 42
0.083492
 10
57.485801
 20
-42.897531
 42
0.072246
 10
57.488679
 20
-42.89002
  0
LINE
  5
DF
330
4D2
100
AcDbEntity
  8
_0
  6
Continuous
 62
     7
370
    13
100
AcDbLine
 10
57.493156
 20
-42.824885
 30
0.0
 11
57.503344
 21
-42.787844
 31
0.0
  0
LWPOLYLINE
  5
E0
330
4D2
100
AcDbEntity
  8
_0
  6
Continuous
 62
     7
370
     0
100
AcDbPolyline
 90
        4
 70
   128
 43
0.0
 10
57.4497
 20
-42.982888
 42
0.020405
 10
57.459143
 20
-42.992064
 42
0.087213
 10
57.496773
 20
-43.015462
 42
0.004684
 10
57.498561
 20
-43.016161
  0
LWPOLYLINE
  5
E4
330
4D2
100
AcDbEntity
  8
_0
  6
Continuous
 62
     7
370
     0
100
AcDbPolyline
 90
        7
 70
   128
 43
0.0
 10
57.609823
 20
-42.966471
 42
0.050548
 10
57.614485
 20
-42.946338
 42
0.087213
 10
57.612384
 20
-42.902077
 42
0.077542
 10
57.594103
 20
-42.855798
 42
0.077542
 10
57.562593
 20
-42.817287
 42
0.087213
 10
57.524963
 20
-42.793889
 42
0.054939
 10
57.503341
 20
-42.787846
  0
LWPOLYLINE
  5
EB
330
4D2
100
AcDbEntity
  8
_0
  6
Continuous
 62
     7
370
     0
100
AcDbPolyline
 90
       10
 70
   128
 43
0.0
 10
57.460958
 20
-42.941956
 42
0.054924
 10
57.474579
 20
-42.949083
 42
0.104878
 10
57.498358
 20
-42.953003
 42
0.119608
 10
57.518711
 20
-42.947068
 42
0.119608
 10
57.53408
 20
-42.932464
 42
0.104878
 10
57.542656
 20
-42.909942
 42
0.089108
 10
57.542088
 20
-42.885129
 42
0.08046
 10
57.532387
 20
-42.859453
 42
0.08046
 10
57.515078
 20
-42.838152
 42
0.092051
 10
57.493155
 20
-42.824883
  0
LINE
  5
F5
330
4D2
100
AcDbEntity
  8
_0
  6
Continuous
 62
     7
370
    13
100
AcDbLine
 10
57.449698
 20
-42.982885
 30
0.0
 11
57.460958
 21
-42.941958
 31
0.0
  0
LWPOLYLINE
  5
F6
330
4D2
100
AcDbEntity
  8
_0
  6
Continuous
 62
     7
370
     0
100
AcDbPolyline
 90
        4
 70
   128
 43
0.0
 10
57.498561
 20
-43.016161
 42
0.050548
 10
57.493899
 20
-43.036294
 42
0.087213
 10
57.496001
 20
-43.080555
 42
0.077542
 10
57.514281
 20
-43.126835
  0
CIRCLE
  5
FA
330
4D2
100
AcDbEntity
  8
_0
  6
Continuous
 62
     7
370
    13
100
AcDbCircle
 10
57.596357
 20
-43.076017
 30
0.0
 40
0.0182303289881488
  0
ARC
  5
FB
330
4D2
100
AcDbEntity
  8
_0
  6
Continuous
 62
     7
370
    13
100
AcDbCircle
 10
57.599055
 20
-43.073995
 30
0.0
 40
0.0182303289881488
100
AcDbArc
 50
132.158231
 51
301.547322
  0
ARC
  5
FC
330
4D2
100
AcDbEntity
  8
_0
  6
Continuous
 62
     7
370
    13
100
AcDbCircle
 10
58.22457
 20
-42.712378
 30
0.0
 40
0.0182303289881488
100
AcDbArc
 50
127.080242
 51
294.842667
  0
LINE
  5
FD
330
4D2
100
AcDbEntity
  8
_0
  6
Continuous
 62
     7
370
    13
100
AcDbLine
 10
57.884208
 20
-43.082031
 30
0.0
 11
57.824542
 21
-43.069219
 31
0.0
  0
LINE
  5
FE
330
4D2
100
AcDbEntity
  8
_0
  6
Continuous
 62
     7
370
    13
100
AcDbLine
 10
57.856365
 20
-43.01175
 30
0.0
 11
57.824542
 21
-43.069219
 31
0.0
  0
ARC
  5
FF
330
4D2
100
AcDbEntity
  8
_0
  6
Continuous
 62
     7
370
    13
100
AcDbCircle
 10
57.872528
 20
-42.914517
 30
0.0
 40
0.0182303289881488
100
AcDbArc
 50
132.158231
 51
301.547322
  0
LINE
  5
100
330
4D2
100
AcDbEntity
  8
_0
  6
Continuous
 62
     7
370
    13
100
AcDbLine
 10
57.855708
 20
-43.010094
 30
0.0
 11
57.885323
 21
-43.084875
 31
0.0
  0
LINE
  5
101
330
4D2
100
AcDbEntity
  8
_0
  6
Continuous
 62
     7
370
    13
100
AcDbLine
 10
57.855708
 20
-43.010094
 30
0.0
 11
57.821844
 21
-43.07124
 31
0.0
  0
LINE
  5
102
330
4D2
100
AcDbEntity
  8
_0
  6
Continuous
 62
     7
370
    13
100
AcDbLine
 10
57.885323
 20
-43.084875
 30
0.0
 11
57.821844
 21
-43.07124
 31
0.0
  0
LINE
  5
103
330
4D2
100
AcDbEntity
  8
_0
  6
DGN Style 7
 62
     7
370
    13
100
AcDbLine
 10
57.943417
 20
-42.877521
 30
0.0
 11
58.236958
 21
-42.705146
 31
0.0
  0
CIRCLE
  5
104
330
4D2
100
AcDbEntity
  8
_0
  6
Continuous
 62
     7
370
    13
100
AcDbCircle
 10
57.86983
 20
-42.916539
 30
0.0
 40
0.0182303289881488
  0
LINE
  5
105
330
4D2
100
AcDbEntity
  8
_0
  6
DGN Style 7
 62
     7
370
    13
100
AcDbLine
 10
58.304125
 20
-42.665708
 30
0.0
 11
58.579146
 21
-42.504208
 31
0.0
  0
CIRCLE
  5
106
330
4D2
100
AcDbEntity
  8
_0
  6
Continuous
 62
     7
370
    13
100
AcDbCircle
 10
58.221237
 20
-42.714377
 30
0.0
 40
0.0182303289881488
  0
LINE
  5
107
330
4D2
100
AcDbEntity
  8
_0
  6
Continuous
 62
     7
370
    13
100
AcDbLine
 10
57.977333
 20
-43.140198
 30
0.0
 11
57.743292
 21
-43.090823
 31
0.0
  0
LINE
  5
108
330
4D2
100
AcDbEntity
  8
_0
  6
Continuous
 62
     7
370
    13
100
AcDbLine
 10
57.977333
 20
-43.140198
 30
0.0
 11
57.977333
 21
-42.884677
 31
0.0
  0
LINE
  5
109
330
4D2
100
AcDbEntity
  8
_0
  6
Continuous
 62
     7
370
    13
100
AcDbLine
 10
57.977333
 20
-42.884677
 30
0.0
 11
57.743292
 21
-42.835302
 31
0.0
  0
LINE
  5
10A
330
4D2
100
AcDbEntity
  8
_0
  6
Continuous
 62
     7
370
    13
100
AcDbLine
 10
57.743292
 20
-43.090823
 30
0.0
 11
57.743292
 21
-42.835302
 31
0.0
  0
LINE
  5
10B
330
4D2
100
AcDbEntity
  8
_0
  6
Continuous
 62
     7
370
    13
100
AcDbLine
 10
58.104115
 20
-42.623521
 30
0.0
 11
58.14826
 21
-42.601104
 31
0.0
  0
LINE
  5
10C
330
4D2
100
AcDbEntity
  8
_0
  6
Continuous
 62
     7
370
    13
100
AcDbLine
 10
58.338125
 20
-42.672875
 30
0.0
 11
58.376583
 21
-42.653312
 31
0.0
  0
LINE
  5
10D
330
4D2
100
AcDbEntity
  8
_0
  6
Continuous
 62
     7
370
    13
100
AcDbLine
 10
58.338125
 20
-42.672875
 30
0.0
 11
58.104115
 21
-42.623521
 31
0.0
  0
LINE
  5
10E
330
4D2
100
AcDbEntity
  8
_0
  6
Continuous
 62
     7
370
    13
100
AcDbLine
 10
58.040823
 20
-42.655646
 30
0.0
 11
58.021719
 21
-42.652062
 31
0.0
  0
LINE
  5
10F
330
4D2
100
AcDbEntity
  8
_0
  6
Continuous
 62
     7
370
    13
100
AcDbLine
 10
58.395844
 20
-42.656917
 30
0.0
 11
58.376583
 21
-42.653312
 31
0.0
  0
LINE
  5
110
330
4D2
100
AcDbEntity
  8
_0
  6
Continuous
 62
     7
370
    13
100
AcDbLine
 10
58.14826
 20
-42.601104
 30
0.0
 11
58.125198
 21
-42.596781
 31
0.0
  0
LINE
  5
111
330
4D2
100
AcDbEntity
  8
_0
  6
Continuous
 62
     7
370
    13
100
AcDbLine
 10
58.290844
 20
-42.710302
 30
0.0
 11
58.271667
 21
-42.706708
 31
0.0
  0
LINE
  5
112
330
4D2
100
AcDbEntity
  8
_0
  6
DGN Style 2
 62
     7
370
    13
100
AcDbLine
 10
58.125198
 20
-43.223833
 30
0.0
 11
58.125198
 21
-42.638188
 31
0.0
  0
LINE
  5
113
330
4D2
100
AcDbEntity
  8
_0
  6
DGN Style 2
 62
     7
370
    13
100
AcDbLine
 10
58.145198
 20
-43.212083
 30
0.0
 11
58.145198
 21
-42.642406
 31
0.0
  0
LINE
  5
114
330
4D2
100
AcDbEntity
  8
_0
  6
Continuous
 62
     7
370
    13
100
AcDbLine
 10
58.323927
 20
-42.680104
 30
0.0
 11
58.089885
 21
-42.63074
 31
0.0
  0
LINE
  5
115
330
4D2
100
AcDbEntity
  8
_0
  6
DGN Style 7
 62
     7
370
    13
100
AcDbLine
 10
57.179146
 20
-43.326323
 30
0.0
 11
57.613896
 21
-43.071031
 31
0.0
  0
LINE
  5
116
330
4D2
100
AcDbEntity
  8
_0
  6
Continuous
 62
     7
370
    13
100
AcDbLine
 10
58.020823
 20
-42.652552
 30
0.0
 11
58.125198
 21
-42.596781
 31
0.0
  0
LINE
  5
117
330
4D2
100
AcDbEntity
  8
_0
  6
Continuous
 62
     7
370
    13
100
AcDbLine
 10
58.040823
 20
-42.655646
 30
0.0
 11
58.089885
 21
-42.63074
 31
0.0
  0
LINE
  5
118
330
4D2
100
AcDbEntity
  8
_0
  6
Continuous
 62
     7
370
    13
100
AcDbLine
 10
58.290844
 20
-42.710302
 30
0.0
 11
58.395854
 21
-42.656917
 31
0.0
  0
LINE
  5
119
330
4D2
100
AcDbEntity
  8
_0
  6
DGN Style 2
 62
     7
370
    13
100
AcDbLine
 10
58.375844
 20
-43.084802
 30
0.0
 11
58.375844
 21
-42.653677
 31
0.0
  0
LINE
  5
11A
330
4D2
100
AcDbEntity
  8
_0
  6
Continuous
 62
     7
370
    13
100
AcDbLine
 10
58.395854
 20
-43.073052
 30
0.0
 11
58.395854
 21
-42.656917
 31
0.0
  0
LINE
  5
11B
330
4D2
100
AcDbEntity
  8
_0
  6
Continuous
 62
     7
370
    13
100
AcDbLine
 10
58.270844
 20
-43.146469
 30
0.0
 11
58.270844
 21
-42.707125
 31
0.0
  0
LINE
  5
11C
330
4D2
100
AcDbEntity
  8
_0
  6
Continuous
 62
     7
370
    13
100
AcDbLine
 10
58.290844
 20
-43.134719
 30
0.0
 11
58.290844
 21
-42.710302
 31
0.0
  0
LINE
  5
11D
330
4D2
100
AcDbEntity
  8
_0
  6
Continuous
 62
     7
370
    13
100
AcDbLine
 10
58.089885
 20
-43.244563
 30
0.0
 11
58.089885
 21
-42.63074
 31
0.0
  0
LINE
  5
11E
330
4D2
100
AcDbEntity
  8
_0
  6
Continuous
 62
     7
370
    13
100
AcDbLine
 10
58.040823
 20
-43.242865
 30
0.0
 11
58.040823
 21
-42.655646
 31
0.0
  0
LINE
  5
11F
330
4D2
100
AcDbEntity
  8
_0
  6
Continuous
 62
     7
370
    13
100
AcDbLine
 10
58.020823
 20
-43.254615
 30
0.0
 11
58.020823
 21
-42.652552
 31
0.0
  0
LINE
  5
120
330
4D2
100
AcDbEntity
  8
_0
  6
Continuous
 62
     7
370
    13
100
AcDbLine
 10
58.270844
 20
-42.707125
 30
0.0
 11
58.323927
 21
-42.680104
 31
0.0
  0
SOLID
  5
130
330
4D2
100
AcDbEntity
  8
LEGEND
  6
Continuous
 62
     7
370
    13
100
AcDbTrace
 10
64.455198
 20
-42.46474
 30
0.0
 11
64.438531
 21
-42.46474
 31
0.0
 12
64.446865
 22
-42.41474
 32
0.0
 13
64.446865
 23
-42.41474
 33
0.0
  0
SOLID
  5
131
330
4D2
100
AcDbEntity
  8
LEGEND
  6
Continuous
 62
     7
370
    13
100
AcDbTrace
 10
64.455198
 20
-43.139792
 30
0.0
 11
64.438531
 21
-43.139792
 31
0.0
 12
64.446865
 22
-43.189792
 32
0.0
 13
64.446865
 23
-43.189792
 33
0.0
  0
LINE
  5
132
330
4D2
100
AcDbEntity
  8
LEGEND
  6
Continuous
 62
     7
370
    13
100
AcDbLine
 10
64.446865
 20
-43.139792
 30
0.0
 11
64.446865
 21
-42.46474
 31
0.0
  0
LINE
  5
133
330
4D2
100
AcDbEntity
  8
LEGEND
  6
Continuous
 62
     7
370
    13
100
AcDbLine
 10
64.273646
 20
-42.41474
 30
0.0
 11
64.496865
 21
-42.41474
 31
0.0
  0
LINE
  5
134
330
4D2
100
AcDbEntity
  8
LEGEND
  6
Continuous
 62
     7
370
    13
100
AcDbLine
 10
64.273646
 20
-43.189792
 30
0.0
 11
64.496865
 21
-43.189792
 31
0.0
  0
SOLID
  5
137
330
4D2
100
AcDbEntity
  8
LEGEND
  6
Continuous
 62
     7
370
    13
100
AcDbTrace
 10
63.523583
 20
-42.135948
 30
0.0
 11
63.523583
 21
-42.119281
 31
0.0
 12
63.473583
 22
-42.127615
 32
0.0
 13
63.473583
 23
-42.127615
 33
0.0
  0
SOLID
  5
138
330
4D2
100
AcDbEntity
  8
LEGEND
  6
Continuous
 62
     7
370
    13
100
AcDbTrace
 10
64.173635
 20
-42.135948
 30
0.0
 11
64.173635
 21
-42.119281
 31
0.0
 12
64.223635
 22
-42.127615
 32
0.0
 13
64.223635
 23
-42.127615
 33
0.0
  0
LINE
  5
139
330
4D2
100
AcDbEntity
  8
LEGEND
  6
Continuous
 62
     7
370
    13
100
AcDbLine
 10
64.173635
 20
-42.127615
 30
0.0
 11
63.523583
 21
-42.127615
 31
0.0
  0
LINE
  5
13A
330
4D2
100
AcDbEntity
  8
LEGEND
  6
Continuous
 62
     7
370
    13
100
AcDbLine
 10
63.473583
 20
-42.364729
 30
0.0
 11
63.473583
 21
-42.077615
 31
0.0
  0
LINE
  5
13B
330
4D2
100
AcDbEntity
  8
LEGEND
  6
Continuous
 62
     7
370
    13
100
AcDbLine
 10
64.223635
 20
-42.364729
 30
0.0
 11
64.223635
 21
-42.077615
 31
0.0
  0
SOLID
  5
13C
330
4D2
100
AcDbEntity
  8
LEGEND
  6
Continuous
 62
     7
370
    13
100
AcDbTrace
 10
63.898615
 20
-42.285958
 30
0.0
 11
63.898615
 21
-42.269292
 31
0.0
 12
63.848604
 22
-42.277625
 32
0.0
 13
63.848604
 23
-42.277625
 33
0.0
  0
SOLID
  5
13D
330
4D2
100
AcDbEntity
  8
LEGEND
  6
Continuous
 62
     7
370
    13
100
AcDbTrace
 10
64.173635
 20
-42.285958
 30
0.0
 11
64.173635
 21
-42.269292
 31
0.0
 12
64.223635
 22
-42.277625
 32
0.0
 13
64.223635
 23
-42.277625
 33
0.0
  0
LINE
  5
13E
330
4D2
100
AcDbEntity
  8
LEGEND
  6
Continuous
 62
     7
370
    13
100
AcDbLine
 10
64.173635
 20
-42.277625
 30
0.0
 11
63.898615
 21
-42.277625
 31
0.0
  0
LINE
  5
13F
330
4D2
100
AcDbEntity
  8
LEGEND
  6
Continuous
 62
     7
370
    13
100
AcDbLine
 10
64.223635
 20
-42.364729
 30
0.0
 11
64.223635
 21
-42.227625
 31
0.0
  0
LINE
  5
14B
330
4D2
100
AcDbEntity
  8
TITLE
  6
Continuous
 62
     7
370
    13
100
AcDbLine
 10
63.453135
 20
-42.652802
 30
0.0
 11
63.403135
 21
-42.652802
 31
0.0
  0
LINE
  5
14C
330
4D2
100
AcDbEntity
  8
TITLE
  6
Continuous
 62
     7
370
    13
100
AcDbLine
 10
63.807583
 20
-42.979875
 30
0.0
 11
63.453135
 21
-42.652802
 31
0.0
  0
SOLID
  5
14D
330
4D2
100
AcDbEntity
  8
TITLE
  6
Continuous
 62
     7
370
    13
100
AcDbTrace
 10
63.813229
 20
-42.97375
 30
0.0
 11
63.801927
 21
-42.986
 31
0.0
 12
63.844333
 22
-43.013792
 32
0.0
 13
63.844333
 23
-43.013792
 33
0.0
  0
LINE
  5
150
330
4D2
100
AcDbEntity
  8
TITLE
  6
Continuous
 62
     7
370
    13
100
AcDbLine
 10
63.439354
 20
-42.86774
 30
0.0
 11
63.389354
 21
-42.86774
 31
0.0
  0
LINE
  5
151
330
4D2
100
AcDbEntity
  8
TITLE
  6
Continuous
 62
     7
370
    13
100
AcDbLine
 10
63.771865
 20
-43.030396
 30
0.0
 11
63.439354
 21
-42.86774
 31
0.0
  0
SOLID
  5
152
330
4D2
100
AcDbEntity
  8
TITLE
  6
Continuous
 62
     7
370
    13
100
AcDbTrace
 10
63.775521
 20
-43.022906
 30
0.0
 11
63.768198
 21
-43.037875
 31
0.0
 12
63.816781
 22
-43.052365
 32
0.0
 13
63.816781
 23
-43.052365
 33
0.0
  0
SOLID
  5
154
330
4D2
100
AcDbEntity
  8
LEGEND
  6
Continuous
 62
     7
370
    13
100
AcDbTrace
 10
60.278979
 20
-41.377156
 30
0.0
 11
60.262313
 21
-41.377156
 31
0.0
 12
60.270646
 22
-41.427156
 32
0.0
 13
60.270646
 23
-41.427156
 33
0.0
  0
SOLID
  5
155
330
4D2
100
AcDbEntity
  8
LEGEND
  6
Continuous
 62
     7
370
    13
100
AcDbTrace
 10
60.278979
 20
-41.195885
 30
0.0
 11
60.262313
 21
-41.195885
 31
0.0
 12
60.270646
 22
-41.145885
 32
0.0
 13
60.270646
 23
-41.145885
 33
0.0
  0
LINE
  5
156
330
4D2
100
AcDbEntity
  8
LEGEND
  6
Continuous
 62
     7
370
    13
100
AcDbLine
 10
60.270646
 20
-41.195885
 30
0.0
 11
60.270646
 21
-41.377156
 31
0.0
  0
LINE
  5
157
330
4D2
100
AcDbEntity
  8
LEGEND
  6
Continuous
 62
     7
370
    13
100
AcDbLine
 10
60.323115
 20
-41.427156
 30
0.0
 11
60.220646
 21
-41.427156
 31
0.0
  0
SOLID
  5
159
330
4D2
100
AcDbEntity
  8
LEGEND
  6
Continuous
 62
     7
370
    13
100
AcDbTrace
 10
60.278979
 20
-41.095875
 30
0.0
 11
60.262313
 21
-41.095875
 31
0.0
 12
60.270646
 22
-41.145885
 32
0.0
 13
60.270646
 23
-41.145885
 33
0.0
  0
SOLID
  5
15A
330
4D2
100
AcDbEntity
  8
LEGEND
  6
Continuous
 62
     7
370
    13
100
AcDbTrace
 10
60.278979
 20
-40.914615
 30
0.0
 11
60.262313
 21
-40.914615
 31
0.0
 12
60.270646
 22
-40.864615
 32
0.0
 13
60.270646
 23
-40.864615
 33
0.0
  0
LINE
  5
15B
330
4D2
100
AcDbEntity
  8
LEGEND
  6
Continuous
 62
     7
370
    13
100
AcDbLine
 10
60.270646
 20
-40.914615
 30
0.0
 11
60.270646
 21
-41.095875
 31
0.0
  0
LINE
  5
15C
330
4D2
100
AcDbEntity
  8
LEGEND
  6
Continuous
 62
     7
370
    13
100
AcDbLine
 10
60.323115
 20
-40.864615
 30
0.0
 11
60.220646
 21
-40.864615
 31
0.0
  0
LINE
  5
15D
330
4D2
100
AcDbEntity
  8
TITLE
  6
Continuous
 62
     7
370
    13
100
AcDbLine
 10
60.460698
 20
-41.830771
 30
0.0
 11
60.613333
 21
-41.620771
 31
0.0
  0
SOLID
  5
15E
330
4D2
100
AcDbEntity
  8
TITLE
  6
Continuous
 62
     7
370
    13
100
AcDbTrace
 10
-60.467437
 20
-41.835667
 30
0.0
 11
-60.453958
 21
-41.825865
 31
0.0
 12
-60.431302
 22
-41.871219
 32
0.0
 13
-60.431302
 23
-41.871219
 33
0.0
210
0.0
220
0.0
230
-1.0
  0
LINE
  5
160
330
4D2
100
AcDbEntity
  8
TITLE
  6
Continuous
 62
     7
370
    13
100
AcDbLine
 10
60.613333
 20
-41.620771
 30
0.0
 11
60.663333
 21
-41.620771
 31
0.0
  0
LINE
  5
161
330
4D2
100
AcDbEntity
  8
TITLE
  6
Continuous
 62
     7
370
    13
100
AcDbLine
 10
60.4595
 20
-41.434146
 30
0.0
 11
60.613333
 21
-41.620771
 31
0.0
  0
SOLID
  5
162
330
4D2
100
AcDbEntity
  8
TITLE
  6
Continuous
 62
     7
370
    13
100
AcDbTrace
 10
-60.453073
 20
-41.439448
 30
0.0
 11
-60.465927
 21
-41.428844
 31
0.0
 12
-60.427698
 22
-41.395552
 32
0.0
 13
-60.427698
 23
-41.395552
 33
0.0
210
0.0
220
0.0
230
-1.0
  0
LINE
  5
163
330
4D2
100
AcDbEntity
  8
TITLE
  6
Continuous
 62
     7
370
    13
100
AcDbLine
 10
61.149625
 20
-41.340292
 30
0.0
 11
61.183865
 21
-41.340292
 31
0.0
  0
LINE
  5
164
330
4D2
100
AcDbEntity
  8
TITLE
  6
Continuous
 62
     7
370
    13
100
AcDbLine
 10
61.085427
 20
-41.223729
 30
0.0
 11
61.149625
 21
-41.340292
 31
0.0
  0
SOLID
  5
165
330
4D2
100
AcDbEntity
  8
TITLE
  6
Continuous
 62
     7
370
    13
100
AcDbTrace
 10
-61.078135
 20
-41.22775
 30
0.0
 11
-61.092729
 21
-41.219708
 31
0.0
 12
-61.061302
 22
-41.179927
 32
0.0
 13
-61.061302
 23
-41.179927
 33
0.0
210
0.0
220
0.0
230
-1.0
  0
LINE
  5
169
330
4D2
100
AcDbEntity
  8
LEGEND
  6
Continuous
 62
     7
370
    13
100
AcDbLine
 10
60.860656
 20
-41.464229
 30
0.0
 11
61.532917
 21
-41.464229
 31
0.0
  0
LINE
  5
16A
330
4D2
100
AcDbEntity
  8
LEGEND
  6
Continuous
 62
     7
370
    13
100
AcDbLine
 10
61.232594
 20
-40.825135
 30
0.0
 11
61.232594
 21
-40.643792
 31
0.0
  0
LINE
  5
16C
330
4D2
100
AcDbEntity
  8
TITLE
  6
Continuous
 62
     7
370
    13
100
AcDbLine
 10
61.294177
 20
-40.800875
 30
0.0
 11
61.344177
 21
-40.800875
 31
0.0
  0
LINE
  5
16D
330
4D2
100
AcDbEntity
  8
TITLE
  6
Continuous
 62
     7
370
    13
100
AcDbLine
 10
61.080198
 20
-40.98751
 30
0.0
 11
61.294177
 21
-40.800875
 31
0.0
  0
SOLID
  5
16E
330
4D2
100
AcDbEntity
  8
TITLE
  6
Continuous
 62
     7
370
    13
100
AcDbTrace
 10
61.085677
 20
-40.993792
 30
0.0
 11
61.074719
 21
-40.981229
 31
0.0
 12
61.042521
 22
-41.020375
 32
0.0
 13
61.042521
 23
-41.020375
 33
0.0
  0
SOLID
  5
170
330
4D2
100
AcDbEntity
  8
LEGEND
  6
Continuous
 62
     7
370
    13
100
AcDbTrace
 10
60.473125
 20
-40.702135
 30
0.0
 11
60.473125
 21
-40.685469
 31
0.0
 12
60.423115
 22
-40.693802
 32
0.0
 13
60.423115
 23
-40.693802
 33
0.0
  0
SOLID
  5
171
330
4D2
100
AcDbEntity
  8
LEGEND
  6
Continuous
 62
     7
370
    13
100
AcDbTrace
 10
60.323115
 20
-40.702135
 30
0.0
 11
60.323115
 21
-40.685469
 31
0.0
 12
60.373115
 22
-40.693802
 32
0.0
 13
60.373115
 23
-40.693802
 33
0.0
  0
LINE
  5
172
330
4D2
100
AcDbEntity
  8
LEGEND
  6
Continuous
 62
     7
370
    13
100
AcDbLine
 10
60.473125
 20
-40.693802
 30
0.0
 11
60.523125
 21
-40.693802
 31
0.0
  0
LINE
  5
173
330
4D2
100
AcDbEntity
  8
LEGEND
  6
Continuous
 62
     7
370
    13
100
AcDbLine
 10
60.323115
 20
-40.693802
 30
0.0
 11
60.273104
 21
-40.693802
 31
0.0
  0
LINE
  5
174
330
4D2
100
AcDbEntity
  8
LEGEND
  6
Continuous
 62
     7
370
    13
100
AcDbLine
 10
60.373115
 20
-40.814604
 30
0.0
 11
60.373115
 21
-40.643792
 31
0.0
  0
LINE
  5
175
330
4D2
100
AcDbEntity
  8
LEGEND
  6
Continuous
 62
     7
370
    13
100
AcDbLine
 10
60.423115
 20
-40.814604
 30
0.0
 11
60.423115
 21
-40.643792
 31
0.0
  0
SOLID
  5
177
330
4D2
100
AcDbEntity
  8
LEGEND
  6
Continuous
 62
     7
370
    13
100
AcDbTrace
 10
60.473125
 20
-40.702135
 30
0.0
 11
60.473125
 21
-40.685469
 31
0.0
 12
60.423115
 22
-40.693802
 32
0.0
 13
60.423115
 23
-40.693802
 33
0.0
  0
SOLID
  5
178
330
4D2
100
AcDbEntity
  8
LEGEND
  6
Continuous
 62
     7
370
    13
100
AcDbTrace
 10
61.182594
 20
-40.702135
 30
0.0
 11
61.182594
 21
-40.685469
 31
0.0
 12
61.232594
 22
-40.693802
 32
0.0
 13
61.232594
 23
-40.693802
 33
0.0
  0
LINE
  5
179
330
4D2
100
AcDbEntity
  8
LEGEND
  6
Continuous
 62
     7
370
    13
100
AcDbLine
 10
61.182594
 20
-40.693802
 30
0.0
 11
60.473125
 21
-40.693802
 31
0.0
  0
LINE
  5
17A
330
4D2
100
AcDbEntity
  8
LEGEND
  6
Continuous
 62
     7
370
    13
100
AcDbLine
 10
60.423115
 20
-40.814604
 30
0.0
 11
60.423115
 21
-40.643792
 31
0.0
  0
LINE
  5
17B
330
4D2
100
AcDbEntity
  8
LEGEND
  6
Continuous
 62
     7
370
    13
100
AcDbLine
 10
61.232594
 20
-41.026583
 30
0.0
 11
61.232594
 21
-40.881292
 31
0.0
  0
LINE
  5
17D
330
4D2
100
AcDbEntity
  8
TITLE
  6
Continuous
 62
     7
370
    13
100
AcDbLine
 10
61.326302
 20
-40.891885
 30
0.0
 11
61.376302
 21
-40.891885
 31
0.0
  0
LINE
  5
17E
330
4D2
100
AcDbEntity
  8
TITLE
  6
Continuous
 62
     7
370
    13
100
AcDbLine
 10
61.272469
 20
-41.027437
 30
0.0
 11
61.326302
 21
-40.891885
 31
0.0
  0
SOLID
  5
17F
330
4D2
100
AcDbEntity
  8
TITLE
  6
Continuous
 62
     7
370
    13
100
AcDbTrace
 10
-61.280208
 20
-41.03051
 30
0.0
 11
-61.264719
 21
-41.024365
 31
0.0
 12
-61.25401
 22
-41.073906
 32
0.0
 13
-61.25401
 23
-41.073906
 33
0.0
210
0.0
220
0.0
230
-1.0
  0
LINE
  5
180
330
4D2
100
AcDbEntity
  8
LEGEND
  6
Continuous
 62
     7
370
    13
100
AcDbLine
 10
61.516375
 20
-41.097135
 30
0.0
 11
61.596687
 21
-41.071229
 31
0.0
  0
LINE
  5
181
330
4D2
100
AcDbEntity
  8
LEGEND
  6
Continuous
 62
     7
370
    13
100
AcDbLine
 10
61.516375
 20
-41.146969
 30
0.0
 11
61.596687
 21
-41.170281
 31
0.0
  0
LINE
  5
182
330
4D2
100
AcDbEntity
  8
LEGEND
  6
Continuous
 62
     7
370
    13
100
AcDbLine
 10
61.435698
 20
-41.115885
 30
0.0
 11
61.547635
 21
-41.115885
 31
0.0
  0
SOLID
  5
185
330
4D2
100
AcDbEntity
  8
LEGEND
  6
Continuous
 62
     7
370
    13
100
AcDbTrace
 10
61.524708
 20
-41.225885
 30
0.0
 11
61.508042
 21
-41.225885
 31
0.0
 12
61.516375
 22
-41.175885
 32
0.0
 13
61.516375
 23
-41.175885
 33
0.0
  0
SOLID
  5
186
330
4D2
100
AcDbEntity
  8
LEGEND
  6
Continuous
 62
     7
370
    13
100
AcDbTrace
 10
61.524708
 20
-41.025875
 30
0.0
 11
61.508042
 21
-41.025875
 31
0.0
 12
61.516375
 22
-41.075875
 32
0.0
 13
61.516375
 23
-41.075875
 33
0.0
  0
LINE
  5
187
330
4D2
100
AcDbEntity
  8
LEGEND
  6
Continuous
 62
     7
370
    13
100
AcDbLine
 10
61.516375
 20
-41.075875
 30
0.0
 11
61.516375
 21
-41.275896
 31
0.0
  0
LINE
  5
188
330
4D2
100
AcDbEntity
  8
LEGEND
  6
Continuous
 62
     7
370
    13
100
AcDbLine
 10
61.516375
 20
-41.025875
 30
0.0
 11
61.516375
 21
-40.975865
 31
0.0
  0
LINE
  5
189
330
4D2
100
AcDbEntity
  8
LEGEND
  6
Continuous
 62
     7
370
    13
100
AcDbLine
 10
61.435698
 20
-41.075875
 30
0.0
 11
61.547635
 21
-41.075875
 31
0.0
  0
LINE
  5
18A
330
4D2
100
AcDbEntity
  8
LEGEND
  6
Continuous
 62
     7
370
    13
100
AcDbLine
 10
61.285687
 20
-41.175885
 30
0.0
 11
61.547635
 21
-41.175885
 31
0.0
  0
ARC
  5
18B
330
4D2
100
AcDbEntity
  8
_0
  6
Continuous
 62
     7
370
    13
100
AcDbCircle
 10
61.098778
 20
-41.032555
 30
0.0
 40
0.0100008
100
AcDbArc
 50
180.0
 51
270.0
  0
ARC
  5
18C
330
4D2
100
AcDbEntity
  8
_0
  6
Continuous
 62
     7
370
    13
100
AcDbCircle
 10
61.098778
 20
-41.052557
 30
0.0
 40
0.0100008
100
AcDbArc
 50
90.0
 51
180.0
  0
ARC
  5
18D
330
4D2
100
AcDbEntity
  8
_0
  6
Continuous
 62
     7
370
    13
100
AcDbCircle
 10
60.622527
 20
-41.052557
 30
0.0
 40
0.0100008
100
AcDbArc
 50
0.0
 51
90.0
  0
ARC
  5
18E
330
4D2
100
AcDbEntity
  8
_0
  6
Continuous
 62
     7
370
    13
100
AcDbCircle
 10
60.622527
 20
-41.032555
 30
0.0
 40
0.0100008
100
AcDbArc
 50
270.0
 51
0.0
  0
LINE
  5
18F
330
4D2
100
AcDbEntity
  8
_0
  6
DGN Style 2
 62
     7
370
    13
100
AcDbLine
 10
60.630635
 20
-41.005906
 30
0.0
 11
60.630635
 21
-41.078479
 31
0.0
  0
LINE
  5
190
330
4D2
100
AcDbEntity
  8
_0
  6
DGN Style 2
 62
     7
370
    13
100
AcDbLine
 10
61.090667
 20
-41.004729
 30
0.0
 11
61.090667
 21
-41.078479
 31
0.0
  0
LINE
  5
191
330
4D2
100
AcDbEntity
  8
_0
  6
DGN Style 2
 62
     7
370
    13
100
AcDbLine
 10
60.630635
 20
-41.045135
 30
0.0
 11
61.090667
 21
-41.045135
 31
0.0
  0
LINE
  5
192
330
4D2
100
AcDbEntity
  8
_0
  6
DGN Style 2
 62
     7
370
    13
100
AcDbLine
 10
60.630635
 20
-41.018146
 30
0.0
 11
61.090667
 21
-41.018146
 31
0.0
  0
ARC
  5
193
330
4D2
100
AcDbEntity
  8
_0
  6
Continuous
 62
     7
370
    13
100
AcDbCircle
 10
60.822313
 20
-41.002989
 30
0.0
 40
0.0100008
100
AcDbArc
 50
180.0
 51
270.0
  0
ARC
  5
194
330
4D2
100
AcDbEntity
  8
_0
  6
Continuous
 62
     7
370
    13
100
AcDbCircle
 10
60.802311
 20
-41.002989
 30
0.0
 40
0.0100008
100
AcDbArc
 50
270.0
 51
0.0
  0
ARC
  5
195
330
4D2
100
AcDbEntity
  8
_0
  6
Continuous
 62
     7
370
    13
100
AcDbCircle
 10
60.850652
 20
-41.002989
 30
0.0
 40
0.0100008
100
AcDbArc
 50
270.0
 51
0.0
  0
ARC
  5
196
330
4D2
100
AcDbEntity
  8
_0
  6
Continuous
 62
     7
370
    13
100
AcDbCircle
 10
60.870653
 20
-41.002989
 30
0.0
 40
0.0100008
100
AcDbArc
 50
180.0
 51
270.0
  0
ARC
  5
197
330
4D2
100
AcDbEntity
  8
_0
  6
Continuous
 62
     7
370
    13
100
AcDbCircle
 10
60.898992
 20
-41.002989
 30
0.0
 40
0.0100008
100
AcDbArc
 50
270.0
 51
0.0
  0
ARC
  5
198
330
4D2
100
AcDbEntity
  8
_0
  6
Continuous
 62
     7
370
    13
100
AcDbCircle
 10
60.918993
 20
-41.002989
 30
0.0
 40
0.0100008
100
AcDbArc
 50
180.0
 51
270.0
  0
ARC
  5
199
330
4D2
100
AcDbEntity
  8
_0
  6
Continuous
 62
     7
370
    13
100
AcDbCircle
 10
60.780646
 20
-41.003372
 30
0.0
 40
0.0100008
100
AcDbArc
 50
180.0
 51
270.0
  0
ARC
  5
19A
330
4D2
100
AcDbEntity
  8
_0
  6
Continuous
 62
     7
370
    13
100
AcDbCircle
 10
60.940659
 20
-41.003372
 30
0.0
 40
0.0100008
100
AcDbArc
 50
270.0
 51
0.0
  0
LINE
  5
19B
330
4D2
100
AcDbEntity
  8
_0
  6
Continuous
 62
     7
370
    13
100
AcDbLine
 10
60.830646
 20
-41.032885
 30
0.0
 11
60.890656
 21
-41.032885
 31
0.0
  0
LINE
  5
19C
330
4D2
100
AcDbEntity
  8
_0
  6
Continuous
 62
     7
370
    13
100
AcDbLine
 10
60.830646
 20
-41.052885
 30
0.0
 11
60.890656
 21
-41.052885
 31
0.0
  0
LINE
  5
19D
330
4D2
100
AcDbEntity
  8
_0
  6
Continuous
 62
     7
370
    13
100
AcDbLine
 10
60.830646
 20
-40.903365
 30
0.0
 11
60.890656
 21
-40.903365
 31
0.0
  0
LINE
  5
19E
330
4D2
100
AcDbEntity
  8
_0
  6
Continuous
 62
     7
370
    13
100
AcDbLine
 10
60.830646
 20
-40.883365
 30
0.0
 11
60.890656
 21
-40.883365
 31
0.0
  0
LINE
  5
19F
330
4D2
100
AcDbEntity
  8
_0
  6
Continuous
 62
     7
370
    13
100
AcDbLine
 10
60.810646
 20
-40.863365
 30
0.0
 11
60.910656
 21
-40.863365
 31
0.0
  0
LINE
  5
1A0
330
4D2
100
AcDbEntity
  8
_0
  6
DGN Style 2
 62
     7
370
    13
100
AcDbLine
 10
60.810646
 20
-41.115885
 30
0.0
 11
60.810646
 21
-41.134302
 31
0.0
  0
LINE
  5
1A1
330
4D2
100
AcDbEntity
  8
_0
  6
DGN Style 2
 62
     7
370
    13
100
AcDbLine
 10
60.910656
 20
-41.115885
 30
0.0
 11
60.910656
 21
-41.134302
 31
0.0
  0
LINE
  5
1A2
330
4D2
100
AcDbEntity
  8
_0
  6
Continuous
 62
     7
370
    13
100
AcDbLine
 10
60.910656
 20
-41.013375
 30
0.0
 11
60.910656
 21
-41.075875
 31
0.0
  0
LINE
  5
1A3
330
4D2
100
AcDbEntity
  8
_0
  6
Continuous
 62
     7
370
    13
100
AcDbLine
 10
60.810646
 20
-41.013375
 30
0.0
 11
60.810646
 21
-41.075875
 31
0.0
  0
LINE
  5
1A4
330
4D2
100
AcDbEntity
  8
_0
  6
Continuous
 62
     7
370
    13
100
AcDbLine
 10
60.810646
 20
-40.863365
 30
0.0
 11
60.810646
 21
-40.913365
 31
0.0
  0
LINE
  5
1A5
330
4D2
100
AcDbEntity
  8
_0
  6
Continuous
 62
     7
370
    13
100
AcDbLine
 10
60.910656
 20
-40.863365
 30
0.0
 11
60.910656
 21
-40.913365
 31
0.0
  0
LINE
  5
1A6
330
4D2
100
AcDbEntity
  8
_0
  6
Continuous
 62
     7
370
    13
100
AcDbLine
 10
60.770646
 20
-40.923365
 30
0.0
 11
60.770646
 21
-41.003375
 31
0.0
  0
LINE
  5
1A7
330
4D2
100
AcDbEntity
  8
_0
  6
Continuous
 62
     7
370
    13
100
AcDbLine
 10
60.812312
 20
-40.923365
 30
0.0
 11
60.812312
 21
-41.013375
 31
0.0
  0
LWPOLYLINE
  5
4F7
330
4D2
100
AcDbEntity
  8
_0
  6
Continuous
 62
     7
370
    13
100
AcDbPolyline
 90
        2
 70
   128
 43
0.0
 10
60.780646
 20
-40.913364
 10
60.780646
 20
-40.913364
  0
ARC
  5
1A9
330
4D2
100
AcDbEntity
  8
_0
  6
Continuous
 62
     7
370
    13
100
AcDbCircle
 10
60.802311
 20
-40.923365
 30
0.0
 40
0.0100008
100
AcDbArc
 50
0.0
 51
90.0
  0
ARC
  5
1AA
330
4D2
100
AcDbEntity
  8
_0
  6
Continuous
 62
     7
370
    13
100
AcDbCircle
 10
60.850652
 20
-40.923365
 30
0.0
 40
0.0100008
100
AcDbArc
 50
0.0
 51
90.0
  0
ARC
  5
1AB
330
4D2
100
AcDbEntity
  8
_0
  6
Continuous
 62
     7
370
    13
100
AcDbCircle
 10
60.822313
 20
-40.923365
 30
0.0
 40
0.0100008
100
AcDbArc
 50
90.0
 51
180.0
  0
ARC
  5
1AC
330
4D2
100
AcDbEntity
  8
_0
  6
Continuous
 62
     7
370
    13
100
AcDbCircle
 10
60.898992
 20
-40.923365
 30
0.0
 40
0.0100008
100
AcDbArc
 50
0.0
 51
90.0
  0
ARC
  5
1AD
330
4D2
100
AcDbEntity
  8
_0
  6
Continuous
 62
     7
370
    13
100
AcDbCircle
 10
60.870653
 20
-40.923365
 30
0.0
 40
0.0100008
100
AcDbArc
 50
90.0
 51
180.0
  0
ARC
  5
1AE
330
4D2
100
AcDbEntity
  8
_0
  6
Continuous
 62
     7
370
    13
100
AcDbCircle
 10
60.918993
 20
-40.923365
 30
0.0
 40
0.0100008
100
AcDbArc
 50
90.0
 51
180.0
  0
ARC
  5
1AF
330
4D2
100
AcDbEntity
  8
_0
  6
Continuous
 62
     7
370
    13
100
AcDbCircle
 10
60.940659
 20
-40.923365
 30
0.0
 40
0.0100008
100
AcDbArc
 50
0.0
 51
90.0
  0
LINE
  5
1B0
330
4D2
100
AcDbEntity
  8
_0
  6
Continuous
 62
     7
370
    13
100
AcDbLine
 10
60.780646
 20
-40.913365
 30
0.0
 11
60.940656
 21
-40.913365
 31
0.0
  0
LINE
  5
1B1
330
4D2
100
AcDbEntity
  8
_0
  6
Continuous
 62
     7
370
    13
100
AcDbLine
 10
60.780646
 20
-41.013375
 30
0.0
 11
60.940656
 21
-41.013375
 31
0.0
  0
LINE
  5
1B2
330
4D2
100
AcDbEntity
  8
_0
  6
Continuous
 62
     7
370
    13
100
AcDbLine
 10
60.770646
 20
-41.175885
 30
0.0
 11
60.770646
 21
-41.265896
 31
0.0
  0
LINE
  5
1B3
330
4D2
100
AcDbEntity
  8
_0
  6
Continuous
 62
     7
370
    13
100
AcDbLine
 10
60.807104
 20
-41.175885
 30
0.0
 11
60.807104
 21
-41.265896
 31
0.0
  0
LINE
  5
1B4
330
4D2
100
AcDbEntity
  8
_0
  6
Continuous
 62
     7
370
    13
100
AcDbLine
 10
60.90899
 20
-41.175885
 30
0.0
 11
60.90899
 21
-41.265896
 31
0.0
  0
LINE
  5
1B5
330
4D2
100
AcDbEntity
  8
_0
  6
Continuous
 62
     7
370
    13
100
AcDbLine
 10
60.950656
 20
-41.175885
 30
0.0
 11
60.950656
 21
-41.265896
 31
0.0
  0
LINE
  5
1B6
330
4D2
100
AcDbEntity
  8
_0
  6
Continuous
 62
     7
370
    13
100
AcDbLine
 10
60.90899
 20
-40.923365
 30
0.0
 11
60.90899
 21
-41.013375
 31
0.0
  0
LINE
  5
1B7
330
4D2
100
AcDbEntity
  8
_0
  6
Continuous
 62
     7
370
    13
100
AcDbLine
 10
60.950656
 20
-40.923365
 30
0.0
 11
60.950656
 21
-41.003375
 31
0.0
  0
LINE
  5
1B8
330
4D2
100
AcDbEntity
  8
_0
  6
Continuous
 62
     7
370
    13
100
AcDbLine
 10
60.770646
 20
-41.265896
 30
0.0
 11
60.950656
 21
-41.265896
 31
0.0
  0
LINE
  5
1B9
330
4D2
100
AcDbEntity
  8
LEGEND
  6
DGN Style 7
 62
     7
370
    13
100
AcDbLine
 10
60.860656
 20
-40.770729
 30
0.0
 11
60.860656
 21
-41.464229
 31
0.0
  0
LINE
  5
1BA
330
4D2
100
AcDbEntity
  8
_0
  6
DGN Style 2
 62
     7
370
    13
100
AcDbLine
 10
60.635635
 20
-41.115885
 30
0.0
 11
60.635635
 21
-41.175885
 31
0.0
  0
LINE
  5
1BB
330
4D2
100
AcDbEntity
  8
_0
  6
DGN Style 2
 62
     7
370
    13
100
AcDbLine
 10
61.085667
 20
-41.115885
 30
0.0
 11
61.085667
 21
-41.175885
 31
0.0
  0
LINE
  5
1BC
330
4D2
100
AcDbEntity
  8
_0
  6
Continuous
 62
     7
370
    13
100
AcDbLine
 10
61.235687
 20
-41.115885
 30
0.0
 11
61.235687
 21
-41.175885
 31
0.0
  0
LINE
  5
1BD
330
4D2
100
AcDbEntity
  8
_0
  6
Continuous
 62
     7
370
    13
100
AcDbLine
 10
61.385698
 20
-41.075875
 30
0.0
 11
61.385698
 21
-41.115885
 31
0.0
  0
LINE
  5
1BE
330
4D2
100
AcDbEntity
  8
_0
  6
Continuous
 62
     7
370
    13
100
AcDbLine
 10
61.223531
 20
-41.075875
 30
0.0
 11
61.223531
 21
-41.115885
 31
0.0
  0
LINE
  5
1BF
330
4D2
100
AcDbEntity
  8
_0
  6
Continuous
 62
     7
370
    13
100
AcDbLine
 10
60.485625
 20
-41.075875
 30
0.0
 11
60.485625
 21
-41.115885
 31
0.0
  0
LINE
  5
1C0
330
4D2
100
AcDbEntity
  8
_0
  6
Continuous
 62
     7
370
    13
100
AcDbLine
 10
60.485625
 20
-41.075875
 30
0.0
 11
61.385698
 21
-41.075875
 31
0.0
  0
LINE
  5
1C1
330
4D2
100
AcDbEntity
  8
_0
  6
Continuous
 62
     7
370
    13
100
AcDbLine
 10
60.423115
 20
-41.115885
 30
0.0
 11
61.385698
 21
-41.115885
 31
0.0
  0
LINE
  5
1C2
330
4D2
100
AcDbEntity
  8
_0
  6
Continuous
 62
     7
370
    13
100
AcDbLine
 10
60.423115
 20
-41.175885
 30
0.0
 11
61.235687
 21
-41.175885
 31
0.0
  0
LINE
  5
1C3
330
4D2
100
AcDbEntity
  8
LEGEND
  6
DGN Style 7
 62
     7
370
    13
100
AcDbLine
 10
60.223104
 20
-41.145885
 30
0.0
 11
60.573125
 21
-41.145885
 31
0.0
  0
LINE
  5
1C4
330
4D2
100
AcDbEntity
  8
_0
  6
Continuous
 62
     7
370
    13
100
AcDbLine
 10
60.373115
 20
-40.864615
 30
0.0
 11
60.423115
 21
-40.864615
 31
0.0
  0
LINE
  5
1C5
330
4D2
100
AcDbEntity
  8
_0
  6
Continuous
 62
     7
370
    13
100
AcDbLine
 10
60.423115
 20
-40.864615
 30
0.0
 11
60.423115
 21
-41.427156
 31
0.0
  0
LINE
  5
1C6
330
4D2
100
AcDbEntity
  8
_0
  6
Continuous
 62
     7
370
    13
100
AcDbLine
 10
60.373115
 20
-40.864615
 30
0.0
 11
60.373115
 21
-41.427156
 31
0.0
  0
LINE
  5
1C7
330
4D2
100
AcDbEntity
  8
_0
  6
Continuous
 62
     7
370
    13
100
AcDbLine
 10
60.373115
 20
-41.427156
 30
0.0
 11
60.423115
 21
-41.427156
 31
0.0
  0
LINE
  5
1C9
330
4D2
100
AcDbEntity
  8
LEGEND
  6
Continuous
 62
     7
370
    13
100
AcDbLine
 10
64.615594
 20
-43.756896
 30
0.0
 11
64.75176
 21
-43.676906
 31
0.0
  0
LINE
  5
1CA
330
4D2
100
AcDbEntity
  8
LEGEND
  6
Continuous
 62
     7
370
    13
100
AcDbLine
 10
64.615594
 20
-43.68175
 30
0.0
 11
64.615594
 21
-43.756896
 31
0.0
  0
HATCH
  5
1CB
330
4D2
100
AcDbEntity
  8
LEGEND
  6
Continuous
 62
     7
370
    13
100
AcDbHatch
 10
0.0
 20
0.0
 30
0.0
210
0.0
220
0.0
230
1.0
  2
SOLID
 70
     1
 71
     0
 91
        1
 92
        1
 93
        1
 72
     2
 10
64.42237212406641
 20
-43.67690242565848
 40
0.0235018799999993
 50
0.0
 51
360.0
 73
     1
 97
        0
 75
     0
 76
     1
 98
        0
  0
LINE
  5
1CD
330
4D2
100
AcDbEntity
  8
LEGEND
  6
Continuous
 62
     7
370
    13
100
AcDbLine
 10
64.055719
 20
-43.108875
 30
0.0
 11
64.422375
 21
-43.676906
 31
0.0
  0
SOLID
  5
1CE
330
4D2
100
AcDbEntity
  8
LEGEND
  6
Continuous
 62
     7
370
    13
100
AcDbTrace
 10
-64.048719
 20
-43.113385
 30
0.0
 11
-64.062719
 21
-43.104344
 31
0.0
 12
-64.028604
 22
-43.066854
 32
0.0
 13
-64.028604
 23
-43.066854
 33
0.0
210
0.0
220
0.0
230
-1.0
  0
LINE
  5
1CF
330
4D2
100
AcDbEntity
  8
LEGEND
  6
Continuous
 62
     7
370
    13
100
AcDbLine
 10
63.516823
 20
-43.676906
 30
0.0
 11
64.839042
 21
-43.676906
 31
0.0
  0
LINE
  5
1D0
330
4D2
100
AcDbEntity
  8
LEGEND
  6
Continuous
 62
     7
370
    13
100
AcDbLine
 10
63.681729
 20
-43.113062
 30
0.0
 11
63.516823
 21
-43.676906
 31
0.0
  0
SOLID
  5
1D1
330
4D2
100
AcDbEntity
  8
LEGEND
  6
Continuous
 62
     7
370
    13
100
AcDbTrace
 10
63.673729
 20
-43.110719
 30
0.0
 11
63.689729
 21
-43.115396
 31
0.0
 12
63.695771
 22
-43.065073
 32
0.0
 13
63.695771
 23
-43.065073
 33
0.0
  0
LINE
  5
1D2
330
4D2
100
AcDbEntity
  8
LEGEND
  6
Continuous
 62
     7
370
    13
100
AcDbLine
 10
63.761104
 20
-43.064792
 30
0.0
 11
63.589625
 21
-43.064792
 31
0.0
  0
SOLID
  5
1D4
330
4D2
100
AcDbEntity
  8
LEGEND
  6
Continuous
 62
     7
370
    13
100
AcDbTrace
 10
64.065927
 20
-43.208552
 30
0.0
 11
64.04925
 21
-43.208552
 31
0.0
 12
64.057583
 22
-43.158542
 32
0.0
 13
64.057583
 23
-43.158542
 33
0.0
  0
SOLID
  5
1D5
330
4D2
100
AcDbEntity
  8
LEGEND
  6
Continuous
 62
     7
370
    13
100
AcDbTrace
 10
64.065927
 20
-43.014781
 30
0.0
 11
64.04925
 21
-43.014781
 31
0.0
 12
64.057583
 22
-43.064792
 32
0.0
 13
64.057583
 23
-43.064792
 33
0.0
  0
LINE
  5
1D6
330
4D2
100
AcDbEntity
  8
LEGEND
  6
Continuous
 62
     7
370
    13
100
AcDbLine
 10
64.057583
 20
-43.208552
 30
0.0
 11
64.057583
 21
-43.258552
 31
0.0
  0
LINE
  5
1D7
330
4D2
100
AcDbEntity
  8
LEGEND
  6
Continuous
 62
     7
370
    13
100
AcDbLine
 10
64.057583
 20
-43.014781
 30
0.0
 11
64.057583
 21
-42.964781
 31
0.0
  0
LINE
  5
1D8
330
4D2
100
AcDbEntity
  8
LEGEND
  6
Continuous
 62
     7
370
    13
100
AcDbLine
 10
63.936115
 20
-43.064792
 30
0.0
 11
64.107594
 21
-43.064792
 31
0.0
  0
LINE
  5
1D9
330
4D2
100
AcDbEntity
  8
LEGEND
  6
Continuous
 62
     7
370
    13
100
AcDbLine
 10
63.966875
 20
-43.158542
 30
0.0
 11
64.107594
 21
-43.158542
 31
0.0
  0
LINE
  5
1DA
330
4D2
100
AcDbEntity
  8
_0
  6
Continuous
 62
     7
370
    13
100
AcDbLine
 10
63.898615
 20
-43.014552
 30
0.0
 11
64.04076
 21
-43.014552
 31
0.0
  0
LINE
  5
1DD
330
4D2
100
AcDbEntity
  8
LEGEND
  6
Continuous
 62
     7
370
    13
100
AcDbLine
 10
63.801396
 20
-43.532594
 30
0.0
 11
63.838625
 21
-43.532594
 31
0.0
  0
LINE
  5
1DE
330
4D2
100
AcDbEntity
  8
LEGEND
  6
Continuous
 62
     7
370
    13
100
AcDbLine
 10
63.825396
 20
-43.424281
 30
0.0
 11
63.801396
 21
-43.532594
 31
0.0
  0
SOLID
  5
1DF
330
4D2
100
AcDbEntity
  8
LEGEND
  6
Continuous
 62
     7
370
    13
100
AcDbTrace
 10
63.706375
 20
-43.430198
 30
0.0
 11
63.706375
 21
-43.413521
 31
0.0
 12
63.756375
 22
-43.421854
 32
0.0
 13
63.756375
 23
-43.421854
 33
0.0
  0
LINE
  5
1E0
330
4D2
100
AcDbEntity
  8
LEGEND
  6
Continuous
 62
     7
370
    13
100
AcDbLine
 10
63.940844
 20
-43.421854
 30
0.0
 11
63.656365
 21
-43.421854
 31
0.0
  0
LINE
  5
1E1
330
4D2
100
AcDbEntity
  8
LEGEND
  6
Continuous
 62
     7
370
    13
100
AcDbLine
 10
63.990844
 20
-43.421854
 30
0.0
 11
64.040854
 21
-43.421854
 31
0.0
  0
SOLID
  5
1E2
330
4D2
100
AcDbEntity
  8
LEGEND
  6
Continuous
 62
     7
370
    13
100
AcDbTrace
 10
63.990844
 20
-43.430198
 30
0.0
 11
63.990844
 21
-43.413521
 31
0.0
 12
63.940844
 22
-43.421854
 32
0.0
 13
63.940844
 23
-43.421854
 33
0.0
  0
LINE
  5
1E3
330
4D2
100
AcDbEntity
  8
_0
  6
Continuous
 62
     7
370
    13
100
AcDbLine
 10
64.007427
 20
-43.360573
 30
0.0
 11
63.80501
 21
-43.360573
 31
0.0
  0
LINE
  5
1E4
330
4D2
100
AcDbEntity
  8
_0
  6
Continuous
 62
     7
370
    13
100
AcDbLine
 10
63.900323
 20
-43.30026
 30
0.0
 11
63.900323
 21
-43.360573
 31
0.0
  0
LINE
  5
1E5
330
4D2
100
AcDbEntity
  8
_0
  6
Continuous
 62
     7
370
    13
100
AcDbLine
 10
63.80501
 20
-43.30026
 30
0.0
 11
63.80501
 21
-43.360573
 31
0.0
  0
SOLID
  5
1E7
330
4D2
100
AcDbEntity
  8
LEGEND
  6
Continuous
 62
     7
370
    13
100
AcDbTrace
 10
63.706375
 20
-43.308594
 30
0.0
 11
63.706375
 21
-43.291927
 31
0.0
 12
63.756375
 22
-43.30026
 32
0.0
 13
63.756375
 23
-43.30026
 33
0.0
  0
SOLID
  5
1E8
330
4D2
100
AcDbEntity
  8
LEGEND
  6
Continuous
 62
     7
370
    13
100
AcDbTrace
 10
63.990844
 20
-43.308594
 30
0.0
 11
63.990844
 21
-43.291927
 31
0.0
 12
63.940844
 22
-43.30026
 32
0.0
 13
63.940844
 23
-43.30026
 33
0.0
  0
LINE
  5
1E9
330
4D2
100
AcDbEntity
  8
LEGEND
  6
Continuous
 62
     7
370
    13
100
AcDbLine
 10
63.940844
 20
-43.30026
 30
0.0
 11
63.656365
 21
-43.30026
 31
0.0
  0
LINE
  5
1EA
330
4D2
100
AcDbEntity
  8
LEGEND
  6
Continuous
 62
     7
370
    13
100
AcDbLine
 10
63.990844
 20
-43.30026
 30
0.0
 11
64.040854
 21
-43.30026
 31
0.0
  0
LINE
  5
1EB
330
4D2
100
AcDbEntity
  8
_0
  6
Continuous
 62
     7
370
    13
100
AcDbLine
 10
63.940844
 20
-43.196885
 30
0.0
 11
63.940844
 21
-43.445594
 31
0.0
  0
LINE
  5
1EC
330
4D2
100
AcDbEntity
  8
_0
  6
Continuous
 62
     7
370
    13
100
AcDbLine
 10
63.756375
 20
-43.196885
 30
0.0
 11
63.756375
 21
-43.445594
 31
0.0
  0
ARC
  5
1ED
330
4D2
100
AcDbEntity
  8
_0
  6
Continuous
 62
     7
370
    13
100
AcDbCircle
 10
63.762618
 20
-43.151043
 30
0.0
 40
0.0075006
100
AcDbArc
 50
146.309933
 51
270.0
  0
ARC
  5
1EE
330
4D2
100
AcDbEntity
  8
_0
  6
Continuous
 62
     7
370
    13
100
AcDbCircle
 10
63.934604
 20
-43.151043
 30
0.0
 40
0.0075006
100
AcDbArc
 50
270.0
 51
33.690067
  0
ARC
  5
1EF
330
4D2
100
AcDbEntity
  8
_0
  6
Continuous
 62
     7
370
    13
100
AcDbCircle
 10
63.848611
 20
-43.022054
 30
0.0
 40
0.0075006
100
AcDbArc
 50
33.690067
 51
146.309931
  0
LINE
  5
1F0
330
4D2
100
AcDbEntity
  8
_0
  6
Continuous
 62
     7
370
    13
100
AcDbLine
 10
63.758458
 20
-43.125719
 30
0.0
 11
63.764479
 21
-43.13474
 31
0.0
  0
LINE
  5
1F1
330
4D2
100
AcDbEntity
  8
_0
  6
Continuous
 62
     7
370
    13
100
AcDbLine
 10
63.77049
 20
-43.107698
 30
0.0
 11
63.77649
 21
-43.116708
 31
0.0
  0
LINE
  5
1F2
330
4D2
100
AcDbEntity
  8
_0
  6
Continuous
 62
     7
370
    13
100
AcDbLine
 10
63.78251
 20
-43.089667
 30
0.0
 11
63.78851
 21
-43.098677
 31
0.0
  0
LINE
  5
1F3
330
4D2
100
AcDbEntity
  8
_0
  6
Continuous
 62
     7
370
    13
100
AcDbLine
 10
63.794521
 20
-43.071635
 30
0.0
 11
63.800531
 21
-43.080646
 31
0.0
  0
LINE
  5
1F4
330
4D2
100
AcDbEntity
  8
TITLE
  6
Continuous
 62
     7
370
    13
100
AcDbLine
 10
63.806542
 20
-43.053604
 30
0.0
 11
63.812552
 21
-43.062625
 31
0.0
  0
LINE
  5
1F5
330
4D2
100
AcDbEntity
  8
_0
  6
Continuous
 62
     7
370
    13
100
AcDbLine
 10
63.818562
 20
-43.035573
 30
0.0
 11
63.824573
 21
-43.044594
 31
0.0
  0
LINE
  5
1F6
330
4D2
100
AcDbEntity
  8
_0
  6
Continuous
 62
     7
370
    13
100
AcDbLine
 10
63.830583
 20
-43.017552
 30
0.0
 11
63.836594
 21
-43.026562
 31
0.0
  0
LINE
  5
1F7
330
4D2
100
AcDbEntity
  8
_0
  6
Continuous
 62
     7
370
    13
100
AcDbLine
 10
63.772646
 20
-43.158542
 30
0.0
 11
63.765979
 21
-43.168542
 31
0.0
  0
LINE
  5
1F8
330
4D2
100
AcDbEntity
  8
_0
  6
Continuous
 62
     7
370
    13
100
AcDbLine
 10
63.796677
 20
-43.158542
 30
0.0
 11
63.79001
 21
-43.168542
 31
0.0
  0
LINE
  5
1F9
330
4D2
100
AcDbEntity
  8
_0
  6
Continuous
 62
     7
370
    13
100
AcDbLine
 10
63.820719
 20
-43.158542
 30
0.0
 11
63.814052
 21
-43.168542
 31
0.0
  0
LINE
  5
1FA
330
4D2
100
AcDbEntity
  8
_0
  6
Continuous
 62
     7
370
    13
100
AcDbLine
 10
63.84476
 20
-43.158542
 30
0.0
 11
63.838094
 21
-43.168542
 31
0.0
  0
LINE
  5
1FB
330
4D2
100
AcDbEntity
  8
_0
  6
Continuous
 62
     7
370
    13
100
AcDbLine
 10
63.868802
 20
-43.158542
 30
0.0
 11
63.862125
 21
-43.168542
 31
0.0
  0
LINE
  5
1FC
330
4D2
100
AcDbEntity
  8
_0
  6
Continuous
 62
     7
370
    13
100
AcDbLine
 10
63.892833
 20
-43.158542
 30
0.0
 11
63.886167
 21
-43.168542
 31
0.0
  0
LINE
  5
1FD
330
4D2
100
AcDbEntity
  8
_0
  6
Continuous
 62
     7
370
    13
100
AcDbLine
 10
63.916875
 20
-43.158542
 30
0.0
 11
63.910208
 21
-43.168542
 31
0.0
  0
LINE
  5
1FE
330
4D2
100
AcDbEntity
  8
_0
  6
Continuous
 62
     7
370
    13
100
AcDbLine
 10
63.93875
 20
-43.125719
 30
0.0
 11
63.93275
 21
-43.13474
 31
0.0
  0
LINE
  5
1FF
330
4D2
100
AcDbEntity
  8
_0
  6
Continuous
 62
     7
370
    13
100
AcDbLine
 10
63.92674
 20
-43.107698
 30
0.0
 11
63.920729
 21
-43.116708
 31
0.0
  0
LINE
  5
200
330
4D2
100
AcDbEntity
  8
_0
  6
Continuous
 62
     7
370
    13
100
AcDbLine
 10
63.914719
 20
-43.089667
 30
0.0
 11
63.908708
 21
-43.098677
 31
0.0
  0
LINE
  5
201
330
4D2
100
AcDbEntity
  8
_0
  6
Continuous
 62
     7
370
    13
100
AcDbLine
 10
63.902698
 20
-43.071635
 30
0.0
 11
63.896687
 21
-43.080646
 31
0.0
  0
LINE
  5
202
330
4D2
100
AcDbEntity
  8
_0
  6
Continuous
 62
     7
370
    13
100
AcDbLine
 10
63.890677
 20
-43.053604
 30
0.0
 11
63.884667
 21
-43.062625
 31
0.0
  0
LINE
  5
203
330
4D2
100
AcDbEntity
  8
_0
  6
Continuous
 62
     7
370
    13
100
AcDbLine
 10
63.878656
 20
-43.035573
 30
0.0
 11
63.872656
 21
-43.044594
 31
0.0
  0
LINE
  5
204
330
4D2
100
AcDbEntity
  8
_0
  6
Continuous
 62
     7
370
    13
100
AcDbLine
 10
63.866635
 20
-43.017552
 30
0.0
 11
63.860635
 21
-43.026562
 31
0.0
  0
LINE
  5
205
330
4D2
100
AcDbEntity
  8
_0
  6
Continuous
 62
     7
370
    13
100
AcDbLine
 10
63.854854
 20
-43.017896
 30
0.0
 11
63.940844
 21
-43.146885
 31
0.0
  0
LINE
  5
206
330
4D2
100
AcDbEntity
  8
_0
  6
Continuous
 62
     7
370
    13
100
AcDbLine
 10
63.842375
 20
-43.017896
 30
0.0
 11
63.756375
 21
-43.146885
 31
0.0
  0
LINE
  5
207
330
4D2
100
AcDbEntity
  8
_0
  6
Continuous
 62
     7
370
    13
100
AcDbLine
 10
63.762615
 20
-43.158542
 30
0.0
 11
63.934604
 21
-43.158542
 31
0.0
  0
CIRCLE
  5
208
330
4D2
100
AcDbEntity
  8
_0
  6
Continuous
 62
     7
370
    13
100
AcDbCircle
 10
63.848611
 20
-42.564746
 30
0.0
 40
0.062505
  0
LINE
  5
209
330
4D2
100
AcDbEntity
  8
_0
  6
DGN Style 7
 62
     7
370
    13
100
AcDbLine
 10
63.848604
 20
-43.324958
 30
0.0
 11
63.848604
 21
-42.207187
 31
0.0
  0
LINE
  5
20A
330
4D2
100
AcDbEntity
  8
_0
  6
DGN Style 7
 62
     7
370
    13
100
AcDbLine
 10
63.623594
 20
-42.56475
 30
0.0
 11
64.073625
 21
-42.56475
 31
0.0
  0
LINE
  5
20B
330
4D2
100
AcDbEntity
  8
_0
  6
Continuous
 62
     7
370
    13
100
AcDbLine
 10
64.223635
 20
-43.189792
 30
0.0
 11
64.223635
 21
-42.41474
 31
0.0
  0
LINE
  5
20C
330
4D2
100
AcDbEntity
  8
_0
  6
Continuous
 62
     7
370
    13
100
AcDbLine
 10
63.473583
 20
-43.189792
 30
0.0
 11
64.223635
 21
-43.189792
 31
0.0
  0
LINE
  5
20D
330
4D2
100
AcDbEntity
  8
_0
  6
Continuous
 62
     7
370
    13
100
AcDbLine
 10
63.473583
 20
-42.41474
 30
0.0
 11
64.223635
 21
-42.41474
 31
0.0
  0
LINE
  5
20E
330
4D2
100
AcDbEntity
  8
_0
  6
Continuous
 62
     7
370
    13
100
AcDbLine
 10
63.473583
 20
-43.189792
 30
0.0
 11
63.473583
 21
-42.41474
 31
0.0
  0
LINE
  5
20F
330
4D2
100
AcDbEntity
  8
_0
  6
DGN Style 2
 62
     7
370
    13
100
AcDbLine
 10
62.215083
 20
-42.42724
 30
0.0
 11
62.215083
 21
-42.646
 31
0.0
  0
LINE
  5
210
330
4D2
100
AcDbEntity
  8
_0
  6
DGN Style 2
 62
     7
370
    13
100
AcDbLine
 10
62.215083
 20
-42.42724
 30
0.0
 11
62.275094
 21
-42.42724
 31
0.0
  0
LINE
  5
211
330
4D2
100
AcDbEntity
  8
_0
  6
DGN Style 2
 62
     7
370
    13
100
AcDbLine
 10
62.275094
 20
-42.42724
 30
0.0
 11
62.275094
 21
-42.646
 31
0.0
  0
LINE
  5
212
330
4D2
100
AcDbEntity
  8
_0
  6
DGN Style 2
 62
     7
370
    13
100
AcDbLine
 10
62.215083
 20
-42.646
 30
0.0
 11
62.275094
 21
-42.646
 31
0.0
  0
LINE
  5
213
330
4D2
100
AcDbEntity
  8
_0
  6
DGN Style 2
 62
     7
370
    13
100
AcDbLine
 10
62.275094
 20
-43.177292
 30
0.0
 11
62.275094
 21
-42.958531
 31
0.0
  0
LINE
  5
214
330
4D2
100
AcDbEntity
  8
_0
  6
DGN Style 2
 62
     7
370
    13
100
AcDbLine
 10
62.215083
 20
-43.177292
 30
0.0
 11
62.215083
 21
-42.958531
 31
0.0
  0
LINE
  5
215
330
4D2
100
AcDbEntity
  8
_0
  6
DGN Style 2
 62
     7
370
    13
100
AcDbLine
 10
62.215083
 20
-43.177292
 30
0.0
 11
62.275094
 21
-43.177292
 31
0.0
  0
LINE
  5
216
330
4D2
100
AcDbEntity
  8
_0
  6
DGN Style 2
 62
     7
370
    13
100
AcDbLine
 10
62.215083
 20
-42.958531
 30
0.0
 11
62.275094
 21
-42.958531
 31
0.0
  0
LINE
  5
21A
330
4D2
100
AcDbEntity
  8
TITLE
  6
Continuous
 62
     7
370
    13
100
AcDbLine
 10
62.562771
 20
-43.005094
 30
0.0
 11
62.612771
 21
-43.005094
 31
0.0
  0
LINE
  5
21B
330
4D2
100
AcDbEntity
  8
TITLE
  6
Continuous
 62
     7
370
    13
100
AcDbLine
 10
62.329958
 20
-42.888687
 30
0.0
 11
62.562771
 21
-43.005094
 31
0.0
  0
SOLID
  5
21C
330
4D2
100
AcDbEntity
  8
TITLE
  6
Continuous
 62
     7
370
    13
100
AcDbTrace
 10
-62.32624
 20
-42.896135
 30
0.0
 11
-62.333687
 21
-42.881229
 31
0.0
 12
-62.28524
 22
-42.866323
 32
0.0
 13
-62.28524
 23
-42.866323
 33
0.0
210
0.0
220
0.0
230
-1.0
  0
CIRCLE
  5
21D
330
4D2
100
AcDbEntity
  8
_0
  6
Continuous
 62
     7
370
    13
100
AcDbCircle
 10
62.245093
 20
-42.802265
 30
0.0
 40
0.062505
  0
SOLID
  5
21F
330
4D2
100
AcDbEntity
  8
LEGEND
  6
Continuous
 62
     7
370
    13
100
AcDbTrace
 10
62.476354
 20
-44.079552
 30
0.0
 11
62.476354
 21
-44.062885
 31
0.0
 12
62.526365
 22
-44.071219
 32
0.0
 13
62.526365
 23
-44.071219
 33
0.0
  0
SOLID
  5
220
330
4D2
100
AcDbEntity
  8
LEGEND
  6
Continuous
 62
     7
370
    13
100
AcDbTrace
 10
62.013823
 20
-44.079552
 30
0.0
 11
62.013823
 21
-44.062885
 31
0.0
 12
61.963823
 22
-44.071219
 32
0.0
 13
61.963823
 23
-44.071219
 33
0.0
  0
LINE
  5
221
330
4D2
100
AcDbEntity
  8
LEGEND
  6
Continuous
 62
     7
370
    13
100
AcDbLine
 10
62.013823
 20
-44.071219
 30
0.0
 11
62.476354
 21
-44.071219
 31
0.0
  0
LINE
  5
222
330
4D2
100
AcDbEntity
  8
LEGEND
  6
Continuous
 62
     7
370
    13
100
AcDbLine
 10
62.526365
 20
-43.827344
 30
0.0
 11
62.526365
 21
-44.121219
 31
0.0
  0
LINE
  5
223
330
4D2
100
AcDbEntity
  8
LEGEND
  6
Continuous
 62
     7
370
    13
100
AcDbLine
 10
61.963823
 20
-43.827344
 30
0.0
 11
61.963823
 21
-44.121219
 31
0.0
  0
SOLID
  5
225
330
4D2
100
AcDbEntity
  8
LEGEND
  6
Continuous
 62
     7
370
    13
100
AcDbTrace
 10
62.476354
 20
-43.944167
 30
0.0
 11
62.476354
 21
-43.9275
 31
0.0
 12
62.526365
 22
-43.935833
 32
0.0
 13
62.526365
 23
-43.935833
 33
0.0
  0
SOLID
  5
226
330
4D2
100
AcDbEntity
  8
LEGEND
  6
Continuous
 62
     7
370
    13
100
AcDbTrace
 10
62.295094
 20
-43.944167
 30
0.0
 11
62.295094
 21
-43.9275
 31
0.0
 12
62.245094
 22
-43.935833
 32
0.0
 13
62.245094
 23
-43.935833
 33
0.0
  0
LINE
  5
227
330
4D2
100
AcDbEntity
  8
LEGEND
  6
Continuous
 62
     7
370
    13
100
AcDbLine
 10
62.295094
 20
-43.935833
 30
0.0
 11
62.476354
 21
-43.935833
 31
0.0
  0
SOLID
  5
229
330
4D2
100
AcDbEntity
  8
LEGEND
  6
Continuous
 62
     7
370
    13
100
AcDbTrace
 10
62.195083
 20
-43.944167
 30
0.0
 11
62.195083
 21
-43.9275
 31
0.0
 12
62.245094
 22
-43.935833
 32
0.0
 13
62.245094
 23
-43.935833
 33
0.0
  0
SOLID
  5
22A
330
4D2
100
AcDbEntity
  8
LEGEND
  6
Continuous
 62
     7
370
    13
100
AcDbTrace
 10
62.013823
 20
-43.944167
 30
0.0
 11
62.013823
 21
-43.9275
 31
0.0
 12
61.963823
 22
-43.935833
 32
0.0
 13
61.963823
 23
-43.935833
 33
0.0
  0
LINE
  5
22B
330
4D2
100
AcDbEntity
  8
LEGEND
  6
Continuous
 62
     7
370
    13
100
AcDbLine
 10
62.013823
 20
-43.935833
 30
0.0
 11
62.195083
 21
-43.935833
 31
0.0
  0
LINE
  5
22C
330
4D2
100
AcDbEntity
  8
_0
  6
DGN Style 7
 62
     7
370
    13
100
AcDbLine
 10
62.245094
 20
-43.972344
 30
0.0
 11
62.245094
 21
-42.436406
 31
0.0
  0
LINE
  5
22D
330
4D2
100
AcDbEntity
  8
_0
  6
Continuous
 62
     7
370
    13
100
AcDbLine
 10
62.526365
 20
-43.777344
 30
0.0
 11
62.526365
 21
-41.827188
 31
0.0
  0
LINE
  5
22E
330
4D2
100
AcDbEntity
  8
_0
  6
Continuous
 62
     7
370
    13
100
AcDbLine
 10
61.963823
 20
-41.827188
 30
0.0
 11
62.526365
 21
-41.827188
 31
0.0
  0
LINE
  5
22F
330
4D2
100
AcDbEntity
  8
_0
  6
DGN Style 7
 62
     7
370
    13
100
AcDbLine
 10
62.02474
 20
-42.80226
 30
0.0
 11
62.460719
 21
-42.80226
 31
0.0
  0
LINE
  5
230
330
4D2
100
AcDbEntity
  8
_0
  6
Continuous
 62
     7
370
    13
100
AcDbLine
 10
61.963823
 20
-43.777344
 30
0.0
 11
61.963823
 21
-41.827188
 31
0.0
  0
LINE
  5
231
330
4D2
100
AcDbEntity
  8
_0
  6
Continuous
 62
     7
370
    13
100
AcDbLine
 10
61.963823
 20
-43.777344
 30
0.0
 11
62.526365
 21
-43.777344
 31
0.0
  0
LINE
  5
234
330
4D2
100
AcDbEntity
  8
TITLE
  6
Continuous
 62
     7
370
    13
100
AcDbLine
 10
61.221615
 20
-44.015656
 30
0.0
 11
61.150542
 21
-44.015656
 31
0.0
  0
LINE
  5
235
330
4D2
100
AcDbEntity
  8
TITLE
  6
Continuous
 62
     7
370
    13
100
AcDbLine
 10
61.071479
 20
-43.652333
 30
0.0
 11
61.221615
 21
-44.015656
 31
0.0
  0
SOLID
  5
236
330
4D2
100
AcDbEntity
  8
TITLE
  6
Continuous
 62
     7
370
    13
100
AcDbTrace
 10
-61.063781
 20
-43.655521
 30
0.0
 11
-61.079187
 21
-43.649156
 31
0.0
 12
-61.052385
 22
-43.606125
 32
0.0
 13
-61.052385
 23
-43.606125
 33
0.0
210
0.0
220
0.0
230
-1.0
  0
LINE
  5
238
330
4D2
100
AcDbEntity
  8
TITLE
  6
Continuous
 62
     7
370
    13
100
AcDbLine
 10
60.635562
 20
-43.912406
 30
0.0
 11
60.585552
 21
-43.912406
 31
0.0
  0
LINE
  5
239
330
4D2
100
AcDbEntity
  8
TITLE
  6
Continuous
 62
     7
370
    13
100
AcDbLine
 10
60.847865
 20
-43.356667
 30
0.0
 11
60.635562
 21
-43.912406
 31
0.0
  0
SOLID
  5
23A
330
4D2
100
AcDbEntity
  8
TITLE
  6
Continuous
 62
     7
370
    13
100
AcDbTrace
 10
60.840083
 20
-43.353698
 30
0.0
 11
60.855646
 21
-43.359646
 31
0.0
 12
60.865708
 22
-43.309958
 32
0.0
 13
60.865708
 23
-43.309958
 33
0.0
  0
SOLID
  5
23C
330
4D2
100
AcDbEntity
  8
LEGEND
  6
Continuous
 62
     7
370
    13
100
AcDbTrace
 10
59.855312
 20
-43.727344
 30
0.0
 11
59.838646
 21
-43.727344
 31
0.0
 12
59.846979
 22
-43.777344
 32
0.0
 13
59.846979
 23
-43.777344
 33
0.0
  0
SOLID
  5
23D
330
4D2
100
AcDbEntity
  8
LEGEND
  6
Continuous
 62
     7
370
    13
100
AcDbTrace
 10
59.855312
 20
-41.877187
 30
0.0
 11
59.838646
 21
-41.877187
 31
0.0
 12
59.846979
 22
-41.827188
 32
0.0
 13
59.846979
 23
-41.827188
 33
0.0
  0
LINE
  5
23E
330
4D2
100
AcDbEntity
  8
LEGEND
  6
Continuous
 62
     7
370
    13
100
AcDbLine
 10
59.846979
 20
-41.877187
 30
0.0
 11
59.846979
 21
-43.727344
 31
0.0
  0
LINE
  5
23F
330
4D2
100
AcDbEntity
  8
LEGEND
  6
Continuous
 62
     7
370
    13
100
AcDbLine
 10
60.323115
 20
-43.777344
 30
0.0
 11
59.796969
 21
-43.777344
 31
0.0
  0
LINE
  5
240
330
4D2
100
AcDbEntity
  8
LEGEND
  6
Continuous
 62
     7
370
    13
100
AcDbLine
 10
60.323115
 20
-41.827188
 30
0.0
 11
59.796969
 21
-41.827188
 31
0.0
  0
SOLID
  5
242
330
4D2
100
AcDbEntity
  8
LEGEND
  6
Continuous
 62
     7
370
    13
100
AcDbTrace
 10
60.011875
 20
-43.727344
 30
0.0
 11
59.995208
 21
-43.727344
 31
0.0
 12
60.003542
 22
-43.777344
 32
0.0
 13
60.003542
 23
-43.777344
 33
0.0
  0
SOLID
  5
243
330
4D2
100
AcDbEntity
  8
LEGEND
  6
Continuous
 62
     7
370
    13
100
AcDbTrace
 10
60.011875
 20
-42.852271
 30
0.0
 11
59.995208
 21
-42.852271
 31
0.0
 12
60.003542
 22
-42.80226
 32
0.0
 13
60.003542
 23
-42.80226
 33
0.0
  0
LINE
  5
244
330
4D2
100
AcDbEntity
  8
LEGEND
  6
Continuous
 62
     7
370
    13
100
AcDbLine
 10
60.003542
 20
-42.852271
 30
0.0
 11
60.003542
 21
-43.727344
 31
0.0
  0
SOLID
  5
246
330
4D2
100
AcDbEntity
  8
LEGEND
  6
Continuous
 62
     7
370
    13
100
AcDbTrace
 10
60.011875
 20
-42.75226
 30
0.0
 11
59.995208
 21
-42.75226
 31
0.0
 12
60.003542
 22
-42.80226
 32
0.0
 13
60.003542
 23
-42.80226
 33
0.0
  0
SOLID
  5
247
330
4D2
100
AcDbEntity
  8
LEGEND
  6
Continuous
 62
     7
370
    13
100
AcDbTrace
 10
60.011875
 20
-41.877187
 30
0.0
 11
59.995208
 21
-41.877187
 31
0.0
 12
60.003542
 22
-41.827188
 32
0.0
 13
60.003542
 23
-41.827188
 33
0.0
  0
LINE
  5
248
330
4D2
100
AcDbEntity
  8
LEGEND
  6
Continuous
 62
     7
370
    13
100
AcDbLine
 10
60.003542
 20
-41.877187
 30
0.0
 11
60.003542
 21
-42.75226
 31
0.0
  0
LINE
  5
249
330
4D2
100
AcDbEntity
  8
LEGEND
  6
Continuous
 62
     7
370
    13
100
AcDbLine
 10
60.137906
 20
-42.519594
 30
0.0
 11
60.137906
 21
-42.465021
 31
0.0
  0
LINE
  5
24A
330
4D2
100
AcDbEntity
  8
LEGEND
  6
Continuous
 62
     7
370
    13
100
AcDbLine
 10
60.236135
 20
-42.550156
 30
0.0
 11
60.137906
 21
-42.519594
 31
0.0
  0
LINE
  5
24B
330
4D2
100
AcDbEntity
  8
LEGEND
  6
Continuous
 62
     7
370
    13
100
AcDbLine
 10
60.137906
 20
-43.084937
 30
0.0
 11
60.137906
 21
-43.13951
 31
0.0
  0
LINE
  5
24C
330
4D2
100
AcDbEntity
  8
LEGEND
  6
Continuous
 62
     7
370
    13
100
AcDbLine
 10
60.236135
 20
-43.054375
 30
0.0
 11
60.137906
 21
-43.084937
 31
0.0
  0
SOLID
  5
24F
330
4D2
100
AcDbEntity
  8
LEGEND
  6
Continuous
 62
     7
370
    13
100
AcDbTrace
 10
60.242802
 20
-43.137292
 30
0.0
 11
60.229469
 21
-43.137292
 31
0.0
 12
60.236135
 22
-43.177292
 32
0.0
 13
60.236135
 23
-43.177292
 33
0.0
  0
SOLID
  5
250
330
4D2
100
AcDbEntity
  8
LEGEND
  6
Continuous
 62
     7
370
    13
100
AcDbTrace
 10
60.242802
 20
-42.998531
 30
0.0
 11
60.229469
 21
-42.998531
 31
0.0
 12
60.236135
 22
-42.958531
 32
0.0
 13
60.236135
 23
-42.958531
 33
0.0
  0
LINE
  5
251
330
4D2
100
AcDbEntity
  8
LEGEND
  6
Continuous
 62
     7
370
    13
100
AcDbLine
 10
60.236135
 20
-42.998531
 30
0.0
 11
60.236135
 21
-43.137292
 31
0.0
  0
LINE
  5
252
330
4D2
100
AcDbEntity
  8
LEGEND
  6
Continuous
 62
     7
370
    13
100
AcDbLine
 10
60.323115
 20
-43.177292
 30
0.0
 11
60.186125
 21
-43.177292
 31
0.0
  0
LINE
  5
253
330
4D2
100
AcDbEntity
  8
LEGEND
  6
Continuous
 62
     7
370
    13
100
AcDbLine
 10
60.323115
 20
-42.958531
 30
0.0
 11
60.186125
 21
-42.958531
 31
0.0
  0
SOLID
  5
255
330
4D2
100
AcDbEntity
  8
LEGEND
  6
Continuous
 62
     7
370
    13
100
AcDbTrace
 10
60.242802
 20
-42.918521
 30
0.0
 11
60.229469
 21
-42.918521
 31
0.0
 12
60.236135
 22
-42.958531
 32
0.0
 13
60.236135
 23
-42.958531
 33
0.0
  0
SOLID
  5
256
330
4D2
100
AcDbEntity
  8
LEGEND
  6
Continuous
 62
     7
370
    13
100
AcDbTrace
 10
60.242802
 20
-42.842271
 30
0.0
 11
60.229469
 21
-42.842271
 31
0.0
 12
60.236135
 22
-42.80226
 32
0.0
 13
60.236135
 23
-42.80226
 33
0.0
  0
LINE
  5
257
330
4D2
100
AcDbEntity
  8
LEGEND
  6
Continuous
 62
     7
370
    13
100
AcDbLine
 10
60.236135
 20
-42.842271
 30
0.0
 11
60.236135
 21
-42.918521
 31
0.0
  0
LINE
  5
258
330
4D2
100
AcDbEntity
  8
LEGEND
  6
Continuous
 62
     7
370
    13
100
AcDbLine
 10
60.373115
 20
-42.958531
 30
0.0
 11
60.186125
 21
-42.958531
 31
0.0
  0
SOLID
  5
25A
330
4D2
100
AcDbEntity
  8
LEGEND
  6
Continuous
 62
     7
370
    13
100
AcDbTrace
 10
60.242802
 20
-42.76226
 30
0.0
 11
60.229469
 21
-42.76226
 31
0.0
 12
60.236135
 22
-42.80226
 32
0.0
 13
60.236135
 23
-42.80226
 33
0.0
  0
SOLID
  5
25B
330
4D2
100
AcDbEntity
  8
LEGEND
  6
Continuous
 62
     7
370
    13
100
AcDbTrace
 10
60.242802
 20
-42.68601
 30
0.0
 11
60.229469
 21
-42.68601
 31
0.0
 12
60.236135
 22
-42.646
 32
0.0
 13
60.236135
 23
-42.646
 33
0.0
  0
LINE
  5
25C
330
4D2
100
AcDbEntity
  8
LEGEND
  6
Continuous
 62
     7
370
    13
100
AcDbLine
 10
60.236135
 20
-42.68601
 30
0.0
 11
60.236135
 21
-42.76226
 31
0.0
  0
LINE
  5
25D
330
4D2
100
AcDbEntity
  8
LEGEND
  6
Continuous
 62
     7
370
    13
100
AcDbLine
 10
60.323115
 20
-42.80226
 30
0.0
 11
60.186125
 21
-42.80226
 31
0.0
  0
LINE
  5
25E
330
4D2
100
AcDbEntity
  8
LEGEND
  6
Continuous
 62
     7
370
    13
100
AcDbLine
 10
60.323115
 20
-42.646
 30
0.0
 11
60.186125
 21
-42.646
 31
0.0
  0
SOLID
  5
25F
330
4D2
100
AcDbEntity
  8
LEGEND
  6
Continuous
 62
     7
370
    13
100
AcDbTrace
 10
60.242802
 20
-42.606
 30
0.0
 11
60.229469
 21
-42.606
 31
0.0
 12
60.236135
 22
-42.646
 32
0.0
 13
60.236135
 23
-42.646
 33
0.0
  0
SOLID
  5
260
330
4D2
100
AcDbEntity
  8
LEGEND
  6
Continuous
 62
     7
370
    13
100
AcDbTrace
 10
60.242802
 20
-42.46724
 30
0.0
 11
60.229469
 21
-42.46724
 31
0.0
 12
60.236135
 22
-42.42724
 32
0.0
 13
60.236135
 23
-42.42724
 33
0.0
  0
LINE
  5
261
330
4D2
100
AcDbEntity
  8
LEGEND
  6
Continuous
 62
     7
370
    13
100
AcDbLine
 10
60.236135
 20
-42.46724
 30
0.0
 11
60.236135
 21
-42.606
 31
0.0
  0
LINE
  5
262
330
4D2
100
AcDbEntity
  8
LEGEND
  6
Continuous
 62
     7
370
    13
100
AcDbLine
 10
60.373115
 20
-42.646
 30
0.0
 11
60.186125
 21
-42.646
 31
0.0
  0
LINE
  5
263
330
4D2
100
AcDbEntity
  8
LEGEND
  6
Continuous
 62
     7
370
    13
100
AcDbLine
 10
60.323115
 20
-42.42724
 30
0.0
 11
60.186125
 21
-42.42724
 31
0.0
  0
LINE
  5
265
330
4D2
100
AcDbEntity
  8
LEGEND
  6
Continuous
 62
     7
370
    13
100
AcDbLine
 10
60.92901
 20
-42.72976
 30
0.0
 11
60.969021
 21
-42.72976
 31
0.0
  0
LINE
  5
266
330
4D2
100
AcDbEntity
  8
LEGEND
  6
Continuous
 62
     7
370
    13
100
AcDbLine
 10
60.87075
 20
-42.894417
 30
0.0
 11
60.92901
 21
-42.72976
 31
0.0
  0
SOLID
  5
267
330
4D2
100
AcDbEntity
  8
LEGEND
  6
Continuous
 62
     7
370
    13
100
AcDbTrace
 10
-60.877042
 20
-42.896635
 30
0.0
 11
-60.864469
 21
-42.892198
 31
0.0
 12
-60.857406
 22
-42.932125
 32
0.0
 13
-60.857406
 23
-42.932125
 33
0.0
210
0.0
220
0.0
230
-1.0
  0
LINE
  5
268
330
4D2
100
AcDbEntity
  8
LEGEND
  6
Continuous
 62
     7
370
    13
100
AcDbLine
 10
60.458792
 20
-42.531052
 30
0.0
 11
60.6545
 21
-42.387052
 31
0.0
  0
SOLID
  5
269
330
4D2
100
AcDbEntity
  8
LEGEND
  6
Continuous
 62
     7
370
    13
100
AcDbTrace
 10
60.46274
 20
-42.536427
 30
0.0
 11
60.454844
 21
-42.525677
 31
0.0
 12
60.426573
 22
-42.55476
 32
0.0
 13
60.426573
 23
-42.55476
 33
0.0
  0
LINE
  5
26A
330
4D2
100
AcDbEntity
  8
LEGEND
  6
Continuous
 62
     7
370
    13
100
AcDbLine
 10
60.439948
 20
-43.03075
 30
0.0
 11
60.665563
 21
-42.395271
 31
0.0
  0
SOLID
  5
26B
330
4D2
100
AcDbEntity
  8
LEGEND
  6
Continuous
 62
     7
370
    13
100
AcDbTrace
 10
-60.44624
 20
-43.032979
 30
0.0
 11
-60.433667
 21
-43.028521
 31
0.0
 12
-60.426573
 22
-43.068448
 32
0.0
 13
-60.426573
 23
-43.068448
 33
0.0
210
0.0
220
0.0
230
-1.0
  0
CIRCLE
  5
26C
330
4D2
100
AcDbEntity
  8
_0
  6
Continuous
 62
     7
370
    13
100
AcDbCircle
 10
60.673429
 20
-42.373123
 30
0.0
 40
0.0234971094756419
  0
LINE
  5
26E
330
4D2
100
AcDbEntity
  8
LEGEND
  6
Continuous
 62
     7
370
    13
100
AcDbLine
 10
60.811292
 20
-42.373125
 30
0.0
 11
60.811292
 21
-42.411896
 31
0.0
  0
LINE
  5
26F
330
4D2
100
AcDbEntity
  8
LEGEND
  6
Continuous
 62
     7
370
    13
100
AcDbLine
 10
60.811292
 20
-42.411896
 30
0.0
 11
60.871323
 21
-42.373125
 31
0.0
  0
LINE
  5
270
330
4D2
100
AcDbEntity
  8
LEGEND
  6
Continuous
 62
     7
370
    13
100
AcDbLine
 10
60.696927
 20
-42.373125
 30
0.0
 11
60.871323
 21
-42.373125
 31
0.0
  0
LINE
  5
271
330
4D2
100
AcDbEntity
  8
_0
  6
Continuous
 62
     7
370
    13
100
AcDbLine
 10
60.448115
 20
-42.412948
 30
0.0
 11
60.448115
 21
-42.308625
 31
0.0
  0
LINE
  5
272
330
4D2
100
AcDbEntity
  8
_0
  6
Continuous
 62
     7
370
    13
100
AcDbLine
 10
60.448115
 20
-42.632854
 30
0.0
 11
60.448115
 21
-42.444021
 31
0.0
  0
LINE
  5
273
330
4D2
100
AcDbEntity
  8
LEGEND
  6
Continuous
 62
     7
370
    13
100
AcDbLine
 10
60.306719
 20
-42.302448
 30
0.0
 11
60.306719
 21
-42.358635
 31
0.0
  0
SOLID
  5
275
330
4D2
100
AcDbEntity
  8
LEGEND
  6
Continuous
 62
     7
370
    13
100
AcDbTrace
 10
60.488125
 20
-42.365302
 30
0.0
 11
60.488125
 21
-42.351969
 31
0.0
 12
60.448115
 22
-42.358635
 32
0.0
 13
60.448115
 23
-42.358635
 33
0.0
  0
SOLID
  5
276
330
4D2
100
AcDbEntity
  8
LEGEND
  6
Continuous
 62
     7
370
    13
100
AcDbTrace
 10
60.383115
 20
-42.365302
 30
0.0
 11
60.383115
 21
-42.351969
 31
0.0
 12
60.423115
 22
-42.358635
 32
0.0
 13
60.423115
 23
-42.358635
 33
0.0
  0
LINE
  5
277
330
4D2
100
AcDbEntity
  8
LEGEND
  6
Continuous
 62
     7
370
    13
100
AcDbLine
 10
60.488125
 20
-42.358635
 30
0.0
 11
60.528125
 21
-42.358635
 31
0.0
  0
LINE
  5
278
330
4D2
100
AcDbEntity
  8
LEGEND
  6
Continuous
 62
     7
370
    13
100
AcDbLine
 10
60.383115
 20
-42.358635
 30
0.0
 11
60.306719
 21
-42.358635
 31
0.0
  0
LINE
  5
279
330
4D2
100
AcDbEntity
  8
_0
  6
Continuous
 62
     7
370
    13
100
AcDbLine
 10
60.448115
 20
-42.75226
 30
0.0
 11
60.448115
 21
-42.65676
 31
0.0
  0
LINE
  5
27B
330
4D2
100
AcDbEntity
  8
LEGEND
  6
Continuous
 62
     7
370
    13
100
AcDbLine
 10
60.803469
 20
-42.479125
 30
0.0
 11
60.970823
 21
-42.479125
 31
0.0
  0
LINE
  5
27C
330
4D2
100
AcDbEntity
  8
LEGEND
  6
Continuous
 62
     7
370
    13
100
AcDbLine
 10
60.725583
 20
-42.549948
 30
0.0
 11
60.803469
 21
-42.479125
 31
0.0
  0
SOLID
  5
27D
330
4D2
100
AcDbEntity
  8
LEGEND
  6
Continuous
 62
     7
370
    13
100
AcDbTrace
 10
-60.6915
 20
-42.571927
 30
0.0
 11
-60.700469
 21
-42.581792
 31
0.0
 12
-60.725583
 22
-42.549948
 32
0.0
 13
-60.725583
 23
-42.549948
 33
0.0
210
0.0
220
0.0
230
-1.0
  0
LINE
  5
27E
330
4D2
100
AcDbEntity
  8
LEGEND
  6
Continuous
 62
     7
370
    13
100
AcDbLine
 10
60.448115
 20
-42.80226
 30
0.0
 11
60.69599
 21
-42.576865
 31
0.0
  0
LINE
  5
280
330
4D2
100
AcDbEntity
  8
LEGEND
  6
Continuous
 62
     7
370
    13
100
AcDbLine
 10
60.931271
 20
-42.620115
 30
0.0
 11
60.971281
 21
-42.620115
 31
0.0
  0
LINE
  5
281
330
4D2
100
AcDbEntity
  8
LEGEND
  6
Continuous
 62
     7
370
    13
100
AcDbLine
 10
60.665823
 20
-42.738583
 30
0.0
 11
60.931271
 21
-42.620115
 31
0.0
  0
SOLID
  5
282
330
4D2
100
AcDbEntity
  8
LEGEND
  6
Continuous
 62
     7
370
    13
100
AcDbTrace
 10
-60.626573
 20
-42.748802
 30
0.0
 11
-60.63201
 21
-42.760969
 31
0.0
 12
-60.665823
 22
-42.738583
 32
0.0
 13
-60.665823
 23
-42.738583
 33
0.0
210
0.0
220
0.0
230
-1.0
  0
LINE
  5
283
330
4D2
100
AcDbEntity
  8
LEGEND
  6
Continuous
 62
     7
370
    13
100
AcDbLine
 10
60.523125
 20
-42.80226
 30
0.0
 11
60.629292
 21
-42.754885
 31
0.0
  0
SOLID
  5
285
330
4D2
100
AcDbEntity
  8
LEGEND
  6
Continuous
 62
     7
370
    13
100
AcDbTrace
 10
60.463125
 20
-42.186531
 30
0.0
 11
60.463125
 21
-42.173198
 31
0.0
 12
60.423115
 22
-42.179865
 32
0.0
 13
60.423115
 23
-42.179865
 33
0.0
  0
SOLID
  5
286
330
4D2
100
AcDbEntity
  8
LEGEND
  6
Continuous
 62
     7
370
    13
100
AcDbTrace
 10
60.858156
 20
-42.186531
 30
0.0
 11
60.858156
 21
-42.173198
 31
0.0
 12
60.898156
 22
-42.179865
 32
0.0
 13
60.898156
 23
-42.179865
 33
0.0
  0
LINE
  5
287
330
4D2
100
AcDbEntity
  8
LEGEND
  6
Continuous
 62
     7
370
    13
100
AcDbLine
 10
60.858156
 20
-42.179865
 30
0.0
 11
60.463125
 21
-42.179865
 31
0.0
  0
LINE
  5
288
330
4D2
100
AcDbEntity
  8
_0
  6
Continuous
 62
     7
370
    13
100
AcDbLine
 10
60.898156
 20
-43.202302
 30
0.0
 11
60.898156
 21
-42.129865
 31
0.0
  0
LINE
  5
28A
330
4D2
100
AcDbEntity
  8
LEGEND
  6
Continuous
 62
     7
370
    13
100
AcDbLine
 10
60.47
 20
-43.270823
 30
0.0
 11
60.47
 21
-43.367719
 31
0.0
  0
LINE
  5
28B
330
4D2
100
AcDbEntity
  8
_0
  6
Continuous
 62
     7
370
    13
100
AcDbLine
 10
60.476437
 20
-43.227583
 30
0.0
 11
60.47
 21
-43.270823
 31
0.0
  0
SOLID
  5
28C
330
4D2
100
AcDbEntity
  8
LEGEND
  6
Continuous
 62
     7
370
    13
100
AcDbTrace
 10
60.469844
 20
-43.226604
 30
0.0
 11
60.483031
 21
-43.228573
 31
0.0
 12
60.482333
 22
-43.188021
 32
0.0
 13
60.482333
 23
-43.188021
 33
0.0
  0
SOLID
  5
28E
330
4D2
100
AcDbEntity
  8
LEGEND
  6
Continuous
 62
     7
370
    13
100
AcDbTrace
 10
60.383115
 20
-43.027948
 30
0.0
 11
60.383115
 21
-43.014604
 31
0.0
 12
60.423115
 22
-43.021281
 32
0.0
 13
60.423115
 23
-43.021281
 33
0.0
  0
SOLID
  5
28F
330
4D2
100
AcDbEntity
  8
LEGEND
  6
Continuous
 62
     7
370
    13
100
AcDbTrace
 10
60.563125
 20
-43.027948
 30
0.0
 11
60.563125
 21
-43.014604
 31
0.0
 12
60.523125
 22
-43.021281
 32
0.0
 13
60.523125
 23
-43.021281
 33
0.0
  0
LINE
  5
290
330
4D2
100
AcDbEntity
  8
LEGEND
  6
Continuous
 62
     7
370
    13
100
AcDbLine
 10
60.383115
 20
-43.021281
 30
0.0
 11
60.343115
 21
-43.021281
 31
0.0
  0
LINE
  5
291
330
4D2
100
AcDbEntity
  8
LEGEND
  6
Continuous
 62
     7
370
    13
100
AcDbLine
 10
60.563125
 20
-43.021281
 30
0.0
 11
60.603135
 21
-43.021281
 31
0.0
  0
LINE
  5
292
330
4D2
100
AcDbEntity
  8
LEGEND
  6
Continuous
 62
     7
370
    13
100
AcDbLine
 10
60.523125
 20
-42.978583
 30
0.0
 11
60.523125
 21
-43.041333
 31
0.0
  0
SOLID
  5
294
330
4D2
100
AcDbEntity
  8
LEGEND
  6
Continuous
 62
     7
370
    13
100
AcDbTrace
 10
60.383115
 20
-43.144823
 30
0.0
 11
60.383115
 21
-43.13149
 31
0.0
 12
60.423115
 22
-43.138156
 32
0.0
 13
60.423115
 23
-43.138156
 33
0.0
  0
SOLID
  5
295
330
4D2
100
AcDbEntity
  8
LEGEND
  6
Continuous
 62
     7
370
    13
100
AcDbTrace
 10
60.505375
 20
-43.144823
 30
0.0
 11
60.505375
 21
-43.13149
 31
0.0
 12
60.465375
 22
-43.138156
 32
0.0
 13
60.465375
 23
-43.138156
 33
0.0
  0
LINE
  5
296
330
4D2
100
AcDbEntity
  8
LEGEND
  6
Continuous
 62
     7
370
    13
100
AcDbLine
 10
60.383115
 20
-43.138156
 30
0.0
 11
60.343115
 21
-43.138156
 31
0.0
  0
LINE
  5
297
330
4D2
100
AcDbEntity
  8
LEGEND
  6
Continuous
 62
     7
370
    13
100
AcDbLine
 10
60.505375
 20
-43.138156
 30
0.0
 11
60.545375
 21
-43.138156
 31
0.0
  0
LINE
  5
298
330
4D2
100
AcDbEntity
  8
LEGEND
  6
Continuous
 62
     7
370
    13
100
AcDbLine
 10
60.465375
 20
-43.160635
 30
0.0
 11
60.465375
 21
-43.114573
 31
0.0
  0
ARC
  5
299
330
4D2
100
AcDbEntity
  8
_0
  6
Continuous
 62
     7
370
    13
100
AcDbCircle
 10
60.463157
 20
-43.209798
 30
0.0
 40
0.0325026
100
AcDbArc
 50
20.696033
 51
90.0
  0
SOLID
  5
29B
330
4D2
100
AcDbEntity
  8
LEGEND
  6
Continuous
 62
     7
370
    13
100
AcDbTrace
 10
60.891823
 20
-43.493344
 30
0.0
 11
60.87849
 21
-43.493344
 31
0.0
 12
60.885156
 22
-43.533344
 32
0.0
 13
60.885156
 23
-43.533344
 33
0.0
  0
SOLID
  5
29C
330
4D2
100
AcDbEntity
  8
LEGEND
  6
Continuous
 62
     7
370
    13
100
AcDbTrace
 10
60.891823
 20
-43.651385
 30
0.0
 11
60.87849
 21
-43.651385
 31
0.0
 12
60.885156
 22
-43.611385
 32
0.0
 13
60.885156
 23
-43.611385
 33
0.0
  0
LINE
  5
29D
330
4D2
100
AcDbEntity
  8
LEGEND
  6
Continuous
 62
     7
370
    13
100
AcDbLine
 10
60.885156
 20
-43.493344
 30
0.0
 11
60.885156
 21
-43.453333
 31
0.0
  0
LINE
  5
29E
330
4D2
100
AcDbEntity
  8
LEGEND
  6
Continuous
 62
     7
370
    13
100
AcDbLine
 10
60.885156
 20
-43.651385
 30
0.0
 11
60.885156
 21
-43.691385
 31
0.0
  0
LINE
  5
29F
330
4D2
100
AcDbEntity
  8
LEGEND
  6
Continuous
 62
     7
370
    13
100
AcDbLine
 10
60.918615
 20
-43.533344
 30
0.0
 11
60.858062
 21
-43.533344
 31
0.0
  0
SOLID
  5
2A1
330
4D2
100
AcDbEntity
  8
LEGEND
  6
Continuous
 62
     7
370
    13
100
AcDbTrace
 10
60.674427
 20
-43.480354
 30
0.0
 11
60.665104
 21
-43.470813
 31
0.0
 12
60.641156
 22
-43.503542
 32
0.0
 13
60.641156
 23
-43.503542
 33
0.0
  0
LINE
  5
2A2
330
4D2
100
AcDbEntity
  8
LEGEND
  6
Continuous
 62
     7
370
    13
100
AcDbLine
 10
60.66976
 20
-43.475583
 30
0.0
 11
60.898156
 21
-43.252302
 31
0.0
  0
SOLID
  5
2A4
330
4D2
100
AcDbEntity
  8
LEGEND
  6
Continuous
 62
     7
370
    13
100
AcDbTrace
 10
61.341
 20
-42.912271
 30
0.0
 11
61.327667
 21
-42.912271
 31
0.0
 12
61.334333
 22
-42.952281
 32
0.0
 13
61.334333
 23
-42.952281
 33
0.0
  0
SOLID
  5
2A5
330
4D2
100
AcDbEntity
  8
LEGEND
  6
Continuous
 62
     7
370
    13
100
AcDbTrace
 10
61.341
 20
-42.842271
 30
0.0
 11
61.327667
 21
-42.842271
 31
0.0
 12
61.334333
 22
-42.80226
 32
0.0
 13
61.334333
 23
-42.80226
 33
0.0
  0
LINE
  5
2A6
330
4D2
100
AcDbEntity
  8
LEGEND
  6
Continuous
 62
     7
370
    13
100
AcDbLine
 10
61.334333
 20
-42.842271
 30
0.0
 11
61.334333
 21
-42.912271
 31
0.0
  0
LINE
  5
2A7
330
4D2
100
AcDbEntity
  8
LEGEND
  6
Continuous
 62
     7
370
    13
100
AcDbLine
 10
61.146042
 20
-42.952281
 30
0.0
 11
61.384333
 21
-42.952281
 31
0.0
  0
LINE
  5
2A8
330
4D2
100
AcDbEntity
  8
LEGEND
  6
Continuous
 62
     7
370
    13
100
AcDbLine
 10
61.40926
 20
-43.638229
 30
0.0
 11
61.467813
 21
-43.834771
 31
0.0
  0
LINE
  5
2A9
330
4D2
100
AcDbEntity
  8
LEGEND
  6
Continuous
 62
     7
370
    13
100
AcDbLine
 10
61.467813
 20
-43.834771
 30
0.0
 11
61.501135
 21
-43.834771
 31
0.0
  0
LINE
  5
2AA
330
4D2
100
AcDbEntity
  8
LEGEND
  6
Continuous
 62
     7
370
    13
100
AcDbLine
 10
61.295885
 20
-43.764135
 30
0.0
 11
61.467813
 21
-43.834771
 31
0.0
  0
SOLID
  5
2AC
330
4D2
100
AcDbEntity
  8
LEGEND
  6
Continuous
 62
     7
370
    13
100
AcDbTrace
 10
-61.181687
 20
-43.822948
 30
0.0
 11
-61.18799
 21
-43.834698
 31
0.0
 12
-61.220094
 22
-43.809906
 32
0.0
 13
-61.220094
 23
-43.809906
 33
0.0
210
0.0
220
0.0
230
-1.0
  0
SOLID
  5
2AD
330
4D2
100
AcDbEntity
  8
LEGEND
  6
Continuous
 62
     7
370
    13
100
AcDbTrace
 10
61.101177
 20
-43.856302
 30
0.0
 11
61.105021
 21
-43.869062
 31
0.0
 12
61.064802
 22
-43.874229
 32
0.0
 13
61.064802
 23
-43.874229
 33
0.0
  0
ARC
  5
2AE
330
4D2
100
AcDbEntity
  8
LEGEND
  6
Continuous
 62
     7
370
    13
100
AcDbCircle
 10
60.898155
 20
-43.252301
 30
0.0
 40
0.6438686242652124
100
AcDbArc
 50
288.560328
 51
296.439672
  0
SOLID
  5
2B0
330
4D2
100
AcDbEntity
  8
LEGEND
  6
Continuous
 62
     7
370
    13
100
AcDbTrace
 10
-61.319719
 20
-43.730125
 30
0.0
 11
-61.328854
 21
-43.739833
 31
0.0
 12
-61.353437
 22
-43.707583
 32
0.0
 13
-61.353437
 23
-43.707583
 33
0.0
210
0.0
220
0.0
230
-1.0
  0
SOLID
  5
2B1
330
4D2
100
AcDbEntity
  8
LEGEND
  6
Continuous
 62
     7
370
    13
100
AcDbTrace
 10
61.250583
 20
-43.783177
 30
0.0
 11
61.257604
 21
-43.79451
 31
0.0
 12
61.220094
 22
-43.809906
 32
0.0
 13
61.220094
 23
-43.809906
 33
0.0
  0
ARC
  5
2B2
330
4D2
100
AcDbEntity
  8
LEGEND
  6
Continuous
 62
     7
370
    13
100
AcDbCircle
 10
60.898155
 20
-43.252301
 30
0.0
 40
0.6438686242652296
100
AcDbArc
 50
303.560328
 51
311.439672
  0
SOLID
  5
2B3
330
4D2
100
AcDbEntity
  8
LEGEND
  6
Continuous
 62
     7
370
    13
100
AcDbTrace
 10
61.429031
 20
-43.604729
 30
0.0
 11
61.440365
 21
-43.61175
 31
0.0
 12
61.45576
 22
-43.57424
 32
0.0
 13
61.45576
 23
-43.57424
 33
0.0
  0
SOLID
  5
2B4
330
4D2
100
AcDbEntity
  8
LEGEND
  6
Continuous
 62
     7
370
    13
100
AcDbTrace
 10
-61.375979
 20
-43.673865
 30
0.0
 11
-61.385687
 21
-43.683
 31
0.0
 12
-61.353437
 22
-43.707583
 32
0.0
 13
-61.353437
 23
-43.707583
 33
0.0
210
0.0
220
0.0
230
-1.0
  0
ARC
  5
2B5
330
4D2
100
AcDbEntity
  8
LEGEND
  6
Continuous
 62
     7
370
    13
100
AcDbCircle
 10
60.898155
 20
-43.252301
 30
0.0
 40
0.6438686242652348
100
AcDbArc
 50
318.560328
 51
326.439672
  0
SOLID
  5
2B6
330
4D2
100
AcDbEntity
  8
LEGEND
  6
Continuous
 62
     7
370
    13
100
AcDbTrace
 10
61.502156
 20
-43.455323
 30
0.0
 11
61.514917
 21
-43.459167
 31
0.0
 12
61.520083
 22
-43.418948
 32
0.0
 13
61.520083
 23
-43.418948
 33
0.0
  0
SOLID
  5
2B7
330
4D2
100
AcDbEntity
  8
LEGEND
  6
Continuous
 62
     7
370
    13
100
AcDbTrace
 10
-61.468802
 20
-43.535833
 30
0.0
 11
-61.480552
 21
-43.542135
 31
0.0
 12
-61.45576
 22
-43.57424
 32
0.0
 13
-61.45576
 23
-43.57424
 33
0.0
210
0.0
220
0.0
230
-1.0
  0
ARC
  5
2B8
330
4D2
100
AcDbEntity
  8
LEGEND
  6
Continuous
 62
     7
370
    13
100
AcDbCircle
 10
60.898155
 20
-43.252301
 30
0.0
 40
0.6438686242652273
100
AcDbArc
 50
333.560328
 51
341.439672
  0
SOLID
  5
2B9
330
4D2
100
AcDbEntity
  8
LEGEND
  6
Continuous
 62
     7
370
    13
100
AcDbTrace
 10
61.534115
 20
-43.292083
 30
0.0
 11
61.547448
 21
-43.29249
 31
0.0
 12
61.542021
 22
-43.252302
 32
0.0
 13
61.542021
 23
-43.252302
 33
0.0
  0
SOLID
  5
2BA
330
4D2
100
AcDbEntity
  8
LEGEND
  6
Continuous
 62
     7
370
    13
100
AcDbTrace
 10
-61.52274
 20
-43.378479
 30
0.0
 11
-61.535729
 21
-43.381531
 31
0.0
 12
-61.520083
 22
-43.418948
 32
0.0
 13
-61.520083
 23
-43.418948
 33
0.0
210
0.0
220
0.0
230
-1.0
  0
ARC
  5
2BB
330
4D2
100
AcDbEntity
  8
LEGEND
  6
Continuous
 62
     7
370
    13
100
AcDbCircle
 10
60.898155
 20
-43.252301
 30
0.0
 40
0.6438686242652238
100
AcDbArc
 50
348.560328
 51
356.439672
  0
SOLID
  5
2BC
330
4D2
100
AcDbEntity
  8
LEGEND
  6
Continuous
 62
     7
370
    13
100
AcDbTrace
 10
-61.52274
 20
-43.126125
 30
0.0
 11
-61.535729
 21
-43.123073
 31
0.0
 12
-61.520083
 22
-43.085656
 32
0.0
 13
-61.520083
 23
-43.085656
 33
0.0
210
0.0
220
0.0
230
-1.0
  0
SOLID
  5
2BD
330
4D2
100
AcDbEntity
  8
LEGEND
  6
Continuous
 62
     7
370
    13
100
AcDbTrace
 10
61.534115
 20
-43.212521
 30
0.0
 11
61.547448
 21
-43.212115
 31
0.0
 12
61.542021
 22
-43.252302
 32
0.0
 13
61.542021
 23
-43.252302
 33
0.0
  0
ARC
  5
2BE
330
4D2
100
AcDbEntity
  8
LEGEND
  6
Continuous
 62
     7
370
    13
100
AcDbCircle
 10
60.898155
 20
-43.252301
 30
0.0
 40
0.6438686242652265
100
AcDbArc
 50
3.560328
 51
11.439672
  0
ARC
  5
2BF
330
4D2
100
AcDbEntity
  8
LEGEND
  6
Continuous
 62
     7
370
    13
100
AcDbCircle
 10
60.944325
 20
-43.601364
 30
0.0
 40
0.007300584
100
AcDbArc
 50
277.534675
 51
347.961653
  0
ARC
  5
2C0
330
4D2
100
AcDbEntity
  8
_0
  6
Continuous
 62
     7
370
    13
100
AcDbCircle
 10
61.247284
 20
-43.297976
 30
0.0
 40
0.007300584
100
AcDbArc
 50
281.532956
 51
352.546711
  0
ARC
  5
2C1
330
4D2
100
AcDbEntity
  8
_0
  6
Continuous
 62
     7
370
    13
100
AcDbCircle
 10
60.898155
 20
-43.252301
 30
0.0
 40
0.35940375
100
AcDbArc
 50
352.546711
 51
56.593208
  0
LINE
  5
2C2
330
4D2
100
AcDbEntity
  8
_0
  6
Continuous
 62
     7
370
    13
100
AcDbLine
 10
61.177365
 20
-43.319698
 30
0.0
 11
61.24874
 21
-43.305125
 31
0.0
  0
ARC
  5
2C3
330
4D2
100
AcDbEntity
  8
_0
  6
Continuous
 62
     7
370
    13
100
AcDbCircle
 10
61.178822
 20
-43.326858
 30
0.0
 40
0.0073113936342879
100
AcDbArc
 50
101.532956
 51
227.96165
  0
ARC
  5
2C4
330
4D2
100
AcDbEntity
  8
_0
  6
Continuous
 62
     7
370
    13
100
AcDbCircle
 10
61.222644
 20
-43.386058
 30
0.0
 40
0.0073113936342879
100
AcDbArc
 50
337.6457
 51
47.961653
  0
LINE
  5
2C5
330
4D2
100
AcDbEntity
  8
_0
  6
Continuous
 62
     7
370
    13
100
AcDbLine
 10
61.173927
 20
-43.332292
 30
0.0
 11
61.227542
 21
-43.380625
 31
0.0
  0
ARC
  5
2C6
330
4D2
100
AcDbEntity
  8
_0
  6
Continuous
 62
     7
370
    13
100
AcDbCircle
 10
61.222381
 20
-43.386698
 30
0.0
 40
0.0073113936342879
100
AcDbArc
 50
266.532956
 51
337.645697
  0
LINE
  5
2C7
330
4D2
100
AcDbEntity
  8
_0
  6
Continuous
 62
     7
370
    13
100
AcDbLine
 10
61.150406
 20
-43.389656
 30
0.0
 11
61.221937
 21
-43.394
 31
0.0
  0
ARC
  5
2C8
330
4D2
100
AcDbEntity
  8
_0
  6
Continuous
 62
     7
370
    13
100
AcDbCircle
 10
61.149962
 20
-43.39696
 30
0.0
 40
0.0073113936342879
100
AcDbArc
 50
86.532956
 51
212.96165
  0
LINE
  5
2C9
330
4D2
100
AcDbEntity
  8
_0
  6
Continuous
 62
     7
370
    13
100
AcDbLine
 10
61.143823
 20
-43.400937
 30
0.0
 11
61.185906
 21
-43.465823
 31
0.0
  0
ARC
  5
2CA
330
4D2
100
AcDbEntity
  8
_0
  6
Continuous
 62
     7
370
    13
100
AcDbCircle
 10
61.111745
 20
-43.530805
 30
0.0
 40
0.0073113936342879
100
AcDbArc
 50
236.532956
 51
307.645697
  0
ARC
  5
2CB
330
4D2
100
AcDbEntity
  8
_0
  6
Continuous
 62
     7
370
    13
100
AcDbCircle
 10
61.032385
 20
-43.576596
 30
0.0
 40
0.0073113936342879
100
AcDbArc
 50
221.532956
 51
292.645697
  0
ARC
  5
2CC
330
4D2
100
AcDbEntity
  8
_0
  6
Continuous
 62
     7
370
    13
100
AcDbCircle
 10
61.176549
 20
-43.466034
 30
0.0
 40
0.0073113936342879
100
AcDbArc
 50
251.532956
 51
322.645697
  0
ARC
  5
2CD
330
4D2
100
AcDbEntity
  8
_0
  6
Continuous
 62
     7
370
    13
100
AcDbCircle
 10
61.176969
 20
-43.465484
 30
0.0
 40
0.0073113936342879
100
AcDbArc
 50
322.6457
 51
32.961653
  0
LINE
  5
2CE
330
4D2
100
AcDbEntity
  8
_0
  6
Continuous
 62
     7
370
    13
100
AcDbLine
 10
61.182365
 20
-43.470469
 30
0.0
 11
61.182781
 21
-43.469917
 31
0.0
  0
LINE
  5
2CF
330
4D2
100
AcDbEntity
  8
_0
  6
Continuous
 62
     7
370
    13
100
AcDbLine
 10
61.10626
 20
-43.450271
 30
0.0
 11
61.174229
 21
-43.472969
 31
0.0
  0
ARC
  5
2D0
330
4D2
100
AcDbEntity
  8
_0
  6
Continuous
 62
     7
370
    13
100
AcDbCircle
 10
61.103942
 20
-43.457203
 30
0.0
 40
0.0073113936342879
100
AcDbArc
 50
71.532956
 51
197.96165
  0
LINE
  5
2D1
330
4D2
100
AcDbEntity
  8
_0
  6
Continuous
 62
     7
370
    13
100
AcDbLine
 10
61.09699
 20
-43.459458
 30
0.0
 11
61.11925
 21
-43.528125
 31
0.0
  0
ARC
  5
2D2
330
4D2
100
AcDbEntity
  8
_0
  6
Continuous
 62
     7
370
    13
100
AcDbCircle
 10
61.112293
 20
-43.530382
 30
0.0
 40
0.0073113936342879
100
AcDbArc
 50
307.6457
 51
17.961653
  0
LINE
  5
2D3
330
4D2
100
AcDbEntity
  8
_0
  6
Continuous
 62
     7
370
    13
100
AcDbLine
 10
61.047927
 20
-43.497385
 30
0.0
 11
61.107708
 21
-43.536906
 31
0.0
  0
ARC
  5
2D4
330
4D2
100
AcDbEntity
  8
_0
  6
Continuous
 62
     7
370
    13
100
AcDbCircle
 10
61.043897
 20
-43.503483
 30
0.0
 40
0.0073113936342879
100
AcDbArc
 50
56.532956
 51
182.96165
  0
ARC
  5
2D5
330
4D2
100
AcDbEntity
  8
_0
  6
Continuous
 62
     7
370
    13
100
AcDbCircle
 10
61.033024
 20
-43.57633
 30
0.0
 40
0.0073113936342879
100
AcDbArc
 50
292.6457
 51
2.961653
  0
LINE
  5
2D6
330
4D2
100
AcDbEntity
  8
_0
  6
Continuous
 62
     7
370
    13
100
AcDbLine
 10
61.036594
 20
-43.503865
 30
0.0
 11
61.040323
 21
-43.575948
 31
0.0
  0
LINE
  5
2D7
330
4D2
100
AcDbEntity
  8
_0
  6
Continuous
 62
     7
370
    13
100
AcDbLine
 10
61.035198
 20
-43.583344
 30
0.0
 11
61.035844
 21
-43.583083
 31
0.0
  0
LINE
  5
2D8
330
4D2
100
AcDbEntity
  8
_0
  6
Continuous
 62
     7
370
    13
100
AcDbLine
 10
60.979396
 20
-43.527792
 30
0.0
 11
61.026917
 21
-43.581437
 31
0.0
  0
ARC
  5
2D9
330
4D2
100
AcDbEntity
  8
_0
  6
Continuous
 62
     7
370
    13
100
AcDbCircle
 10
60.973921
 20
-43.532645
 30
0.0
 40
0.0073113936342879
100
AcDbArc
 50
41.532956
 51
167.96165
  0
LINE
  5
2DA
330
4D2
100
AcDbEntity
  8
_0
  6
Continuous
 62
     7
370
    13
100
AcDbLine
 10
60.966771
 20
-43.531125
 30
0.0
 11
60.951469
 21
-43.602885
 31
0.0
  0
CIRCLE
  5
2DB
330
4D2
100
AcDbEntity
  8
_0
  6
Continuous
 62
     7
370
    13
100
AcDbCircle
 10
60.898155
 20
-43.252301
 30
0.0
 40
0.062505
  0
LINE
  5
2DC
330
4D2
100
AcDbEntity
  8
_0
  6
Continuous
 62
     7
370
    13
100
AcDbLine
 10
60.493562
 20
-43.198313
 30
0.0
 11
60.561948
 21
-43.379312
 31
0.0
  0
LINE
  5
2DD
330
4D2
100
AcDbEntity
  8
LEGEND
  6
Continuous
 62
     7
370
    13
100
AcDbLine
 10
60.914333
 20
-43.312677
 30
0.0
 11
61.0775
 21
-43.921625
 31
0.0
  0
LINE
  5
2DE
330
4D2
100
AcDbEntity
  8
LEGEND
  6
Continuous
 62
     7
370
    13
100
AcDbLine
 10
60.929406
 20
-43.306438
 30
0.0
 11
61.244625
 21
-43.852396
 31
0.0
  0
LINE
  5
2DF
330
4D2
100
AcDbEntity
  8
LEGEND
  6
Continuous
 62
     7
370
    13
100
AcDbLine
 10
60.942354
 20
-43.2965
 30
0.0
 11
61.388125
 21
-43.742271
 31
0.0
  0
LINE
  5
2E0
330
4D2
100
AcDbEntity
  8
LEGEND
  6
Continuous
 62
     7
370
    13
100
AcDbLine
 10
60.952292
 20
-43.283552
 30
0.0
 11
61.49825
 21
-43.598771
 31
0.0
  0
LINE
  5
2E1
330
4D2
100
AcDbEntity
  8
LEGEND
  6
Continuous
 62
     7
370
    13
100
AcDbLine
 10
60.958531
 20
-43.268479
 30
0.0
 11
61.567479
 21
-43.431646
 31
0.0
  0
LINE
  5
2E2
330
4D2
100
AcDbEntity
  8
LEGEND
  6
Continuous
 62
     7
370
    13
100
AcDbLine
 10
60.958531
 20
-43.236125
 30
0.0
 11
61.567479
 21
-43.072958
 31
0.0
  0
LINE
  5
2E3
330
4D2
100
AcDbEntity
  8
LEGEND
  6
Continuous
 62
     7
370
    13
100
AcDbLine
 10
60.960656
 20
-43.252302
 30
0.0
 11
61.66875
 21
-43.252302
 31
0.0
  0
SOLID
  5
2E5
330
4D2
100
AcDbEntity
  8
LEGEND
  6
Continuous
 62
     7
370
    13
100
AcDbTrace
 10
61.627073
 20
-42.852271
 30
0.0
 11
61.610406
 21
-42.852271
 31
0.0
 12
61.61874
 22
-42.80226
 32
0.0
 13
61.61874
 23
-42.80226
 33
0.0
  0
SOLID
  5
2E6
330
4D2
100
AcDbEntity
  8
LEGEND
  6
Continuous
 62
     7
370
    13
100
AcDbTrace
 10
61.627073
 20
-43.202302
 30
0.0
 11
61.610406
 21
-43.202302
 31
0.0
 12
61.61874
 22
-43.252302
 32
0.0
 13
61.61874
 23
-43.252302
 33
0.0
  0
LINE
  5
2E7
330
4D2
100
AcDbEntity
  8
LEGEND
  6
Continuous
 62
     7
370
    13
100
AcDbLine
 10
61.61874
 20
-43.202302
 30
0.0
 11
61.61874
 21
-42.852271
 31
0.0
  0
LINE
  5
2E8
330
4D2
100
AcDbEntity
  8
LEGEND
  6
DGN Style 7
 62
     7
370
    13
100
AcDbLine
 10
59.95924
 20
-42.80226
 30
0.0
 11
61.66875
 21
-42.80226
 31
0.0
  0
LINE
  5
2E9
330
4D2
100
AcDbEntity
  8
LEGEND
  6
Continuous
 62
     7
370
    13
100
AcDbLine
 10
60.898156
 20
-43.252302
 30
0.0
 11
61.66875
 21
-43.252302
 31
0.0
  0
ARC
  5
2EA
330
4D2
100
AcDbEntity
  8
_0
  6
Continuous
 62
     7
370
    13
100
AcDbCircle
 10
60.885654
 20
-42.889772
 30
0.0
 40
0.062505
100
AcDbArc
 50
180.0
 51
270.0
  0
ARC
  5
2EB
330
4D2
100
AcDbEntity
  8
_0
  6
Continuous
 62
     7
370
    13
100
AcDbCircle
 10
60.448119
 20
-42.802265
 30
0.0
 40
0.37503
100
AcDbArc
 50
0.0
 51
90.0
  0
LINE
  5
2EC
330
4D2
100
AcDbEntity
  8
_0
  6
Continuous
 62
     7
370
    13
100
AcDbLine
 10
60.823146
 20
-42.80226
 30
0.0
 11
60.823146
 21
-42.889771
 31
0.0
  0
ARC
  5
2ED
330
4D2
100
AcDbEntity
  8
_0
  6
Continuous
 62
     7
370
    13
100
AcDbCircle
 10
60.898155
 20
-43.252301
 30
0.0
 40
0.35940375
100
AcDbArc
 50
200.696033
 51
277.534675
  0
LINE
  5
2EE
330
4D2
100
AcDbEntity
  8
_0
  6
Continuous
 62
     7
370
    13
100
AcDbLine
 10
60.885656
 20
-42.952281
 30
0.0
 11
61.096031
 21
-42.952281
 31
0.0
  0
LINE
  5
2EF
330
4D2
100
AcDbEntity
  8
LEGEND
  6
Continuous
 62
     7
370
    13
100
AcDbLine
 10
60.463156
 20
-43.177292
 30
0.0
 11
60.423115
 21
-43.177292
 31
0.0
  0
LINE
  5
2F0
330
4D2
100
AcDbEntity
  8
_0
  6
Continuous
 62
     7
370
    13
100
AcDbLine
 10
60.523125
 20
-42.958531
 30
0.0
 11
60.423115
 21
-42.958531
 31
0.0
  0
LINE
  5
2F1
330
4D2
100
AcDbEntity
  8
_0
  6
Continuous
 62
     7
370
    13
100
AcDbLine
 10
60.523125
 20
-42.646
 30
0.0
 11
60.423115
 21
-42.646
 31
0.0
  0
LINE
  5
2F2
330
4D2
100
AcDbEntity
  8
_0
  6
Continuous
 62
     7
370
    13
100
AcDbLine
 10
60.448115
 20
-42.42724
 30
0.0
 11
60.423115
 21
-42.42724
 31
0.0
  0
ARC
  5
2F3
330
4D2
100
AcDbEntity
  8
_0
  6
Continuous
 62
     7
370
    13
100
AcDbCircle
 10
60.523125
 20
-42.802265
 30
0.0
 40
0.1562625
100
AcDbArc
 50
270.0
 51
90.0
  0
LINE
  5
2F4
330
4D2
100
AcDbEntity
  8
_0
  6
Continuous
 62
     7
370
    13
100
AcDbLine
 10
60.423115
 20
-43.777344
 30
0.0
 11
60.423115
 21
-41.827188
 31
0.0
  0
LINE
  5
2F5
330
4D2
100
AcDbEntity
  8
_0
  6
Continuous
 62
     7
370
    13
100
AcDbLine
 10
60.373115
 20
-41.827188
 30
0.0
 11
60.423115
 21
-41.827188
 31
0.0
  0
LINE
  5
2F6
330
4D2
100
AcDbEntity
  8
_0
  6
Continuous
 62
     7
370
    13
100
AcDbLine
 10
60.373115
 20
-43.777344
 30
0.0
 11
60.423115
 21
-43.777344
 31
0.0
  0
LINE
  5
2F7
330
4D2
100
AcDbEntity
  8
_0
  6
Continuous
 62
     7
370
    13
100
AcDbLine
 10
60.373115
 20
-43.777344
 30
0.0
 11
60.373115
 21
-41.827188
 31
0.0
  0
LINE
  5
2F9
330
4D2
100
AcDbEntity
  8
LEGEND
  6
Continuous
 62
     7
370
    13
100
AcDbLine
 10
63.733802
 20
-40.533208
 30
0.0
 11
63.783812
 21
-40.533208
 31
0.0
  0
LINE
  5
2FA
330
4D2
100
AcDbEntity
  8
LEGEND
  6
Continuous
 62
     7
370
    13
100
AcDbLine
 10
63.664469
 20
-40.64301
 30
0.0
 11
63.733802
 21
-40.533208
 31
0.0
  0
SOLID
  5
2FB
330
4D2
100
AcDbEntity
  8
LEGEND
  6
Continuous
 62
     7
370
    13
100
AcDbTrace
 10
-63.67151
 20
-40.647458
 30
0.0
 11
-63.657417
 21
-40.638562
 31
0.0
 12
-63.637771
 22
-40.685292
 32
0.0
 13
-63.637771
 23
-40.685292
 33
0.0
210
0.0
220
0.0
230
-1.0
  0
LINE
  5
2FC
330
4D2
100
AcDbEntity
  8
LEGEND
  6
Continuous
 62
     7
370
    13
100
AcDbLine
 10
63.579375
 20
-40.625052
 30
0.0
 11
63.733802
 21
-40.533208
 31
0.0
  0
SOLID
  5
2FD
330
4D2
100
AcDbEntity
  8
LEGEND
  6
Continuous
 62
     7
370
    13
100
AcDbTrace
 10
63.583635
 20
-40.632208
 30
0.0
 11
63.575115
 21
-40.617885
 31
0.0
 12
63.536396
 22
-40.650604
 32
0.0
 13
63.536396
 23
-40.650604
 33
0.0
  0
LINE
  5
2FF
330
4D2
100
AcDbEntity
  8
LEGEND
  6
Continuous
 62
     7
370
    13
100
AcDbLine
 10
63.085938
 20
-40.956583
 30
0.0
 11
63.035937
 21
-40.956583
 31
0.0
  0
LINE
  5
300
330
4D2
100
AcDbEntity
  8
LEGEND
  6
Continuous
 62
     7
370
    13
100
AcDbLine
 10
63.163833
 20
-40.994844
 30
0.0
 11
63.085938
 21
-40.956583
 31
0.0
  0
SOLID
  5
301
330
4D2
100
AcDbEntity
  8
LEGEND
  6
Continuous
 62
     7
370
    13
100
AcDbTrace
 10
63.16751
 20
-40.987365
 30
0.0
 11
63.160167
 21
-41.002323
 31
0.0
 12
63.208719
 22
-41.016885
 32
0.0
 13
63.208719
 23
-41.016885
 33
0.0
  0
LINE
  5
303
330
4D2
100
AcDbEntity
  8
_0
  6
Continuous
 62
     7
370
    13
100
AcDbLine
 10
63.367229
 20
-40.935135
 30
0.0
 11
63.150698
 21
-40.677094
 31
0.0
  0
SOLID
  5
304
330
4D2
100
AcDbEntity
  8
_0
  6
Continuous
 62
     7
370
    13
100
AcDbTrace
 10
63.373615
 20
-40.929781
 30
0.0
 11
63.360844
 21
-40.9405
 31
0.0
 12
63.399365
 22
-40.973448
 32
0.0
 13
63.399365
 23
-40.973448
 33
0.0
  0
LINE
  5
305
330
4D2
100
AcDbEntity
  8
_0
  6
Continuous
 62
     7
370
    13
100
AcDbLine
 10
63.227896
 20
-41.114844
 30
0.0
 11
63.150698
 21
-40.677094
 31
0.0
  0
SOLID
  5
306
330
4D2
100
AcDbEntity
  8
_0
  6
Continuous
 62
     7
370
    13
100
AcDbTrace
 10
63.236094
 20
-41.113396
 30
0.0
 11
63.219687
 21
-41.116292
 31
0.0
 12
63.236573
 22
-41.164083
 32
0.0
 13
63.236573
 23
-41.164083
 33
0.0
  0
LINE
  5
307
330
4D2
100
AcDbEntity
  8
LEGEND
  6
Continuous
 62
     7
370
    13
100
AcDbLine
 10
63.485656
 20
-41.159333
 30
0.0
 11
63.529052
 21
-41.12799
 31
0.0
  0
SOLID
  5
309
330
4D2
100
AcDbEntity
  8
LEGEND
  6
Continuous
 62
     7
370
    13
100
AcDbTrace
 10
63.437365
 20
-40.757823
 30
0.0
 11
63.447115
 21
-40.760052
 31
0.0
 12
63.448906
 22
-40.729687
 32
0.0
 13
63.448906
 23
-40.729687
 33
0.0
  0
SOLID
  5
30A
330
4D2
100
AcDbEntity
  8
LEGEND
  6
Continuous
 62
     7
370
    13
100
AcDbTrace
 10
63.443208
 20
-40.621125
 30
0.0
 11
63.453104
 21
-40.61974
 31
0.0
 12
63.452302
 22
-40.650146
 32
0.0
 13
63.452302
 23
-40.650146
 33
0.0
  0
ARC
  5
30B
330
4D2
100
AcDbEntity
  8
LEGEND
  6
Continuous
 62
     7
370
    13
100
AcDbCircle
 10
63.150703
 20
-40.677095
 30
0.0
 40
0.3028043773926842
100
AcDbArc
 50
338.639883
 51
344.319178
  0
ARC
  5
30C
330
4D2
100
AcDbEntity
  8
LEGEND
  6
Continuous
 62
     7
370
    13
100
AcDbCircle
 10
63.150703
 20
-40.677095
 30
0.0
 40
0.3028043773926842
100
AcDbArc
 50
10.785422
 51
16.464717
  0
LINE
  5
30D
330
4D2
100
AcDbEntity
  8
_0
  6
Continuous
 62
     7
370
    13
100
AcDbLine
 10
63.150698
 20
-40.677094
 30
0.0
 11
63.687958
 21
-40.629083
 31
0.0
  0
SOLID
  5
30F
330
4D2
100
AcDbEntity
  8
LEGEND
  6
Continuous
 62
     7
370
    13
100
AcDbTrace
 10
-63.895406
 20
-40.662875
 30
0.0
 11
-63.905104
 21
-40.660427
 31
0.0
 12
-63.892917
 22
-40.632562
 32
0.0
 13
-63.892917
 23
-40.632562
 33
0.0
210
0.0
220
0.0
230
-1.0
  0
SOLID
  5
310
330
4D2
100
AcDbEntity
  8
LEGEND
  6
Continuous
 62
     7
370
    13
100
AcDbTrace
 10
-63.842781
 20
-40.949667
 30
0.0
 11
-63.850979
 21
-40.955396
 31
0.0
 12
-63.829687
 22
-40.977115
 32
0.0
 13
-63.829687
 23
-40.977115
 33
0.0
210
0.0
220
0.0
230
-1.0
  0
LINE
  5
311
330
4D2
100
AcDbEntity
  8
LEGEND
  6
Continuous
 62
     7
370
    13
100
AcDbLine
 10
63.940885
 20
-40.618458
 30
0.0
 11
63.681062
 21
-40.694865
 31
0.0
  0
LINE
  5
312
330
4D2
100
AcDbEntity
  8
LEGEND
  6
Continuous
 62
     7
370
    13
100
AcDbLine
 10
63.869521
 20
-41.007344
 30
0.0
 11
63.654323
 21
-40.844083
 31
0.0
  0
ARC
  5
313
330
4D2
100
AcDbEntity
  8
LEGEND
  6
Continuous
 62
     7
370
    13
100
AcDbCircle
 10
63.520035
 20
-40.742219
 30
0.0
 40
0.3886656865259905
100
AcDbArc
 50
357.639117
 51
11.963306
  0
ARC
  5
314
330
4D2
100
AcDbEntity
  8
LEGEND
  6
Continuous
 62
     7
370
    13
100
AcDbCircle
 10
63.520035
 20
-40.742219
 30
0.0
 40
0.3886656865259905
100
AcDbArc
 50
327.239903
 51
345.188447
  0
SOLID
  5
316
330
4D2
100
AcDbEntity
  8
LEGEND
  6
Continuous
 62
     7
370
    13
100
AcDbTrace
 10
-63.782417
 20
-40.69599
 30
0.0
 11
-63.792146
 21
-40.693708
 31
0.0
 12
-63.780427
 22
-40.665646
 32
0.0
 13
-63.780427
 23
-40.665646
 33
0.0
210
0.0
220
0.0
230
-1.0
  0
SOLID
  5
317
330
4D2
100
AcDbEntity
  8
LEGEND
  6
Continuous
 62
     7
370
    13
100
AcDbTrace
 10
-63.785927
 20
-40.758969
 30
0.0
 11
-63.795854
 21
-40.760156
 31
0.0
 12
-63.787323
 22
-40.789344
 32
0.0
 13
-63.787323
 23
-40.789344
 33
0.0
210
0.0
220
0.0
230
-1.0
  0
ARC
  5
318
330
4D2
100
AcDbEntity
  8
LEGEND
  6
Continuous
 62
     7
370
    13
100
AcDbCircle
 10
63.520035
 20
-40.742219
 30
0.0
 40
0.2714123644219802
100
AcDbArc
 50
356.336806
 51
10.050453
  0
SOLID
  5
31A
330
4D2
100
AcDbEntity
  8
LEGEND
  6
Continuous
 62
     7
370
    13
100
AcDbTrace
 10
63.780292
 20
-40.81825
 30
0.0
 11
63.790031
 21
-40.820521
 31
0.0
 12
63.791969
 22
-40.790167
 32
0.0
 13
63.791969
 23
-40.790167
 33
0.0
  0
SOLID
  5
31B
330
4D2
100
AcDbEntity
  8
LEGEND
  6
Continuous
 62
     7
370
    13
100
AcDbTrace
 10
-63.752688
 20
-40.881448
 30
0.0
 11
-63.760969
 21
-40.887052
 31
0.0
 12
-63.740021
 22
-40.909104
 32
0.0
 13
-63.740021
 23
-40.909104
 33
0.0
210
0.0
220
0.0
230
-1.0
  0
ARC
  5
31C
330
4D2
100
AcDbEntity
  8
LEGEND
  6
Continuous
 62
     7
370
    13
100
AcDbCircle
 10
63.520035
 20
-40.742219
 30
0.0
 40
0.2761238848158669
100
AcDbArc
 50
329.044525
 51
343.771428
  0
SOLID
  5
31E
330
4D2
100
AcDbEntity
  8
LEGEND
  6
Continuous
 62
     7
370
    13
100
AcDbTrace
 10
63.392625
 20
-40.442542
 30
0.0
 11
63.380729
 21
-40.430865
 31
0.0
 12
63.421708
 22
-40.401021
 32
0.0
 13
63.421708
 23
-40.401021
 33
0.0
  0
SOLID
  5
31F
330
4D2
100
AcDbEntity
  8
LEGEND
  6
Continuous
 62
     7
370
    13
100
AcDbTrace
 10
-63.538094
 20
-40.294365
 30
0.0
 11
-63.526198
 21
-40.282688
 31
0.0
 12
-63.497115
 22
-40.324208
 32
0.0
 13
-63.497115
 23
-40.324208
 33
0.0
210
0.0
220
0.0
230
-1.0
  0
LINE
  5
320
330
4D2
100
AcDbEntity
  8
LEGEND
  6
Continuous
 62
     7
370
    13
100
AcDbLine
 10
63.386677
 20
-40.436708
 30
0.0
 11
63.351646
 21
-40.472396
 31
0.0
  0
LINE
  5
321
330
4D2
100
AcDbEntity
  8
LEGEND
  6
Continuous
 62
     7
370
    13
100
AcDbLine
 10
63.532146
 20
-40.288521
 30
0.0
 11
63.567167
 21
-40.252833
 31
0.0
  0
POINT
  5
322
330
4D2
100
AcDbEntity
  8
LEGEND
  6
Continuous
 62
     7
370
    13
100
AcDbPoint
 10
63.506865
 20
-40.330427
 30
0.0
  0
POINT
  5
323
330
4D2
100
AcDbEntity
  8
LEGEND
  6
Continuous
 62
     7
370
    13
100
AcDbPoint
 10
63.437677
 20
-40.412885
 30
0.0
  0
ARC
  5
324
330
4D2
100
AcDbEntity
  8
_0
  6
Continuous
 62
     7
370
    13
100
AcDbCircle
 10
63.150703
 20
-40.677095
 30
0.0
 40
0.3868557791531778
100
AcDbArc
 50
300.099906
 51
50.0
  0
ARC
  5
325
330
4D2
100
AcDbEntity
  8
_0
  6
Continuous
 62
     7
370
    13
100
AcDbCircle
 10
63.524021
 20
-40.541383
 30
0.0
 40
0.0100008
100
AcDbArc
 50
136.387258
 51
262.815953
  0
ARC
  5
326
330
4D2
100
AcDbEntity
  8
_0
  6
Continuous
 62
     7
370
    13
100
AcDbCircle
 10
63.510642
 20
-40.845108
 30
0.0
 40
0.0100008
100
AcDbArc
 50
91.387258
 51
217.815953
  0
ARC
  5
327
330
4D2
100
AcDbEntity
  8
_0
  6
Continuous
 62
     7
370
    13
100
AcDbCircle
 10
63.608156
 20
-40.822739
 30
0.0
 40
0.0100008
100
AcDbArc
 50
271.387258
 51
342.5
  0
ARC
  5
328
330
4D2
100
AcDbEntity
  8
_0
  6
Continuous
 62
     7
370
    13
100
AcDbCircle
 10
63.608441
 20
-40.821836
 30
0.0
 40
0.0100008
100
AcDbArc
 50
342.5
 51
52.815953
  0
ARC
  5
329
330
4D2
100
AcDbEntity
  8
_0
  6
Continuous
 62
     7
370
    13
100
AcDbCircle
 10
63.541862
 20
-40.746224
 30
0.0
 40
0.0100008
100
AcDbArc
 50
106.387258
 51
232.815953
  0
ARC
  5
32A
330
4D2
100
AcDbEntity
  8
_0
  6
Continuous
 62
     7
370
    13
100
AcDbCircle
 10
63.630264
 20
-40.699379
 30
0.0
 40
0.0100008
100
AcDbArc
 50
286.387258
 51
357.5
  0
ARC
  5
32B
330
4D2
100
AcDbEntity
  8
_0
  6
Continuous
 62
     7
370
    13
100
AcDbCircle
 10
63.619486
 20
-40.573576
 30
0.0
 40
0.0100008
100
AcDbArc
 50
12.5
 51
82.815953
  0
ARC
  5
32C
330
4D2
100
AcDbEntity
  8
_0
  6
Continuous
 62
     7
370
    13
100
AcDbCircle
 10
63.619691
 20
-40.5745
 30
0.0
 40
0.0100008
100
AcDbArc
 50
301.387258
 51
12.5
  0
ARC
  5
32D
330
4D2
100
AcDbEntity
  8
LEGEND
  6
Continuous
 62
     7
370
    13
100
AcDbCircle
 10
63.546426
 20
-40.642629
 30
0.0
 40
0.0100008
100
AcDbArc
 50
121.387258
 51
247.815953
  0
ARC
  5
32E
330
4D2
100
AcDbEntity
  8
_0
  6
Continuous
 62
     7
370
    13
100
AcDbCircle
 10
63.630306
 20
-40.698433
 30
0.0
 40
0.0100008
100
AcDbArc
 50
357.5
 51
67.815953
  0
ARC
  5
32F
330
4D2
100
AcDbEntity
  8
_0
  6
Continuous
 62
     7
370
    13
100
AcDbCircle
 10
63.150703
 20
-40.677095
 30
0.0
 40
0.494501430392926
100
AcDbArc
 50
280.0
 51
335.0
  0
ARC
  5
330
330
4D2
100
AcDbEntity
  8
_0
  6
Continuous
 62
     7
370
    13
100
AcDbCircle
 10
63.150703
 20
-40.677095
 30
0.0
 40
0.494501430392926
100
AcDbArc
 50
10.0
 51
50.0
  0
LINE
  5
331
330
4D2
100
AcDbEntity
  8
_0
  6
Continuous
 62
     7
370
    13
100
AcDbLine
 10
63.50274
 20
-40.85124
 30
0.0
 11
63.567604
 21
-40.934802
 31
0.0
  0
LINE
  5
332
330
4D2
100
AcDbEntity
  8
_0
  6
Continuous
 62
     7
370
    13
100
AcDbLine
 10
63.516781
 20
-40.534479
 30
0.0
 11
63.589333
 21
-40.458333
 31
0.0
  0
LINE
  5
333
330
4D2
100
AcDbEntity
  8
_0
  6
Continuous
 62
     7
370
    13
100
AcDbLine
 10
63.629458
 20
-40.572333
 30
0.0
 11
63.62925
 21
-40.571406
 31
0.0
  0
LINE
  5
334
330
4D2
100
AcDbEntity
  8
_0
  6
Continuous
 62
     7
370
    13
100
AcDbLine
 10
63.522771
 20
-40.551302
 30
0.0
 11
63.62074
 21
-40.563656
 31
0.0
  0
LINE
  5
335
330
4D2
100
AcDbEntity
  8
_0
  6
Continuous
 62
     7
370
    13
100
AcDbLine
 10
63.541219
 20
-40.634094
 30
0.0
 11
63.624906
 21
-40.583042
 31
0.0
  0
LINE
  5
336
330
4D2
100
AcDbEntity
  8
_0
  6
Continuous
 62
     7
370
    13
100
AcDbLine
 10
63.64025
 20
-40.699813
 30
0.0
 11
63.640302
 21
-40.698865
 31
0.0
  0
LINE
  5
337
330
4D2
100
AcDbEntity
  8
_0
  6
Continuous
 62
     7
370
    13
100
AcDbLine
 10
63.542656
 20
-40.651885
 30
0.0
 11
63.634083
 21
-40.689167
 31
0.0
  0
LINE
  5
338
330
4D2
100
AcDbEntity
  8
_0
  6
Continuous
 62
     7
370
    13
100
AcDbLine
 10
63.539042
 20
-40.736635
 30
0.0
 11
63.633083
 21
-40.708969
 31
0.0
  0
LINE
  5
339
330
4D2
100
AcDbEntity
  8
_0
  6
Continuous
 62
     7
370
    13
100
AcDbLine
 10
63.510396
 20
-40.835115
 30
0.0
 11
63.608396
 21
-40.83274
 31
0.0
  0
LINE
  5
33A
330
4D2
100
AcDbEntity
  8
_0
  6
Continuous
 62
     7
370
    13
100
AcDbLine
 10
63.535823
 20
-40.754198
 30
0.0
 11
63.614479
 21
-40.813865
 31
0.0
  0
LINE
  5
33B
330
4D2
100
AcDbEntity
  8
_0
  6
Continuous
 62
     7
370
    13
100
AcDbLine
 10
63.617698
 20
-40.82574
 30
0.0
 11
63.617979
 21
-40.824844
 31
0.0
  0
LINE
  5
33C
330
4D2
100
AcDbEntity
  8
LEGEND
  6
Continuous
 62
     7
370
    13
100
AcDbLine
 10
63.820781
 20
-40.795271
 30
0.0
 11
63.150698
 21
-40.677094
 31
0.0
  0
LINE
  5
33D
330
4D2
100
AcDbEntity
  8
_0
  6
Continuous
 62
     7
370
    13
100
AcDbLine
 10
63.598875
 20
-40.886083
 30
0.0
 11
63.150698
 21
-40.677094
 31
0.0
  0
LINE
  5
33E
330
4D2
100
AcDbEntity
  8
LEGEND
  6
Continuous
 62
     7
370
    13
100
AcDbLine
 10
63.529052
 20
-41.12799
 30
0.0
 11
63.399365
 21
-40.973448
 31
0.0
  0
SOLID
  5
340
330
4D2
100
AcDbEntity
  8
LEGEND
  6
Continuous
 62
     7
370
    13
100
AcDbTrace
 10
63.218385
 20
-38.766823
 30
0.0
 11
63.216573
 21
-38.783396
 31
0.0
 12
63.267177
 22
-38.780552
 32
0.0
 13
63.267177
 23
-38.780552
 33
0.0
  0
SOLID
  5
341
330
4D2
100
AcDbEntity
  8
LEGEND
  6
Continuous
 62
     7
370
    13
100
AcDbTrace
 10
-63.05124
 20
-38.600437
 30
0.0
 11
-63.034677
 21
-38.602333
 31
0.0
 12
-63.037302
 22
-38.551708
 32
0.0
 13
-63.037302
 23
-38.551708
 33
0.0
210
0.0
220
0.0
230
-1.0
  0
LINE
  5
342
330
4D2
100
AcDbEntity
  8
LEGEND
  6
Continuous
 62
     7
370
    13
100
AcDbLine
 10
63.267177
 20
-38.830552
 30
0.0
 11
63.267177
 21
-38.700312
 31
0.0
  0
LINE
  5
343
330
4D2
100
AcDbEntity
  8
LEGEND
  6
Continuous
 62
     7
370
    13
100
AcDbLine
 10
62.987292
 20
-38.551927
 30
0.0
 11
63.217188
 21
-38.550885
 31
0.0
  0
ARC
  5
344
330
4D2
100
AcDbEntity
  8
LEGEND
  6
Continuous
 62
     7
370
    13
100
AcDbCircle
 10
63.267184
 20
-38.550659
 30
0.0
 40
0.2298899250001781
100
AcDbArc
 50
192.747311
 51
257.512733
  0
SPLINE
  5
345
330
4D2
100
AcDbEntity
  8
_0
  6
Continuous
 62
     7
370
     0
100
AcDbSpline
210
0.0
220
0.0
230
1.0
 70
     8
 71
     3
 72
    14
 73
    10
 74
     0
 42
0.0000000001
 43
0.00000001
 40
0.0
 40
0.0
 40
0.0
 40
0.0
 40
0.1428571428571428
 40
0.2857142857142857
 40
0.4285714285714285
 40
0.5714285714285714
 40
0.7142857142857142
 40
0.857142857142857
 40
1.0
 40
1.0
 40
1.0
 40
1.0
 10
59.40490625
 20
-38.51042708333333
 30
0.0
 10
59.38062499999999
 20
-38.51620833333333
 30
0.0
 10
59.37871875
 20
-38.52671875
 30
0.0
 10
59.39395833333333
 20
-38.53701041666667
 30
0.0
 10
59.39608333333333
 20
-38.54333333333333
 30
0.0
 10
59.38882291666666
 20
-38.5704375
 30
0.0
 10
59.38382291666667
 20
-38.57484375
 30
0.0
 10
59.36546875
 20
-38.57614583333334
 30
0.0
 10
59.361875
 20
-38.58619791666666
 30
0.0
 10
59.38
 20
-38.60334375
 30
0.0
  0
LINE
  5
347
330
4D2
100
AcDbEntity
  8
LEGEND
  6
Continuous
 62
     7
370
    13
100
AcDbLine
 10
59.405
 20
-38.790823
 30
0.0
 11
59.405
 21
-38.668333
 31
0.0
  0
LINE
  5
348
330
4D2
100
AcDbEntity
  8
_0
  6
Continuous
 62
     7
370
    13
100
AcDbLine
 10
58.632562
 20
-38.729365
 30
0.0
 11
58.691021
 21
-38.729365
 31
0.0
  0
LINE
  5
349
330
4D2
100
AcDbEntity
  8
_0
  6
Continuous
 62
     7
370
    13
100
AcDbLine
 10
59.405
 20
-38.554167
 30
0.0
 11
59.463458
 21
-38.554167
 31
0.0
  0
SPLINE
  5
34A
330
4D2
100
AcDbEntity
  8
_0
  6
Continuous
 62
     7
370
     0
100
AcDbSpline
210
0.0
220
0.0
230
1.0
 70
     8
 71
     3
 72
    14
 73
    10
 74
     0
 42
0.0000000001
 43
0.00000001
 40
0.0
 40
0.0
 40
0.0
 40
0.0
 40
0.1428571428571428
 40
0.2857142857142857
 40
0.4285714285714285
 40
0.5714285714285714
 40
0.7142857142857142
 40
0.857142857142857
 40
1.0
 40
1.0
 40
1.0
 40
1.0
 10
60.19964583333333
 20
-38.48960416666667
 30
0.0
 10
60.1746875
 20
-38.48890625
 30
0.0
 10
60.170125
 20
-38.4985625
 30
0.0
 10
60.1821875
 20
-38.51245833333333
 30
0.0
 10
60.18260416666666
 20
-38.51910416666666
 30
0.0
 10
60.16857291666666
 20
-38.54341666666667
 30
0.0
 10
60.16260416666667
 20
-38.54636458333333
 30
0.0
 10
60.14454166666666
 20
-38.542875
 30
0.0
 10
60.13846875
 20
-38.55165625
 30
0.0
 10
60.15154166666667
 20
-38.57291666666666
 30
0.0
  0
LINE
  5
34C
330
4D2
100
AcDbEntity
  8
LEGEND
  6
Continuous
 62
     7
370
    13
100
AcDbLine
 10
60.177437
 20
-38.781948
 30
0.0
 11
60.177437
 21
-38.671854
 31
0.0
  0
SPLINE
  5
34D
330
4D2
100
AcDbEntity
  8
_0
  6
Continuous
 62
     7
370
     0
100
AcDbSpline
210
0.0
220
0.0
230
1.0
 70
     8
 71
     3
 72
    14
 73
    10
 74
     0
 42
0.0000000001
 43
0.00000001
 40
0.0
 40
0.0
 40
0.0
 40
0.0
 40
0.1428571428571428
 40
0.2857142857142857
 40
0.4285714285714285
 40
0.5714285714285714
 40
0.7142857142857142
 40
0.857142857142857
 40
1.0
 40
1.0
 40
1.0
 40
1.0
 10
60.99122916666666
 20
-38.49654166666667
 30
0.0
 10
60.96730208333333
 20
-38.48941666666666
 30
0.0
 10
60.96040625
 20
-38.49755208333333
 30
0.0
 10
60.96844791666666
 20
-38.51409375
 30
0.0
 10
60.96714583333333
 20
-38.520625
 30
0.0
 10
60.94729166666666
 20
-38.54047916666666
 30
0.0
 10
60.94076041666666
 20
-38.54178125
 30
0.0
 10
60.92421875
 20
-38.53373958333333
 30
0.0
 10
60.91607291666666
 20
-38.54064583333333
 30
0.0
 10
60.92320833333333
 20
-38.5645625
 30
0.0
  0
LINE
  5
34F
330
4D2
100
AcDbEntity
  8
LEGEND
  6
Continuous
 62
     7
370
    13
100
AcDbLine
 10
60.949875
 20
-38.760635
 30
0.0
 11
60.949875
 21
-38.6645
 31
0.0
  0
LINE
  5
350
330
4D2
100
AcDbEntity
  8
_0
  6
Continuous
 62
     7
370
    13
100
AcDbLine
 10
60.177437
 20
-38.554167
 30
0.0
 11
60.235896
 21
-38.554167
 31
0.0
  0
SPLINE
  5
351
330
4D2
100
AcDbEntity
  8
_0
  6
Continuous
 62
     7
370
     0
100
AcDbSpline
210
0.0
220
0.0
230
1.0
 70
     8
 71
     3
 72
    14
 73
    10
 74
     0
 42
0.0000000001
 43
0.00000001
 40
0.0
 40
0.0
 40
0.0
 40
0.0
 40
0.1428571428571428
 40
0.2857142857142857
 40
0.4285714285714285
 40
0.5714285714285714
 40
0.7142857142857142
 40
0.857142857142857
 40
1.0
 40
1.0
 40
1.0
 40
1.0
 10
61.78027083333333
 20
-38.49952083333334
 30
0.0
 10
61.75901041666666
 20
-38.48644791666666
 30
0.0
 10
61.75022916666666
 20
-38.49252083333333
 30
0.0
 10
61.75371875
 20
-38.51058333333333
 30
0.0
 10
61.75076041666667
 20
-38.51655208333333
 30
0.0
 10
61.72645833333333
 20
-38.53059375
 30
0.0
 10
61.71980208333333
 20
-38.53016666666667
 30
0.0
 10
61.70590625
 20
-38.51811458333333
 30
0.0
 10
61.69626041666667
 20
-38.52267708333333
 30
0.0
 10
61.69694791666667
 20
-38.547625
 30
0.0
  0
LINE
  5
353
330
4D2
100
AcDbEntity
  8
_0
  6
Continuous
 62
     7
370
    13
100
AcDbLine
 10
60.949875
 20
-38.554167
 30
0.0
 11
61.008333
 21
-38.554167
 31
0.0
  0
LINE
  5
354
330
4D2
100
AcDbEntity
  8
LEGEND
  6
Continuous
 62
     7
370
    13
100
AcDbLine
 10
61.722198
 20
-38.711937
 30
0.0
 11
61.722198
 21
-38.661927
 31
0.0
  0
LINE
  5
355
330
4D2
100
AcDbEntity
  8
LEGEND
  6
Continuous
 62
     7
370
    13
100
AcDbLine
 10
62.49475
 20
-38.776688
 30
0.0
 11
62.49475
 21
-38.680552
 31
0.0
  0
LINE
  5
356
330
4D2
100
AcDbEntity
  8
_0
  6
Continuous
 62
     7
370
    13
100
AcDbLine
 10
61.722313
 20
-38.554167
 30
0.0
 11
61.78076
 21
-38.554167
 31
0.0
  0
LINE
  5
357
330
4D2
100
AcDbEntity
  8
_0
  6
Continuous
 62
     7
370
    13
100
AcDbLine
 10
62.49475
 20
-38.554167
 30
0.0
 11
62.553198
 21
-38.554167
 31
0.0
  0
LINE
  5
358
330
4D2
100
AcDbEntity
  8
_0
  6
Continuous
 62
     7
370
    13
100
AcDbLine
 10
62.503094
 20
-38.554125
 30
0.0
 11
62.49475
 21
-38.554167
 31
0.0
  0
SPLINE
  5
359
330
4D2
100
AcDbEntity
  8
_0
  6
Continuous
 62
     7
370
     0
100
AcDbSpline
210
0.0
220
0.0
230
1.0
 70
     8
 71
     3
 72
    14
 73
    10
 74
     0
 42
0.0000000001
 43
0.00000001
 40
0.0
 40
0.0
 40
0.0
 40
0.0
 40
0.1428571428571428
 40
0.2857142857142857
 40
0.4285714285714285
 40
0.5714285714285714
 40
0.7142857142857142
 40
0.857142857142857
 40
1.0
 40
1.0
 40
1.0
 40
1.0
 10
62.56536458333333
 20
-38.51607291666667
 30
0.0
 10
62.54821875
 20
-38.4979375
 30
0.0
 10
62.53816666666666
 20
-38.50154166666667
 30
0.0
 10
62.53686458333333
 20
-38.51988541666667
 30
0.0
 10
62.53245833333333
 20
-38.52488541666666
 30
0.0
 10
62.50535416666666
 20
-38.53215625
 30
0.0
 10
62.49903124999999
 20
-38.53002083333333
 30
0.0
 10
62.48872916666667
 20
-38.51478125
 30
0.0
 10
62.47822916666667
 20
-38.5166875
 30
0.0
 10
62.47244791666667
 20
-38.54096875
 30
0.0
  0
SPLINE
  5
35B
330
4D2
100
AcDbEntity
  8
_0
  6
Continuous
 62
     7
370
     0
100
AcDbSpline
210
0.0
220
0.0
230
1.0
 70
     8
 71
     3
 72
    14
 73
    10
 74
     0
 42
0.0000000001
 43
0.00000001
 40
0.0
 40
0.0
 40
0.0
 40
0.0
 40
0.1428571428571428
 40
0.2857142857142857
 40
0.4285714285714285
 40
0.5714285714285714
 40
0.7142857142857142
 40
0.857142857142857
 40
1.0
 40
1.0
 40
1.0
 40
1.0
 10
63.34634375
 20
-38.52675
 30
0.0
 10
63.33446875
 20
-38.50480208333333
 30
0.0
 10
63.32383333333333
 20
-38.50567708333333
 30
0.0
 10
63.31783333333333
 20
-38.5230625
 30
0.0
 10
63.31228125
 20
-38.52675
 30
0.0
 10
63.28420833333333
 20
-38.52675
 30
0.0
 10
63.27866666666667
 20
-38.5230625
 30
0.0
 10
63.27265625
 20
-38.50567708333333
 30
0.0
 10
63.26202083333333
 20
-38.50480208333333
 30
0.0
 10
63.25014583333333
 20
-38.52675
 30
0.0
  0
LINE
  5
35D
330
4D2
100
AcDbEntity
  8
_0
  6
Continuous
 62
     7
370
    13
100
AcDbLine
 10
57.092073
 20
-39.295604
 30
0.0
 11
57.092073
 21
-38.645552
 31
0.0
  0
LINE
  5
35E
330
4D2
100
AcDbEntity
  8
_0
  6
Continuous
 62
     7
370
    13
100
AcDbLine
 10
56.792052
 20
-39.295604
 30
0.0
 11
57.092073
 21
-39.295604
 31
0.0
  0
LINE
  5
35F
330
4D2
100
AcDbEntity
  8
_0
  6
Continuous
 62
     7
370
    13
100
AcDbLine
 10
56.792052
 20
-39.295604
 30
0.0
 11
56.792052
 21
-38.645552
 31
0.0
  0
LINE
  5
360
330
4D2
100
AcDbEntity
  8
_0
  6
Continuous
 62
     7
370
    13
100
AcDbLine
 10
56.792052
 20
-38.645552
 30
0.0
 11
57.092073
 21
-38.645552
 31
0.0
  0
LINE
  5
361
330
4D2
100
AcDbEntity
  8
_0
  6
Continuous
 62
     7
370
    13
100
AcDbLine
 10
56.949375
 20
-38.970573
 30
0.0
 11
56.977062
 21
-38.970573
 31
0.0
  0
LINE
  5
362
330
4D2
100
AcDbEntity
  8
_0
  6
Continuous
 62
     7
370
    13
100
AcDbLine
 10
57.017073
 20
-39.038271
 30
0.0
 11
57.017073
 21
-39.010573
 31
0.0
  0
CIRCLE
  5
363
330
4D2
100
AcDbEntity
  8
_0
  6
Continuous
 62
     7
370
    13
100
AcDbCircle
 10
57.017069
 20
-38.970574
 30
0.0
 40
0.025002
  0
LINE
  5
366
330
4D2
100
AcDbEntity
  8
_0
  6
Continuous
 62
     7
370
    13
100
AcDbLine
 10
57.017073
 20
-38.930573
 30
0.0
 11
57.017073
 21
-38.902875
 31
0.0
  0
LINE
  5
367
330
4D2
100
AcDbEntity
  8
_0
  6
Continuous
 62
     7
370
    13
100
AcDbLine
 10
57.057073
 20
-38.970573
 30
0.0
 11
57.08476
 21
-38.970573
 31
0.0
  0
LINE
  5
368
330
4D2
100
AcDbEntity
  8
LEGEND
  6
Continuous
 62
     7
370
    13
100
AcDbLine
 10
56.742042
 20
-38.645552
 30
0.0
 11
56.56
 21
-38.645552
 31
0.0
  0
LINE
  5
369
330
4D2
100
AcDbEntity
  8
LEGEND
  6
Continuous
 62
     7
370
    13
100
AcDbLine
 10
56.742042
 20
-39.295604
 30
0.0
 11
56.56
 21
-39.295604
 31
0.0
  0
LINE
  5
36A
330
4D2
100
AcDbEntity
  8
LEGEND
  6
Continuous
 62
     7
370
    13
100
AcDbLine
 10
56.61
 20
-38.695552
 30
0.0
 11
56.61
 21
-39.245594
 31
0.0
  0
SOLID
  5
36B
330
4D2
100
AcDbEntity
  8
LEGEND
  6
Continuous
 62
     7
370
    13
100
AcDbTrace
 10
56.618344
 20
-38.695552
 30
0.0
 11
56.601667
 21
-38.695552
 31
0.0
 12
56.61
 22
-38.645552
 32
0.0
 13
56.61
 23
-38.645552
 33
0.0
  0
SOLID
  5
36C
330
4D2
100
AcDbEntity
  8
LEGEND
  6
Continuous
 62
     7
370
    13
100
AcDbTrace
 10
56.618344
 20
-39.245594
 30
0.0
 11
56.601667
 21
-39.245594
 31
0.0
 12
56.61
 22
-39.295604
 32
0.0
 13
56.61
 23
-39.295604
 33
0.0
  0
LINE
  5
36E
330
4D2
100
AcDbEntity
  8
LEGEND
  6
Continuous
 62
     7
370
    13
100
AcDbLine
 10
57.107073
 20
-38.970573
 30
0.0
 11
57.341469
 21
-38.970573
 31
0.0
  0
LINE
  5
36F
330
4D2
100
AcDbEntity
  8
LEGEND
  6
Continuous
 62
     7
370
    13
100
AcDbLine
 10
57.142083
 20
-39.295604
 30
0.0
 11
57.341469
 21
-39.295604
 31
0.0
  0
LINE
  5
370
330
4D2
100
AcDbEntity
  8
LEGEND
  6
Continuous
 62
     7
370
    13
100
AcDbLine
 10
57.291469
 20
-39.020583
 30
0.0
 11
57.291469
 21
-39.245594
 31
0.0
  0
SOLID
  5
371
330
4D2
100
AcDbEntity
  8
LEGEND
  6
Continuous
 62
     7
370
    13
100
AcDbTrace
 10
57.299802
 20
-39.020583
 30
0.0
 11
57.283135
 21
-39.020583
 31
0.0
 12
57.291469
 22
-38.970573
 32
0.0
 13
57.291469
 23
-38.970573
 33
0.0
  0
SOLID
  5
372
330
4D2
100
AcDbEntity
  8
LEGEND
  6
Continuous
 62
     7
370
    13
100
AcDbTrace
 10
57.299802
 20
-39.245594
 30
0.0
 11
57.283135
 21
-39.245594
 31
0.0
 12
57.291469
 22
-39.295604
 32
0.0
 13
57.291469
 23
-39.295604
 33
0.0
  0
LINE
  5
374
330
4D2
100
AcDbEntity
  8
LEGEND
  6
Continuous
 62
     7
370
    13
100
AcDbLine
 10
57.092073
 20
-39.345604
 30
0.0
 11
57.092073
 21
-39.536417
 31
0.0
  0
LINE
  5
375
330
4D2
100
AcDbEntity
  8
LEGEND
  6
Continuous
 62
     7
370
    13
100
AcDbLine
 10
56.792052
 20
-39.345604
 30
0.0
 11
56.792052
 21
-39.536417
 31
0.0
  0
LINE
  5
376
330
4D2
100
AcDbEntity
  8
LEGEND
  6
Continuous
 62
     7
370
    13
100
AcDbLine
 10
57.042073
 20
-39.486406
 30
0.0
 11
56.842052
 21
-39.486406
 31
0.0
  0
SOLID
  5
377
330
4D2
100
AcDbEntity
  8
LEGEND
  6
Continuous
 62
     7
370
    13
100
AcDbTrace
 10
57.042073
 20
-39.49474
 30
0.0
 11
57.042073
 21
-39.478073
 31
0.0
 12
57.092073
 22
-39.486406
 32
0.0
 13
57.092073
 23
-39.486406
 33
0.0
  0
SOLID
  5
378
330
4D2
100
AcDbEntity
  8
LEGEND
  6
Continuous
 62
     7
370
    13
100
AcDbTrace
 10
56.842052
 20
-39.49474
 30
0.0
 11
56.842052
 21
-39.478073
 31
0.0
 12
56.792052
 22
-39.486406
 32
0.0
 13
56.792052
 23
-39.486406
 33
0.0
  0
LINE
  5
37A
330
4D2
100
AcDbEntity
  8
LEGEND
  6
Continuous
 62
     7
370
    13
100
AcDbLine
 10
57.092073
 20
-38.595542
 30
0.0
 11
57.092073
 21
-38.423427
 31
0.0
  0
LINE
  5
37B
330
4D2
100
AcDbEntity
  8
LEGEND
  6
Continuous
 62
     7
370
    13
100
AcDbLine
 10
57.017073
 20
-38.852875
 30
0.0
 11
57.017073
 21
-38.423427
 31
0.0
  0
LINE
  5
37C
330
4D2
100
AcDbEntity
  8
LEGEND
  6
Continuous
 62
     7
370
    13
100
AcDbLine
 10
56.967062
 20
-38.473427
 30
0.0
 11
56.917063
 21
-38.473427
 31
0.0
  0
LINE
  5
37D
330
4D2
100
AcDbEntity
  8
LEGEND
  6
Continuous
 62
     7
370
    13
100
AcDbLine
 10
57.142083
 20
-38.473427
 30
0.0
 11
57.192083
 21
-38.473427
 31
0.0
  0
SOLID
  5
37E
330
4D2
100
AcDbEntity
  8
LEGEND
  6
Continuous
 62
     7
370
    13
100
AcDbTrace
 10
56.967062
 20
-38.48176
 30
0.0
 11
56.967062
 21
-38.465094
 31
0.0
 12
57.017073
 22
-38.473427
 32
0.0
 13
57.017073
 23
-38.473427
 33
0.0
  0
SOLID
  5
37F
330
4D2
100
AcDbEntity
  8
LEGEND
  6
Continuous
 62
     7
370
    13
100
AcDbTrace
 10
57.142083
 20
-38.48176
 30
0.0
 11
57.142083
 21
-38.465094
 31
0.0
 12
57.092073
 22
-38.473427
 32
0.0
 13
57.092073
 23
-38.473427
 33
0.0
  0
SOLID
  5
383
330
4D2
100
AcDbEntity
  8
TITLE
  6
Continuous
 62
     7
370
    13
100
AcDbTrace
 10
-57.061229
 20
-38.904344
 30
0.0
 11
-57.046229
 21
-38.897052
 31
0.0
 12
-57.031865
 22
-38.945677
 32
0.0
 13
-57.031865
 23
-38.945677
 33
0.0
210
0.0
220
0.0
230
-1.0
  0
LINE
  5
384
330
4D2
100
AcDbEntity
  8
TITLE
  6
Continuous
 62
     7
370
    13
100
AcDbLine
 10
57.053729
 20
-38.900708
 30
0.0
 11
57.158062
 21
-38.686115
 31
0.0
  0
LINE
  5
385
330
4D2
100
AcDbEntity
  8
TITLE
  6
Continuous
 62
     7
370
    13
100
AcDbLine
 10
57.158062
 20
-38.686115
 30
0.0
 11
57.212146
 21
-38.686115
 31
0.0
  0
SOLID
  5
386
330
4D2
100
AcDbEntity
  8
TITLE
  6
Continuous
 62
     7
370
    13
100
AcDbTrace
 10
56.841594
 20
-38.581427
 30
0.0
 11
56.825333
 21
-38.585062
 31
0.0
 12
56.844375
 22
-38.632042
 32
0.0
 13
56.844375
 23
-38.632042
 33
0.0
  0
LINE
  5
387
330
4D2
100
AcDbEntity
  8
TITLE
  6
Continuous
 62
     7
370
    13
100
AcDbLine
 10
56.833458
 20
-38.58324
 30
0.0
 11
56.775865
 21
-38.325625
 31
0.0
  0
LINE
  5
388
330
4D2
100
AcDbEntity
  8
TITLE
  6
Continuous
 62
     7
370
    13
100
AcDbLine
 10
56.775865
 20
-38.325625
 30
0.0
 11
56.876354
 21
-38.325625
 31
0.0
  0
LINE
  5
38A
330
4D2
100
AcDbEntity
  8
_0
  6
Continuous
 62
     7
370
    13
100
AcDbLine
 10
58.076083
 20
-39.25374
 30
0.0
 11
64.001646
 21
-39.25374
 31
0.0
  0
LINE
  5
38B
330
4D2
100
AcDbEntity
  8
_0
  6
Continuous
 62
     7
370
    13
100
AcDbLine
 10
58.574958
 20
-38.554115
 30
0.0
 11
58.691021
 21
-38.554115
 31
0.0
  0
LINE
  5
38C
330
4D2
100
AcDbEntity
  8
_0
  6
DGN Style 2
 62
     7
370
    13
100
AcDbLine
 10
58.640917
 20
-39.827844
 30
0.0
 11
58.682667
 21
-39.827844
 31
0.0
  0
SPLINE
  5
38D
330
4D2
100
AcDbEntity
  8
_0
  6
Continuous
 62
     7
370
     0
100
AcDbSpline
210
0.0
220
0.0
230
1.0
 70
     8
 71
     3
 72
    11
 73
     7
 74
     0
 42
0.0000000001
 43
0.00000001
 40
0.0
 40
0.0
 40
0.0
 40
0.0
 40
0.25
 40
0.5
 40
0.75
 40
1.0
 40
1.0
 40
1.0
 40
1.0
 10
58.66179166666667
 20
-38.99278125
 30
0.0
 10
60.20666666666666
 20
-39.02409375
 30
0.0
 10
60.97910416666667
 20
-39.07628125
 30
0.0
 10
62.52397916666666
 20
-39.12847916666666
 30
0.0
 10
63.29641666666667
 20
-39.19110416666666
 30
0.0
 10
63.37991666666667
 20
-39.2078125
 30
0.0
 10
63.46342708333333
 20
-39.25373958333333
 30
0.0
  0
LINE
  5
38F
330
4D2
100
AcDbEntity
  8
_0
  6
Continuous
 62
     7
370
    13
100
AcDbLine
 10
58.364135
 20
-39.013583
 30
0.0
 11
60.451979
 21
-39.043375
 31
0.0
  0
LINE
  5
390
330
4D2
100
AcDbEntity
  8
_0
  6
Continuous
 62
     7
370
    13
100
AcDbLine
 10
58.364135
 20
-39.083208
 30
0.0
 11
60.570271
 21
-39.151271
 31
0.0
  0
LINE
  5
391
330
4D2
100
AcDbEntity
  8
_0
  6
Continuous
 62
     7
370
    13
100
AcDbLine
 10
58.364135
 20
-39.113802
 30
0.0
 11
60.206667
 21
-39.140094
 31
0.0
  0
SPLINE
  5
392
330
4D2
100
AcDbEntity
  8
_0
  6
Continuous
 62
     7
370
     0
100
AcDbSpline
210
0.0
220
0.0
230
1.0
 70
     8
 71
     3
 72
    13
 73
     9
 74
     0
 42
0.0000000001
 43
0.00000001
 40
0.0
 40
0.0
 40
0.0
 40
0.0
 40
0.1666666666666667
 40
0.3333333333333333
 40
0.5
 40
0.6666666666666666
 40
0.8333333333333333
 40
1.0
 40
1.0
 40
1.0
 40
1.0
 10
60.20523958333333
 20
-39.14008333333333
 30
0.0
 10
61.75154166666667
 20
-39.19110416666666
 30
0.0
 10
62.52397916666666
 20
-39.21198958333333
 30
0.0
 10
62.88791666666666
 20
-39.21426041666667
 30
0.0
 10
63.31476041666667
 20
-39.22561458333333
 30
0.0
 10
63.34479166666667
 20
-39.23188541666666
 30
0.0
 10
63.37141666666666
 20
-39.2394375
 30
0.0
 10
63.39671875
 20
-39.24882291666667
 30
0.0
 10
63.40748958333333
 20
-39.25373958333333
 30
0.0
  0
LINE
  5
394
330
4D2
100
AcDbEntity
  8
_0
  6
Continuous
 62
     7
370
    13
100
AcDbLine
 10
58.640917
 20
-39.25374
 30
0.0
 11
58.640917
 21
-38.992781
 31
0.0
  0
LINE
  5
395
330
4D2
100
AcDbEntity
  8
_0
  6
Continuous
 62
     7
370
    13
100
AcDbLine
 10
58.682667
 20
-39.25374
 30
0.0
 11
58.682667
 21
-38.992781
 31
0.0
  0
LINE
  5
396
330
4D2
100
AcDbEntity
  8
_0
  6
Continuous
 62
     7
370
    13
100
AcDbLine
 10
59.455104
 20
-39.25374
 30
0.0
 11
59.455104
 21
-39.010521
 31
0.0
  0
LINE
  5
397
330
4D2
100
AcDbEntity
  8
_0
  6
Continuous
 62
     7
370
    13
100
AcDbLine
 10
59.413354
 20
-39.25374
 30
0.0
 11
59.413354
 21
-39.010521
 31
0.0
  0
LINE
  5
398
330
4D2
100
AcDbEntity
  8
_0
  6
Continuous
 62
     7
370
    13
100
AcDbLine
 10
60.227542
 20
-39.25374
 30
0.0
 11
60.227542
 21
-39.033969
 31
0.0
  0
LINE
  5
399
330
4D2
100
AcDbEntity
  8
_0
  6
Continuous
 62
     7
370
    13
100
AcDbLine
 10
60.185792
 20
-39.25374
 30
0.0
 11
60.185792
 21
-39.033969
 31
0.0
  0
LINE
  5
39A
330
4D2
100
AcDbEntity
  8
_0
  6
Continuous
 62
     7
370
    13
100
AcDbLine
 10
60.999979
 20
-39.25374
 30
0.0
 11
60.999979
 21
-39.06874
 31
0.0
  0
LINE
  5
39B
330
4D2
100
AcDbEntity
  8
_0
  6
Continuous
 62
     7
370
    13
100
AcDbLine
 10
60.958229
 20
-39.25374
 30
0.0
 11
60.958229
 21
-39.06874
 31
0.0
  0
LINE
  5
39C
330
4D2
100
AcDbEntity
  8
_0
  6
Continuous
 62
     7
370
    13
100
AcDbLine
 10
61.772417
 20
-39.25374
 30
0.0
 11
61.772417
 21
-39.102385
 31
0.0
  0
LINE
  5
39D
330
4D2
100
AcDbEntity
  8
_0
  6
Continuous
 62
     7
370
    13
100
AcDbLine
 10
61.730667
 20
-39.25374
 30
0.0
 11
61.730667
 21
-39.102385
 31
0.0
  0
LINE
  5
39E
330
4D2
100
AcDbEntity
  8
_0
  6
Continuous
 62
     7
370
    13
100
AcDbLine
 10
62.544854
 20
-39.25374
 30
0.0
 11
62.544854
 21
-39.136938
 31
0.0
  0
LINE
  5
39F
330
4D2
100
AcDbEntity
  8
_0
  6
Continuous
 62
     7
370
    13
100
AcDbLine
 10
62.503094
 20
-39.25374
 30
0.0
 11
62.503094
 21
-39.136938
 31
0.0
  0
LINE
  5
3A0
330
4D2
100
AcDbEntity
  8
_0
  6
Continuous
 62
     7
370
    13
100
AcDbLine
 10
63.275531
 20
-39.25374
 30
0.0
 11
63.275531
 21
-39.197417
 31
0.0
  0
LINE
  5
3A1
330
4D2
100
AcDbEntity
  8
_0
  6
Continuous
 62
     7
370
    13
100
AcDbLine
 10
63.317292
 20
-39.25374
 30
0.0
 11
63.317292
 21
-39.197417
 31
0.0
  0
LINE
  5
3A2
330
4D2
100
AcDbEntity
  8
_0
  6
DGN Style 2
 62
     7
370
    13
100
AcDbLine
 10
58.640917
 20
-39.25374
 30
0.0
 11
58.640917
 21
-39.827844
 31
0.0
  0
LINE
  5
3A3
330
4D2
100
AcDbEntity
  8
_0
  6
DGN Style 2
 62
     7
370
    13
100
AcDbLine
 10
58.682667
 20
-39.25374
 30
0.0
 11
58.682667
 21
-39.827844
 31
0.0
  0
LINE
  5
3A4
330
4D2
100
AcDbEntity
  8
_0
  6
DGN Style 2
 62
     7
370
    13
100
AcDbLine
 10
59.413354
 20
-39.25374
 30
0.0
 11
59.413354
 21
-39.827844
 31
0.0
  0
LINE
  5
3A5
330
4D2
100
AcDbEntity
  8
_0
  6
DGN Style 2
 62
     7
370
    13
100
AcDbLine
 10
59.455104
 20
-39.25374
 30
0.0
 11
59.455104
 21
-39.827844
 31
0.0
  0
LINE
  5
3A6
330
4D2
100
AcDbEntity
  8
_0
  6
DGN Style 2
 62
     7
370
    13
100
AcDbLine
 10
60.185792
 20
-39.25374
 30
0.0
 11
60.185792
 21
-39.827844
 31
0.0
  0
LINE
  5
3A7
330
4D2
100
AcDbEntity
  8
_0
  6
DGN Style 2
 62
     7
370
    13
100
AcDbLine
 10
60.227542
 20
-39.25374
 30
0.0
 11
60.227542
 21
-39.827844
 31
0.0
  0
LINE
  5
3A8
330
4D2
100
AcDbEntity
  8
_0
  6
DGN Style 2
 62
     7
370
    13
100
AcDbLine
 10
60.958229
 20
-39.25374
 30
0.0
 11
60.958229
 21
-39.827844
 31
0.0
  0
LINE
  5
3A9
330
4D2
100
AcDbEntity
  8
_0
  6
DGN Style 2
 62
     7
370
    13
100
AcDbLine
 10
60.999979
 20
-39.25374
 30
0.0
 11
60.999979
 21
-39.827844
 31
0.0
  0
LINE
  5
3AA
330
4D2
100
AcDbEntity
  8
_0
  6
DGN Style 2
 62
     7
370
    13
100
AcDbLine
 10
61.730667
 20
-39.25374
 30
0.0
 11
61.730667
 21
-39.827844
 31
0.0
  0
LINE
  5
3AB
330
4D2
100
AcDbEntity
  8
_0
  6
DGN Style 2
 62
     7
370
    13
100
AcDbLine
 10
61.772417
 20
-39.25374
 30
0.0
 11
61.772417
 21
-39.827844
 31
0.0
  0
LINE
  5
3AC
330
4D2
100
AcDbEntity
  8
_0
  6
DGN Style 2
 62
     7
370
    13
100
AcDbLine
 10
62.503094
 20
-39.25374
 30
0.0
 11
62.503094
 21
-39.827844
 31
0.0
  0
LINE
  5
3AD
330
4D2
100
AcDbEntity
  8
_0
  6
DGN Style 2
 62
     7
370
    13
100
AcDbLine
 10
62.544854
 20
-39.25374
 30
0.0
 11
62.544854
 21
-39.827844
 31
0.0
  0
LINE
  5
3AE
330
4D2
100
AcDbEntity
  8
_0
  6
DGN Style 2
 62
     7
370
    13
100
AcDbLine
 10
63.275531
 20
-39.25374
 30
0.0
 11
63.275531
 21
-39.827844
 31
0.0
  0
LINE
  5
3AF
330
4D2
100
AcDbEntity
  8
_0
  6
DGN Style 2
 62
     7
370
    13
100
AcDbLine
 10
63.317292
 20
-39.25374
 30
0.0
 11
63.317292
 21
-39.827844
 31
0.0
  0
LINE
  5
3B0
330
4D2
100
AcDbEntity
  8
_0
  6
Continuous
 62
     7
370
    13
100
AcDbLine
 10
59.405
 20
-39.25374
 30
0.0
 11
59.405
 21
-39.010521
 31
0.0
  0
LINE
  5
3B1
330
4D2
100
AcDbEntity
  8
_0
  6
Continuous
 62
     7
370
    13
100
AcDbLine
 10
59.463458
 20
-39.25374
 30
0.0
 11
59.463458
 21
-39.010521
 31
0.0
  0
LINE
  5
3B2
330
4D2
100
AcDbEntity
  8
_0
  6
Continuous
 62
     7
370
    13
100
AcDbLine
 10
58.632562
 20
-39.25374
 30
0.0
 11
58.632562
 21
-38.992781
 31
0.0
  0
LINE
  5
3B3
330
4D2
100
AcDbEntity
  8
_0
  6
Continuous
 62
     7
370
    13
100
AcDbLine
 10
58.691021
 20
-39.25374
 30
0.0
 11
58.691021
 21
-38.992781
 31
0.0
  0
LINE
  5
3B4
330
4D2
100
AcDbEntity
  8
_0
  6
Continuous
 62
     7
370
    13
100
AcDbLine
 10
60.177437
 20
-39.25374
 30
0.0
 11
60.177437
 21
-39.033969
 31
0.0
  0
LINE
  5
3B5
330
4D2
100
AcDbEntity
  8
_0
  6
Continuous
 62
     7
370
    13
100
AcDbLine
 10
60.235896
 20
-39.25374
 30
0.0
 11
60.235896
 21
-39.033969
 31
0.0
  0
LINE
  5
3B6
330
4D2
100
AcDbEntity
  8
_0
  6
Continuous
 62
     7
370
    13
100
AcDbLine
 10
60.949875
 20
-39.25374
 30
0.0
 11
60.949875
 21
-39.06874
 31
0.0
  0
LINE
  5
3B7
330
4D2
100
AcDbEntity
  8
_0
  6
Continuous
 62
     7
370
    13
100
AcDbLine
 10
61.008333
 20
-39.25374
 30
0.0
 11
61.008333
 21
-39.06874
 31
0.0
  0
LINE
  5
3B8
330
4D2
100
AcDbEntity
  8
_0
  6
Continuous
 62
     7
370
    13
100
AcDbLine
 10
61.722313
 20
-39.25374
 30
0.0
 11
61.722313
 21
-39.102385
 31
0.0
  0
LINE
  5
3B9
330
4D2
100
AcDbEntity
  8
_0
  6
Continuous
 62
     7
370
    13
100
AcDbLine
 10
61.78076
 20
-39.25374
 30
0.0
 11
61.78076
 21
-39.102385
 31
0.0
  0
LINE
  5
3BA
330
4D2
100
AcDbEntity
  8
_0
  6
Continuous
 62
     7
370
    13
100
AcDbLine
 10
62.553198
 20
-39.25374
 30
0.0
 11
62.553198
 21
-39.136938
 31
0.0
  0
LINE
  5
3BB
330
4D2
100
AcDbEntity
  8
_0
  6
Continuous
 62
     7
370
    13
100
AcDbLine
 10
62.49475
 20
-39.25374
 30
0.0
 11
62.49475
 21
-39.136938
 31
0.0
  0
LINE
  5
3BC
330
4D2
100
AcDbEntity
  8
_0
  6
DGN Style 2
 62
     7
370
    13
100
AcDbLine
 10
63.275531
 20
-39.827844
 30
0.0
 11
63.317292
 21
-39.827844
 31
0.0
  0
LINE
  5
3BD
330
4D2
100
AcDbEntity
  8
_0
  6
DGN Style 2
 62
     7
370
    13
100
AcDbLine
 10
62.503094
 20
-39.827844
 30
0.0
 11
62.544854
 21
-39.827844
 31
0.0
  0
LINE
  5
3BE
330
4D2
100
AcDbEntity
  8
_0
  6
DGN Style 2
 62
     7
370
    13
100
AcDbLine
 10
61.730667
 20
-39.827844
 30
0.0
 11
61.772417
 21
-39.827844
 31
0.0
  0
LINE
  5
3BF
330
4D2
100
AcDbEntity
  8
_0
  6
DGN Style 2
 62
     7
370
    13
100
AcDbLine
 10
60.958229
 20
-39.827844
 30
0.0
 11
60.999979
 21
-39.827844
 31
0.0
  0
LINE
  5
3C0
330
4D2
100
AcDbEntity
  8
_0
  6
DGN Style 2
 62
     7
370
    13
100
AcDbLine
 10
60.185792
 20
-39.827844
 30
0.0
 11
60.227542
 21
-39.827844
 31
0.0
  0
LINE
  5
3C1
330
4D2
100
AcDbEntity
  8
_0
  6
DGN Style 2
 62
     7
370
    13
100
AcDbLine
 10
59.413354
 20
-39.827844
 30
0.0
 11
59.455104
 21
-39.827844
 31
0.0
  0
LINE
  5
3C2
330
4D2
100
AcDbEntity
  8
_0
  6
Continuous
 62
     7
370
    13
100
AcDbLine
 10
62.49475
 20
-38.650312
 30
0.0
 11
62.49475
 21
-38.554167
 31
0.0
  0
LINE
  5
3C3
330
4D2
100
AcDbEntity
  8
_0
  6
Continuous
 62
     7
370
    13
100
AcDbLine
 10
62.553198
 20
-38.650312
 30
0.0
 11
62.553198
 21
-38.554167
 31
0.0
  0
LINE
  5
3C4
330
4D2
100
AcDbEntity
  8
_0
  6
Continuous
 62
     7
370
    13
100
AcDbLine
 10
61.78076
 20
-38.650312
 30
0.0
 11
61.78076
 21
-38.554167
 31
0.0
  0
LINE
  5
3C5
330
4D2
100
AcDbEntity
  8
_0
  6
Continuous
 62
     7
370
    13
100
AcDbLine
 10
61.722313
 20
-38.650312
 30
0.0
 11
61.722313
 21
-38.554167
 31
0.0
  0
LINE
  5
3C6
330
4D2
100
AcDbEntity
  8
_0
  6
Continuous
 62
     7
370
    13
100
AcDbLine
 10
61.008333
 20
-38.650312
 30
0.0
 11
61.008333
 21
-38.554167
 31
0.0
  0
LINE
  5
3C7
330
4D2
100
AcDbEntity
  8
_0
  6
Continuous
 62
     7
370
    13
100
AcDbLine
 10
60.949875
 20
-38.650312
 30
0.0
 11
60.949875
 21
-38.554167
 31
0.0
  0
LINE
  5
3C8
330
4D2
100
AcDbEntity
  8
_0
  6
Continuous
 62
     7
370
    13
100
AcDbLine
 10
60.235896
 20
-38.650312
 30
0.0
 11
60.235896
 21
-38.554167
 31
0.0
  0
LINE
  5
3C9
330
4D2
100
AcDbEntity
  8
_0
  6
Continuous
 62
     7
370
    13
100
AcDbLine
 10
60.177437
 20
-38.650312
 30
0.0
 11
60.177437
 21
-38.554167
 31
0.0
  0
LINE
  5
3CA
330
4D2
100
AcDbEntity
  8
_0
  6
Continuous
 62
     7
370
    13
100
AcDbLine
 10
58.691021
 20
-38.729365
 30
0.0
 11
58.691021
 21
-38.554115
 31
0.0
  0
LINE
  5
3CB
330
4D2
100
AcDbEntity
  8
_0
  6
Continuous
 62
     7
370
    13
100
AcDbLine
 10
58.632562
 20
-38.729365
 30
0.0
 11
58.632562
 21
-38.554115
 31
0.0
  0
LINE
  5
3CC
330
4D2
100
AcDbEntity
  8
_0
  6
Continuous
 62
     7
370
    13
100
AcDbLine
 10
59.463458
 20
-38.650312
 30
0.0
 11
59.463458
 21
-38.554167
 31
0.0
  0
LINE
  5
3CD
330
4D2
100
AcDbEntity
  8
_0
  6
Continuous
 62
     7
370
    13
100
AcDbLine
 10
59.405
 20
-38.650312
 30
0.0
 11
59.405
 21
-38.554167
 31
0.0
  0
LINE
  5
3CE
330
4D2
100
AcDbEntity
  8
_0
  6
Continuous
 62
     7
370
    13
100
AcDbLine
 10
63.317292
 20
-38.650312
 30
0.0
 11
63.317292
 21
-38.550438
 31
0.0
  0
LINE
  5
3CF
330
4D2
100
AcDbEntity
  8
_0
  6
Continuous
 62
     7
370
    13
100
AcDbLine
 10
63.275531
 20
-38.650312
 30
0.0
 11
63.275531
 21
-38.550625
 31
0.0
  0
LINE
  5
3D0
330
4D2
100
AcDbEntity
  8
_0
  6
Continuous
 62
     7
370
    13
100
AcDbLine
 10
62.503094
 20
-38.650312
 30
0.0
 11
62.503094
 21
-38.554167
 31
0.0
  0
LINE
  5
3D1
330
4D2
100
AcDbEntity
  8
_0
  6
Continuous
 62
     7
370
    13
100
AcDbLine
 10
62.544854
 20
-38.650312
 30
0.0
 11
62.544854
 21
-38.554167
 31
0.0
  0
LINE
  5
3D2
330
4D2
100
AcDbEntity
  8
_0
  6
Continuous
 62
     7
370
    13
100
AcDbLine
 10
61.730667
 20
-38.650312
 30
0.0
 11
61.730667
 21
-38.554167
 31
0.0
  0
LINE
  5
3D3
330
4D2
100
AcDbEntity
  8
_0
  6
Continuous
 62
     7
370
    13
100
AcDbLine
 10
61.772417
 20
-38.650312
 30
0.0
 11
61.772417
 21
-38.554167
 31
0.0
  0
LINE
  5
3D4
330
4D2
100
AcDbEntity
  8
_0
  6
Continuous
 62
     7
370
    13
100
AcDbLine
 10
60.958229
 20
-38.650312
 30
0.0
 11
60.958229
 21
-38.554167
 31
0.0
  0
LINE
  5
3D5
330
4D2
100
AcDbEntity
  8
_0
  6
Continuous
 62
     7
370
    13
100
AcDbLine
 10
60.999979
 20
-38.650312
 30
0.0
 11
60.999979
 21
-38.554167
 31
0.0
  0
LINE
  5
3D6
330
4D2
100
AcDbEntity
  8
_0
  6
Continuous
 62
     7
370
    13
100
AcDbLine
 10
60.185792
 20
-38.650312
 30
0.0
 11
60.185792
 21
-38.554167
 31
0.0
  0
LINE
  5
3D7
330
4D2
100
AcDbEntity
  8
_0
  6
Continuous
 62
     7
370
    13
100
AcDbLine
 10
60.227542
 20
-38.650312
 30
0.0
 11
60.227542
 21
-38.554167
 31
0.0
  0
LINE
  5
3D8
330
4D2
100
AcDbEntity
  8
_0
  6
Continuous
 62
     7
370
    13
100
AcDbLine
 10
59.413354
 20
-38.650312
 30
0.0
 11
59.413354
 21
-38.554167
 31
0.0
  0
LINE
  5
3D9
330
4D2
100
AcDbEntity
  8
_0
  6
Continuous
 62
     7
370
    13
100
AcDbLine
 10
59.455104
 20
-38.650312
 30
0.0
 11
59.455104
 21
-38.554167
 31
0.0
  0
LINE
  5
3DA
330
4D2
100
AcDbEntity
  8
_0
  6
Continuous
 62
     7
370
    13
100
AcDbLine
 10
58.682667
 20
-38.729365
 30
0.0
 11
58.682667
 21
-38.554115
 31
0.0
  0
LINE
  5
3DB
330
4D2
100
AcDbEntity
  8
_0
  6
Continuous
 62
     7
370
    13
100
AcDbLine
 10
58.640917
 20
-38.729365
 30
0.0
 11
58.640917
 21
-38.554115
 31
0.0
  0
LINE
  5
3DC
330
4D2
100
AcDbEntity
  8
_0
  6
Continuous
 62
     7
370
    13
100
AcDbLine
 10
58.625062
 20
-38.679375
 30
0.0
 11
58.625062
 21
-38.554115
 31
0.0
  0
LINE
  5
3DD
330
4D2
100
AcDbEntity
  8
_0
  6
Continuous
 62
     7
370
    13
100
AcDbLine
 10
58.583312
 20
-38.679375
 30
0.0
 11
58.583312
 21
-38.554115
 31
0.0
  0
LINE
  5
3DE
330
4D2
100
AcDbEntity
  8
_0
  6
Continuous
 62
     7
370
    13
100
AcDbLine
 10
58.574958
 20
-38.679375
 30
0.0
 11
58.574958
 21
-38.554115
 31
0.0
  0
LINE
  5
3DF
330
4D2
100
AcDbEntity
  8
_0
  6
Continuous
 62
     7
370
    13
100
AcDbLine
 10
58.574958
 20
-38.679375
 30
0.0
 11
58.632562
 21
-38.679375
 31
0.0
  0
LINE
  5
3E0
330
4D2
100
AcDbEntity
  8
_0
  6
Continuous
 62
     7
370
    13
100
AcDbLine
 10
63.325635
 20
-38.550396
 30
0.0
 11
63.267177
 21
-38.550656
 31
0.0
  0
LINE
  5
3E1
330
4D2
100
AcDbEntity
  8
_0
  6
Continuous
 62
     7
370
    13
100
AcDbLine
 10
63.325635
 20
-38.650312
 30
0.0
 11
63.325635
 21
-38.550396
 31
0.0
  0
LINE
  5
3E2
330
4D2
100
AcDbEntity
  8
_0
  6
Continuous
 62
     7
370
    13
100
AcDbLine
 10
63.267177
 20
-38.650312
 30
0.0
 11
63.267177
 21
-38.550656
 31
0.0
  0
LINE
  5
3E3
330
4D2
100
AcDbEntity
  8
_0
  6
Continuous
 62
     7
370
    13
100
AcDbLine
 10
63.294448
 20
-39.656427
 30
0.0
 11
63.294448
 21
-39.558042
 31
0.0
  0
LINE
  5
3E4
330
4D2
100
AcDbEntity
  8
LEGEND
  6
Continuous
 62
     7
370
    13
100
AcDbLine
 10
63.252698
 20
-39.599792
 30
0.0
 11
62.564375
 21
-39.599792
 31
0.0
  0
SOLID
  5
3E5
330
4D2
100
AcDbEntity
  8
LEGEND
  6
Continuous
 62
     7
370
    13
100
AcDbTrace
 10
63.252698
 20
-39.60675
 30
0.0
 11
63.252698
 21
-39.592833
 31
0.0
 12
63.294448
 22
-39.599792
 32
0.0
 13
63.294448
 23
-39.599792
 33
0.0
  0
SOLID
  5
3E6
330
4D2
100
AcDbEntity
  8
LEGEND
  6
Continuous
 62
     7
370
    13
100
AcDbTrace
 10
62.564375
 20
-39.60675
 30
0.0
 11
62.564375
 21
-39.592833
 31
0.0
 12
62.522625
 22
-39.599792
 32
0.0
 13
62.522625
 23
-39.599792
 33
0.0
  0
LINE
  5
3E7
330
4D2
100
AcDbEntity
  8
_0
  6
Continuous
 62
     7
370
    13
100
AcDbLine
 10
62.522625
 20
-39.656427
 30
0.0
 11
62.522625
 21
-39.558042
 31
0.0
  0
LINE
  5
3E8
330
4D2
100
AcDbEntity
  8
LEGEND
  6
Continuous
 62
     7
370
    13
100
AcDbLine
 10
62.480865
 20
-39.599792
 30
0.0
 11
61.795198
 21
-39.599792
 31
0.0
  0
SOLID
  5
3E9
330
4D2
100
AcDbEntity
  8
LEGEND
  6
Continuous
 62
     7
370
    13
100
AcDbTrace
 10
62.480865
 20
-39.60675
 30
0.0
 11
62.480865
 21
-39.592833
 31
0.0
 12
62.522625
 22
-39.599792
 32
0.0
 13
62.522625
 23
-39.599792
 33
0.0
  0
SOLID
  5
3EA
330
4D2
100
AcDbEntity
  8
LEGEND
  6
Continuous
 62
     7
370
    13
100
AcDbTrace
 10
61.795198
 20
-39.60675
 30
0.0
 11
61.795198
 21
-39.592833
 31
0.0
 12
61.753437
 22
-39.599792
 32
0.0
 13
61.753437
 23
-39.599792
 33
0.0
  0
LINE
  5
3EB
330
4D2
100
AcDbEntity
  8
_0
  6
Continuous
 62
     7
370
    13
100
AcDbLine
 10
61.753437
 20
-39.656427
 30
0.0
 11
61.753437
 21
-39.558042
 31
0.0
  0
LINE
  5
3EC
330
4D2
100
AcDbEntity
  8
LEGEND
  6
Continuous
 62
     7
370
    13
100
AcDbLine
 10
61.711687
 20
-39.599792
 30
0.0
 11
61.020719
 21
-39.599792
 31
0.0
  0
SOLID
  5
3ED
330
4D2
100
AcDbEntity
  8
LEGEND
  6
Continuous
 62
     7
370
    13
100
AcDbTrace
 10
61.711687
 20
-39.60675
 30
0.0
 11
61.711687
 21
-39.592833
 31
0.0
 12
61.753437
 22
-39.599792
 32
0.0
 13
61.753437
 23
-39.599792
 33
0.0
  0
SOLID
  5
3EE
330
4D2
100
AcDbEntity
  8
LEGEND
  6
Continuous
 62
     7
370
    13
100
AcDbTrace
 10
61.020719
 20
-39.60675
 30
0.0
 11
61.020719
 21
-39.592833
 31
0.0
 12
60.978969
 22
-39.599792
 32
0.0
 13
60.978969
 23
-39.599792
 33
0.0
  0
LINE
  5
3EF
330
4D2
100
AcDbEntity
  8
_0
  6
Continuous
 62
     7
370
    13
100
AcDbLine
 10
60.978969
 20
-39.656427
 30
0.0
 11
60.978969
 21
-39.558042
 31
0.0
  0
LINE
  5
3F0
330
4D2
100
AcDbEntity
  8
LEGEND
  6
Continuous
 62
     7
370
    13
100
AcDbLine
 10
60.937219
 20
-39.599792
 30
0.0
 11
60.247698
 21
-39.599792
 31
0.0
  0
SOLID
  5
3F1
330
4D2
100
AcDbEntity
  8
LEGEND
  6
Continuous
 62
     7
370
    13
100
AcDbTrace
 10
60.937219
 20
-39.60675
 30
0.0
 11
60.937219
 21
-39.592833
 31
0.0
 12
60.978969
 22
-39.599792
 32
0.0
 13
60.978969
 23
-39.599792
 33
0.0
  0
SOLID
  5
3F2
330
4D2
100
AcDbEntity
  8
LEGEND
  6
Continuous
 62
     7
370
    13
100
AcDbTrace
 10
60.247698
 20
-39.60675
 30
0.0
 11
60.247698
 21
-39.592833
 31
0.0
 12
60.205948
 22
-39.599792
 32
0.0
 13
60.205948
 23
-39.599792
 33
0.0
  0
LINE
  5
3F3
330
4D2
100
AcDbEntity
  8
_0
  6
Continuous
 62
     7
370
    13
100
AcDbLine
 10
60.205948
 20
-39.656427
 30
0.0
 11
60.205948
 21
-39.558042
 31
0.0
  0
LINE
  5
3F4
330
4D2
100
AcDbEntity
  8
LEGEND
  6
Continuous
 62
     7
370
    13
100
AcDbLine
 10
60.164187
 20
-39.599792
 30
0.0
 11
59.475875
 21
-39.599792
 31
0.0
  0
SOLID
  5
3F5
330
4D2
100
AcDbEntity
  8
LEGEND
  6
Continuous
 62
     7
370
    13
100
AcDbTrace
 10
60.164187
 20
-39.60675
 30
0.0
 11
60.164187
 21
-39.592833
 31
0.0
 12
60.205948
 22
-39.599792
 32
0.0
 13
60.205948
 23
-39.599792
 33
0.0
  0
SOLID
  5
3F6
330
4D2
100
AcDbEntity
  8
LEGEND
  6
Continuous
 62
     7
370
    13
100
AcDbTrace
 10
59.475875
 20
-39.60675
 30
0.0
 11
59.475875
 21
-39.592833
 31
0.0
 12
59.434115
 22
-39.599792
 32
0.0
 13
59.434115
 23
-39.599792
 33
0.0
  0
LINE
  5
3F7
330
4D2
100
AcDbEntity
  8
_0
  6
Continuous
 62
     7
370
    13
100
AcDbLine
 10
59.434115
 20
-39.656427
 30
0.0
 11
59.434115
 21
-39.558042
 31
0.0
  0
LINE
  5
3F8
330
4D2
100
AcDbEntity
  8
_0
  6
Continuous
 62
     7
370
    13
100
AcDbLine
 10
58.659646
 20
-39.656427
 30
0.0
 11
58.659646
 21
-39.558042
 31
0.0
  0
LINE
  5
3F9
330
4D2
100
AcDbEntity
  8
LEGEND
  6
Continuous
 62
     7
370
    13
100
AcDbLine
 10
59.392365
 20
-39.599792
 30
0.0
 11
58.701396
 21
-39.599792
 31
0.0
  0
SOLID
  5
3FA
330
4D2
100
AcDbEntity
  8
LEGEND
  6
Continuous
 62
     7
370
    13
100
AcDbTrace
 10
59.392365
 20
-39.60675
 30
0.0
 11
59.392365
 21
-39.592833
 31
0.0
 12
59.434115
 22
-39.599792
 32
0.0
 13
59.434115
 23
-39.599792
 33
0.0
  0
SOLID
  5
3FB
330
4D2
100
AcDbEntity
  8
LEGEND
  6
Continuous
 62
     7
370
    13
100
AcDbTrace
 10
58.701396
 20
-39.60675
 30
0.0
 11
58.701396
 21
-39.592833
 31
0.0
 12
58.659646
 22
-39.599792
 32
0.0
 13
58.659646
 23
-39.599792
 33
0.0
  0
SOLID
  5
400
330
4D2
100
AcDbEntity
  8
_0
  6
Continuous
 62
     7
370
    13
100
AcDbTrace
 10
63.18099
 20
-39.066125
 30
0.0
 11
63.18099
 21
-39.052208
 31
0.0
 12
63.139229
 22
-39.059167
 32
0.0
 13
63.139229
 23
-39.059167
 33
0.0
  0
LINE
  5
401
330
4D2
100
AcDbEntity
  8
_0
  6
DGN Style 6
 62
     7
370
    13
100
AcDbLine
 10
63.18099
 20
-39.059167
 30
0.0
 11
63.293583
 21
-39.059167
 31
0.0
  0
LINE
  5
402
330
4D2
100
AcDbEntity
  8
_0
  6
DGN Style 6
 62
     7
370
    13
100
AcDbLine
 10
63.293583
 20
-39.059167
 30
0.0
 11
63.293583
 21
-39.188802
 31
0.0
  0
LINE
  5
405
330
4D2
100
AcDbEntity
  8
_0
  6
DGN Style 6
 62
     7
370
    13
100
AcDbLine
 10
63.293583
 20
-39.82774
 30
0.0
 11
63.293583
 21
-39.957385
 31
0.0
  0
LINE
  5
406
330
4D2
100
AcDbEntity
  8
_0
  6
DGN Style 6
 62
     7
370
    13
100
AcDbLine
 10
63.18099
 20
-39.957385
 30
0.0
 11
63.293583
 21
-39.957385
 31
0.0
  0
SOLID
  5
407
330
4D2
100
AcDbEntity
  8
_0
  6
Continuous
 62
     7
370
    13
100
AcDbTrace
 10
63.18099
 20
-39.964344
 30
0.0
 11
63.18099
 21
-39.950417
 31
0.0
 12
63.139229
 22
-39.957385
 32
0.0
 13
63.139229
 23
-39.957385
 33
0.0
  0
LINE
  5
409
330
4D2
100
AcDbEntity
  8
_0
  6
DGN Style 6
 62
     7
370
    13
100
AcDbLine
 10
60.978333
 20
-38.941875
 30
0.0
 11
60.978333
 21
-39.07151
 31
0.0
  0
SOLID
  5
40A
330
4D2
100
AcDbEntity
  8
_0
  6
Continuous
 62
     7
370
    13
100
AcDbTrace
 10
60.86574
 20
-38.948833
 30
0.0
 11
60.86574
 21
-38.934917
 31
0.0
 12
60.82399
 22
-38.941875
 32
0.0
 13
60.82399
 23
-38.941875
 33
0.0
  0
SOLID
  5
40B
330
4D2
100
AcDbEntity
  8
_0
  6
Continuous
 62
     7
370
    13
100
AcDbTrace
 10
60.86574
 20
-39.964344
 30
0.0
 11
60.86574
 21
-39.950417
 31
0.0
 12
60.82399
 22
-39.957385
 32
0.0
 13
60.82399
 23
-39.957385
 33
0.0
  0
LINE
  5
40C
330
4D2
100
AcDbEntity
  8
_0
  6
DGN Style 6
 62
     7
370
    13
100
AcDbLine
 10
60.86574
 20
-39.957385
 30
0.0
 11
60.978333
 21
-39.957385
 31
0.0
  0
LINE
  5
40D
330
4D2
100
AcDbEntity
  8
_0
  6
DGN Style 6
 62
     7
370
    13
100
AcDbLine
 10
60.978333
 20
-39.82774
 30
0.0
 11
60.978333
 21
-39.957385
 31
0.0
  0
LINE
  5
40F
330
4D2
100
AcDbEntity
  8
LEGEND
  6
Continuous
 62
     7
370
    13
100
AcDbLine
 10
58.58024
 20
-39.161677
 30
0.0
 11
58.58024
 21
-39.214
 31
0.0
  0
SOLID
  5
410
330
4D2
100
AcDbEntity
  8
LEGEND
  6
Continuous
 62
     7
370
    13
100
AcDbTrace
 10
58.587198
 20
-39.161677
 30
0.0
 11
58.573281
 21
-39.161677
 31
0.0
 12
58.58024
 22
-39.119927
 32
0.0
 13
58.58024
 23
-39.119927
 33
0.0
  0
SOLID
  5
411
330
4D2
100
AcDbEntity
  8
LEGEND
  6
Continuous
 62
     7
370
    13
100
AcDbTrace
 10
58.587198
 20
-39.214
 30
0.0
 11
58.573281
 21
-39.214
 31
0.0
 12
58.58024
 22
-39.25575
 32
0.0
 13
58.58024
 23
-39.25575
 33
0.0
  0
SOLID
  5
414
330
4D2
100
AcDbEntity
  8
LEGEND
  6
Continuous
 62
     7
370
    13
100
AcDbTrace
 10
59.362094
 20
-39.214
 30
0.0
 11
59.348177
 21
-39.214
 31
0.0
 12
59.355135
 22
-39.25575
 32
0.0
 13
59.355135
 23
-39.25575
 33
0.0
  0
SOLID
  5
415
330
4D2
100
AcDbEntity
  8
LEGEND
  6
Continuous
 62
     7
370
    13
100
AcDbTrace
 10
59.362094
 20
-39.174156
 30
0.0
 11
59.348177
 21
-39.174156
 31
0.0
 12
59.355135
 22
-39.132406
 32
0.0
 13
59.355135
 23
-39.132406
 33
0.0
  0
LINE
  5
416
330
4D2
100
AcDbEntity
  8
LEGEND
  6
Continuous
 62
     7
370
    13
100
AcDbLine
 10
59.355135
 20
-39.161677
 30
0.0
 11
59.355135
 21
-39.214
 31
0.0
  0
LINE
  5
417
330
4D2
100
AcDbEntity
  8
LEGEND
  6
Continuous
 62
     7
370
    13
100
AcDbLine
 10
60.117479
 20
-39.169625
 30
0.0
 11
60.117479
 21
-39.221948
 31
0.0
  0
SOLID
  5
418
330
4D2
100
AcDbEntity
  8
LEGEND
  6
Continuous
 62
     7
370
    13
100
AcDbTrace
 10
60.124437
 20
-39.182104
 30
0.0
 11
60.110521
 21
-39.182104
 31
0.0
 12
60.117479
 22
-39.140354
 32
0.0
 13
60.117479
 23
-39.140354
 33
0.0
  0
SOLID
  5
419
330
4D2
100
AcDbEntity
  8
LEGEND
  6
Continuous
 62
     7
370
    13
100
AcDbTrace
 10
60.124437
 20
-39.214
 30
0.0
 11
60.110521
 21
-39.214
 31
0.0
 12
60.117479
 22
-39.25575
 32
0.0
 13
60.117479
 23
-39.25575
 33
0.0
  0
SOLID
  5
41C
330
4D2
100
AcDbEntity
  8
LEGEND
  6
Continuous
 62
     7
370
    13
100
AcDbTrace
 10
60.895021
 20
-39.212344
 30
0.0
 11
60.881104
 21
-39.212344
 31
0.0
 12
60.888062
 22
-39.254094
 32
0.0
 13
60.888062
 23
-39.254094
 33
0.0
  0
SOLID
  5
41D
330
4D2
100
AcDbEntity
  8
LEGEND
  6
Continuous
 62
     7
370
    13
100
AcDbTrace
 10
60.895021
 20
-39.205396
 30
0.0
 11
60.881104
 21
-39.205396
 31
0.0
 12
60.888062
 22
-39.163646
 32
0.0
 13
60.888062
 23
-39.163646
 33
0.0
  0
LINE
  5
41E
330
4D2
100
AcDbEntity
  8
LEGEND
  6
Continuous
 62
     7
370
    13
100
AcDbLine
 10
60.888062
 20
-39.192385
 30
0.0
 11
60.888062
 21
-39.244708
 31
0.0
  0
LINE
  5
41F
330
4D2
100
AcDbEntity
  8
LEGEND
  6
Continuous
 62
     7
370
    13
100
AcDbLine
 10
61.651125
 20
-39.282937
 30
0.0
 11
61.651125
 21
-39.353708
 31
0.0
  0
SOLID
  5
420
330
4D2
100
AcDbEntity
  8
LEGEND
  6
Continuous
 62
     7
370
    13
100
AcDbTrace
 10
61.658083
 20
-39.295948
 30
0.0
 11
61.644167
 21
-39.295948
 31
0.0
 12
61.651125
 22
-39.254198
 32
0.0
 13
61.651125
 23
-39.254198
 33
0.0
  0
LINE
  5
422
330
4D2
100
AcDbEntity
  8
LEGEND
  6
Continuous
 62
     7
370
    13
100
AcDbLine
 10
61.651125
 20
-39.098302
 30
0.0
 11
61.651125
 21
-39.177365
 31
0.0
  0
SOLID
  5
423
330
4D2
100
AcDbEntity
  8
LEGEND
  6
Continuous
 62
     7
370
    13
100
AcDbTrace
 10
61.658083
 20
-39.14499
 30
0.0
 11
61.644167
 21
-39.14499
 31
0.0
 12
61.651125
 22
-39.18675
 32
0.0
 13
61.651125
 23
-39.18675
 33
0.0
  0
LINE
  5
424
330
4D2
100
AcDbEntity
  8
LEGEND
  6
Continuous
 62
     7
370
    13
100
AcDbLine
 10
62.44175
 20
-39.353708
 30
0.0
 11
62.391635
 21
-39.353708
 31
0.0
  0
SOLID
  5
425
330
4D2
100
AcDbEntity
  8
LEGEND
  6
Continuous
 62
     7
370
    13
100
AcDbTrace
 10
62.448708
 20
-39.168969
 30
0.0
 11
62.434792
 21
-39.168969
 31
0.0
 12
62.44175
 22
-39.210719
 32
0.0
 13
62.44175
 23
-39.210719
 33
0.0
  0
LINE
  5
426
330
4D2
100
AcDbEntity
  8
LEGEND
  6
Continuous
 62
     7
370
    13
100
AcDbLine
 10
62.44175
 20
-39.122281
 30
0.0
 11
62.44175
 21
-39.201344
 31
0.0
  0
SOLID
  5
428
330
4D2
100
AcDbEntity
  8
LEGEND
  6
Continuous
 62
     7
370
    13
100
AcDbTrace
 10
62.448708
 20
-39.295948
 30
0.0
 11
62.434792
 21
-39.295948
 31
0.0
 12
62.44175
 22
-39.254198
 32
0.0
 13
62.44175
 23
-39.254198
 33
0.0
  0
LINE
  5
429
330
4D2
100
AcDbEntity
  8
LEGEND
  6
Continuous
 62
     7
370
    13
100
AcDbLine
 10
62.44175
 20
-39.282937
 30
0.0
 11
62.44175
 21
-39.353708
 31
0.0
  0
LINE
  5
42A
330
4D2
100
AcDbEntity
  8
LEGEND
  6
Continuous
 62
     7
370
    13
100
AcDbLine
 10
63.225708
 20
-39.282937
 30
0.0
 11
63.225708
 21
-39.353708
 31
0.0
  0
SOLID
  5
42B
330
4D2
100
AcDbEntity
  8
LEGEND
  6
Continuous
 62
     7
370
    13
100
AcDbTrace
 10
63.232667
 20
-39.295948
 30
0.0
 11
63.21875
 21
-39.295948
 31
0.0
 12
63.225708
 22
-39.254198
 32
0.0
 13
63.225708
 23
-39.254198
 33
0.0
  0
LINE
  5
42D
330
4D2
100
AcDbEntity
  8
LEGEND
  6
Continuous
 62
     7
370
    13
100
AcDbLine
 10
63.225708
 20
-39.135188
 30
0.0
 11
63.225708
 21
-39.21426
 31
0.0
  0
SOLID
  5
42E
330
4D2
100
AcDbEntity
  8
LEGEND
  6
Continuous
 62
     7
370
    13
100
AcDbTrace
 10
63.232667
 20
-39.181885
 30
0.0
 11
63.21875
 21
-39.181885
 31
0.0
 12
63.225708
 22
-39.223635
 32
0.0
 13
63.225708
 23
-39.223635
 33
0.0
  0
LINE
  5
42F
330
4D2
100
AcDbEntity
  8
LEGEND
  6
Continuous
 62
     7
370
    13
100
AcDbLine
 10
63.225708
 20
-39.353708
 30
0.0
 11
63.175604
 21
-39.353708
 31
0.0
  0
ARC
  5
430
330
4D2
100
AcDbEntity
  8
LEGEND
  6
Continuous
 62
     7
370
    13
100
AcDbCircle
 10
62.495947
 20
-38.547426
 30
0.0
 40
0.1982817427636259
100
AcDbArc
 50
207.347556
 51
257.912492
  0
LINE
  5
431
330
4D2
100
AcDbEntity
  8
LEGEND
  6
Continuous
 62
     7
370
    13
100
AcDbLine
 10
62.264375
 20
-38.610604
 30
0.0
 11
62.456708
 21
-38.558146
 31
0.0
  0
SOLID
  5
432
330
4D2
100
AcDbEntity
  8
LEGEND
  6
Continuous
 62
     7
370
    13
100
AcDbTrace
 10
-62.326313
 20
-38.63599
 30
0.0
 11
-62.313344
 21
-38.641042
 31
0.0
 12
-62.304656
 22
-38.599615
 32
0.0
 13
-62.304656
 23
-38.599615
 33
0.0
210
0.0
220
0.0
230
-1.0
  0
SOLID
  5
433
330
4D2
100
AcDbEntity
  8
LEGEND
  6
Continuous
 62
     7
370
    13
100
AcDbTrace
 10
62.455156
 20
-38.734396
 30
0.0
 11
62.453688
 21
-38.748229
 31
0.0
 12
62.495948
 22
-38.745708
 32
0.0
 13
62.495948
 23
-38.745708
 33
0.0
  0
ARC
  5
435
330
4D2
100
AcDbEntity
  8
LEGEND
  6
Continuous
 62
     7
370
    13
100
AcDbCircle
 10
61.723053
 20
-38.492393
 30
0.0
 40
0.1964054303615843
100
AcDbArc
 50
222.463467
 51
257.796578
  0
LINE
  5
436
330
4D2
100
AcDbEntity
  8
LEGEND
  6
Continuous
 62
     7
370
    13
100
AcDbLine
 10
61.517344
 20
-38.612406
 30
0.0
 11
61.661667
 21
-38.526792
 31
0.0
  0
SOLID
  5
437
330
4D2
100
AcDbEntity
  8
LEGEND
  6
Continuous
 62
     7
370
    13
100
AcDbTrace
 10
-61.583771
 20
-38.620865
 30
0.0
 11
-61.572562
 21
-38.629115
 31
0.0
 12
-61.553406
 22
-38.591365
 32
0.0
 13
-61.553406
 23
-38.591365
 33
0.0
210
0.0
220
0.0
230
-1.0
  0
SOLID
  5
438
330
4D2
100
AcDbEntity
  8
LEGEND
  6
Continuous
 62
     7
370
    13
100
AcDbTrace
 10
61.682281
 20
-38.677437
 30
0.0
 11
61.680792
 21
-38.691281
 31
0.0
 12
61.723052
 22
-38.688802
 32
0.0
 13
61.723052
 23
-38.688802
 33
0.0
  0
ARC
  5
43A
330
4D2
100
AcDbEntity
  8
LEGEND
  6
Continuous
 62
     7
370
    13
100
AcDbCircle
 10
60.957935
 20
-38.544173
 30
0.0
 40
0.1698617861909174
100
AcDbArc
 50
224.085964
 51
254.322436
  0
LINE
  5
43B
330
4D2
100
AcDbEntity
  8
LEGEND
  6
Continuous
 62
     7
370
    13
100
AcDbLine
 10
60.800917
 20
-38.697677
 30
0.0
 11
60.914125
 21
-38.582396
 31
0.0
  0
SOLID
  5
43C
330
4D2
100
AcDbEntity
  8
LEGEND
  6
Continuous
 62
     7
370
    13
100
AcDbTrace
 10
-60.871771
 20
-38.684094
 30
0.0
 11
-60.862594
 21
-38.694552
 31
0.0
 12
-60.835802
 22
-38.661781
 32
0.0
 13
-60.835802
 23
-38.661781
 33
0.0
210
0.0
220
0.0
230
-1.0
  0
SOLID
  5
43D
330
4D2
100
AcDbEntity
  8
LEGEND
  6
Continuous
 62
     7
370
    13
100
AcDbTrace
 10
60.909865
 20
-38.700031
 30
0.0
 11
60.907781
 21
-38.713792
 31
0.0
 12
60.950104
 22
-38.713167
 32
0.0
 13
60.950104
 23
-38.713167
 33
0.0
  0
ARC
  5
43F
330
4D2
100
AcDbEntity
  8
LEGEND
  6
Continuous
 62
     7
370
    13
100
AcDbCircle
 10
60.177374
 20
-38.555556
 30
0.0
 40
0.1892891207704789
100
AcDbArc
 50
282.66405
 51
295.3281
  0
ARC
  5
440
330
4D2
100
AcDbEntity
  8
LEGEND
  6
Continuous
 62
     7
370
    13
100
AcDbCircle
 10
60.177374
 20
-38.555556
 30
0.0
 40
0.1892891207704789
100
AcDbArc
 50
214.931947
 51
227.595997
  0
LINE
  5
441
330
4D2
100
AcDbEntity
  8
LEGEND
  6
Continuous
 62
     7
370
    13
100
AcDbLine
 10
60.06276
 20
-38.756167
 30
0.0
 11
60.142688
 21
-38.614802
 31
0.0
  0
SOLID
  5
442
330
4D2
100
AcDbEntity
  8
LEGEND
  6
Continuous
 62
     7
370
    13
100
AcDbTrace
 10
60.218104
 20
-38.733323
 30
0.0
 11
60.219646
 21
-38.747156
 31
0.0
 12
60.177375
 22
-38.744844
 32
0.0
 13
60.177375
 23
-38.744844
 33
0.0
  0
SOLID
  5
443
330
4D2
100
AcDbEntity
  8
LEGEND
  6
Continuous
 62
     7
370
    13
100
AcDbTrace
 10
60.053823
 20
-38.689708
 30
0.0
 11
60.045625
 21
-38.700948
 31
0.0
 12
60.083469
 22
-38.719917
 32
0.0
 13
60.083469
 23
-38.719917
 33
0.0
  0
ARC
  5
445
330
4D2
100
AcDbEntity
  8
LEGEND
  6
Continuous
 62
     7
370
    13
100
AcDbCircle
 10
59.405479
 20
-38.55284
 30
0.0
 40
0.2003071514267297
100
AcDbArc
 50
281.964836
 51
293.929672
  0
ARC
  5
446
330
4D2
100
AcDbEntity
  8
LEGEND
  6
Continuous
 62
     7
370
    13
100
AcDbCircle
 10
59.405479
 20
-38.55284
 30
0.0
 40
0.2003071514267297
100
AcDbArc
 50
231.070325
 51
243.035161
  0
LINE
  5
447
330
4D2
100
AcDbEntity
  8
LEGEND
  6
Continuous
 62
     7
370
    13
100
AcDbLine
 10
59.342823
 20
-38.786656
 30
0.0
 11
59.384698
 21
-38.631271
 31
0.0
  0
SOLID
  5
448
330
4D2
100
AcDbEntity
  8
LEGEND
  6
Continuous
 62
     7
370
    13
100
AcDbTrace
 10
59.446281
 20
-38.741875
 30
0.0
 11
59.447729
 21
-38.755719
 31
0.0
 12
59.405479
 22
-38.753146
 32
0.0
 13
59.405479
 23
-38.753146
 33
0.0
  0
SOLID
  5
449
330
4D2
100
AcDbEntity
  8
LEGEND
  6
Continuous
 62
     7
370
    13
100
AcDbTrace
 10
59.317146
 20
-38.724875
 30
0.0
 11
59.312156
 21
-38.737865
 31
0.0
 12
59.353635
 22
-38.746323
 32
0.0
 13
59.353635
 23
-38.746323
 33
0.0
  0
SOLID
  5
44B
330
4D2
100
AcDbEntity
  8
TITLE
  6
Continuous
 62
     7
370
    13
100
AcDbTrace
 10
63.433115
 20
-39.196042
 30
0.0
 11
63.425156
 21
-39.184615
 31
0.0
 12
63.394875
 22
-39.214188
 32
0.0
 13
63.394875
 23
-39.214188
 33
0.0
  0
LINE
  5
44C
330
4D2
100
AcDbEntity
  8
TITLE
  6
Continuous
 62
     7
370
    13
100
AcDbLine
 10
63.429135
 20
-39.190333
 30
0.0
 11
63.54025
 21
-39.112938
 31
0.0
  0
LINE
  5
44D
330
4D2
100
AcDbEntity
  8
TITLE
  6
Continuous
 62
     7
370
    13
100
AcDbLine
 10
63.54025
 20
-39.112938
 30
0.0
 11
63.58201
 21
-39.112938
 31
0.0
  0
SOLID
  5
453
330
4D2
100
AcDbEntity
  8
TITLE
  6
Continuous
 62
     7
370
    13
100
AcDbTrace
 10
60.25299
 20
-39.447688
 30
0.0
 11
60.25299
 21
-39.433771
 31
0.0
 12
60.21124
 22
-39.440729
 32
0.0
 13
60.21124
 23
-39.440729
 33
0.0
  0
LINE
  5
454
330
4D2
100
AcDbEntity
  8
TITLE
  6
Continuous
 62
     7
370
    13
100
AcDbLine
 10
60.25299
 20
-39.440729
 30
0.0
 11
60.344365
 21
-39.440729
 31
0.0
  0
LINE
  5
456
330
4D2
100
AcDbEntity
  8
LEGEND
  6
Continuous
 62
     7
370
    13
100
AcDbLine
 10
58.599156
 20
-39.827844
 30
0.0
 11
58.1945
 21
-39.827844
 31
0.0
  0
LINE
  5
457
330
4D2
100
AcDbEntity
  8
LEGEND
  6
Continuous
 62
     7
370
    13
100
AcDbLine
 10
58.23625
 20
-39.29549
 30
0.0
 11
58.23625
 21
-39.786094
 31
0.0
  0
SOLID
  5
458
330
4D2
100
AcDbEntity
  8
LEGEND
  6
Continuous
 62
     7
370
    13
100
AcDbTrace
 10
58.243208
 20
-39.29549
 30
0.0
 11
58.229292
 21
-39.29549
 31
0.0
 12
58.23625
 22
-39.25374
 32
0.0
 13
58.23625
 23
-39.25374
 33
0.0
  0
SOLID
  5
459
330
4D2
100
AcDbEntity
  8
LEGEND
  6
Continuous
 62
     7
370
    13
100
AcDbTrace
 10
58.243208
 20
-39.786094
 30
0.0
 11
58.229292
 21
-39.786094
 31
0.0
 12
58.23625
 22
-39.827844
 32
0.0
 13
58.23625
 23
-39.827844
 33
0.0
  0
LINE
  5
45E
330
4D2
100
AcDbEntity
  8
DIM
  6
Continuous
 62
     7
370
    13
100
AcDbLine
 10
63.873396
 20
-45.277458
 30
0.0
 11
63.873396
 21
-44.777427
 31
0.0
  0
LINE
  5
460
330
4D2
100
AcDbEntity
  8
DIM
  6
Continuous
 62
     7
370
    13
100
AcDbLine
 10
62.773302
 20
-45.277458
 30
0.0
 11
62.773302
 21
-44.777427
 31
0.0
  0
LINE
  5
462
330
4D2
100
AcDbEntity
  8
DIM
  6
Continuous
 62
     7
370
    13
100
AcDbLine
 10
55.87275
 20
-45.277458
 30
0.0
 11
64.973479
 21
-45.277458
 31
0.0
  0
LINE
  5
463
330
4D2
100
AcDbEntity
  8
DIM
  6
Continuous
 62
     7
370
    13
100
AcDbLine
 10
55.87275
 20
-44.777427
 30
0.0
 11
64.973479
 21
-44.777427
 31
0.0
  0
LINE
  5
464
330
4D2
100
AcDbEntity
  8
DIM
  6
Continuous
 62
     7
370
    13
100
AcDbLine
 10
55.87275
 20
-45.277458
 30
0.0
 11
55.87275
 21
-38.026885
 31
0.0
  0
LINE
  5
465
330
4D2
100
AcDbEntity
  8
DIM
  6
Continuous
 62
     7
370
    13
100
AcDbLine
 10
64.973479
 20
-45.277458
 30
0.0
 11
64.973479
 21
-38.026885
 31
0.0
  0
LINE
  5
466
330
4D2
100
AcDbEntity
  8
DIM
  6
Continuous
 62
     7
370
    13
100
AcDbLine
 10
55.87275
 20
-38.026885
 30
0.0
 11
64.973479
 21
-38.026885
 31
0.0
  0
LINE
  5
469
330
4D2
100
AcDbEntity
  8
_0
  6
Continuous
 62
     7
370
    13
100
AcDbLine
 10
60.978333
 20
-38.941875
 30
0.0
 11
60.860479
 21
-38.941875
 31
0.0
  0
TEXT
  5
6D
330
4D2
100
AcDbEntity
  8
LEGEND
  6
Continuous
 62
     7
370
    13
100
AcDbText
 10
62.752853
 20
-38.895177
 30
0.0
 40
0.050625
  1
1/8"
 41
0.9
  7
Style-Arial
100
AcDbText
  0
TEXT
  5
7B
330
4D2
100
AcDbEntity
  8
LEGEND
  6
Continuous
 62
     7
370
    13
100
AcDbText
 10
63.679844
 20
-38.769249
 30
0.0
 40
0.050625
  1
1/8" x 1"
 41
0.9
  7
Style-Arial
100
AcDbText
  0
TEXT
  5
7C
330
4D2
100
AcDbEntity
  8
LEGEND
  6
Continuous
 62
     7
370
    13
100
AcDbText
 10
63.685763
 20
-38.645073
 30
0.0
 40
0.050625
  1
1/8"
 41
0.9
  7
Style-Arial
100
AcDbText
  0
TEXT
  5
80
330
4D2
100
AcDbEntity
  8
LEGEND
  6
Continuous
 62
     7
370
    13
100
AcDbText
 10
63.65401
 20
-42.513281
 30
0.0
 40
0.050625
  1
1"
 50
90.0
 41
0.9
  7
Style-Arial
100
AcDbText
  0
TEXT
  5
8A
330
4D2
100
AcDbEntity
  8
TEXT
  6
Continuous
 62
     7
370
    13
100
AcDbText
 10
56.559167
 20
-44.430062
 30
0.0
 40
0.050625
  1
SEE AASHTO "GUIDE FOR SELECTING, LOCATING
 41
0.9
  7
Style-Arial
100
AcDbText
  0
TEXT
  5
8B
330
4D2
100
AcDbEntity
  8
TEXT
  6
Continuous
 62
     7
370
    13
100
AcDbText
 10
56.565229
 20
-44.511448
 30
0.0
 40
0.050625
  1
AND DESIGNING TRAFFIC BARRIERS"
 41
0.9
  7
Style-Arial
100
AcDbText
  0
TEXT
  5
122
330
4D2
100
AcDbEntity
  8
HATCH
  6
Continuous
 62
     7
370
    13
100
AcDbText
 10
56.665469
 20
-41.691885
 30
0.0
 40
0.050625
  1
SUBSTITUTED FOR DESIGNS SHOWN HEREON.
 41
0.9
  7
Style-Arial
100
AcDbText
  0
TEXT
  5
123
330
4D2
100
AcDbEntity
  8
HATCH
  6
Continuous
 62
     7
370
    13
100
AcDbText
 10
56.665469
 20
-41.610937
 30
0.0
 40
0.050625
  1
ALTERNATE STEEL POSTS DETAILED ON FIGURE 2-30g MAY BE
 41
0.9
  7
Style-Arial
100
AcDbText
  0
TEXT
  5
124
330
4D2
100
AcDbEntity
  8
HATCH
  6
Continuous
 62
     7
370
    13
100
AcDbText
 10
56.665469
 20
-41.44901
 30
0.0
 40
0.050625
  1
COMPLETE BEFORE FABRICATED UNIT IS HOT DIP GALVANIZED.
 41
0.9
  7
Style-Arial
100
AcDbText
  0
TEXT
  5
125
330
4D2
100
AcDbEntity
  8
HATCH
  6
Continuous
 62
     7
370
    13
100
AcDbText
 10
56.665469
 20
-41.368052
 30
0.0
 40
0.050625
  1
REMOVAL OF ALL BURRS AND SHARP EDGES SHALL BE
 41
0.9
  7
Style-Arial
100
AcDbText
  0
TEXT
  5
126
330
4D2
100
AcDbEntity
  8
HATCH
  6
Continuous
 62
     7
370
    13
100
AcDbText
 10
56.665469
 20
-41.287094
 30
0.0
 40
0.050625
  1
SHALL BE IN ACCORDANCE WITH ASSHTO M-183
 41
0.9
  7
Style-Arial
100
AcDbText
  0
TEXT
  5
127
330
4D2
100
AcDbEntity
  8
HATCH
  6
Continuous
 62
     7
370
    13
100
AcDbText
 10
56.665469
 20
-41.206135
 30
0.0
 40
0.050625
  1
ALL PLATE MATERIAL USED FOR FABRICATION OF THIS UNIT
 41
0.9
  7
Style-Arial
100
AcDbText
  0
TEXT
  5
128
330
4D2
100
AcDbEntity
  8
HATCH
  6
Continuous
 62
     7
370
    13
100
AcDbText
 10
56.665469
 20
-41.044219
 30
0.0
 40
0.050625
  1
AND SECURED IN POSITION BY THE PITCH PLATE.
 41
0.9
  7
Style-Arial
100
AcDbText
  0
TEXT
  5
129
330
4D2
100
AcDbEntity
  8
HATCH
  6
Continuous
 62
     7
370
    13
100
AcDbText
 10
56.665469
 20
-40.96326
 30
0.0
 40
0.050625
  1
ANCHOR BRACKET TO BE ROTATED TO THE ANGLE INDICATED
 41
0.9
  7
Style-Arial
100
AcDbText
  0
TEXT
  5
12A
330
4D2
100
AcDbEntity
  8
HATCH
  6
Continuous
 62
     7
370
    13
100
AcDbText
 10
56.665469
 20
-40.801344
 30
0.0
 40
0.050625
  1
THE PRICE BID FOR "GUARD RAIL TERMINAL, COMPLETE."
 41
0.9
  7
Style-Arial
100
AcDbText
  0
TEXT
  5
12B
330
4D2
100
AcDbEntity
  8
HATCH
  6
Continuous
 62
     7
370
    13
100
AcDbText
 10
56.665469
 20
-40.720385
 30
0.0
 40
0.050625
  1
PITCH PLATES FOR EACH INSTALLATION IS TO BE INCLUDED IN
 41
0.9
  7
Style-Arial
100
AcDbText
  0
TEXT
  5
12C
330
4D2
100
AcDbEntity
  8
HATCH
  6
Continuous
 62
     7
370
    13
100
AcDbText
 10
56.665469
 20
-40.639427
 30
0.0
 40
0.050625
  1
THE COST OF FURNISHING AND PLACING ANCHOR UNITS AND
 41
0.9
  7
Style-Arial
100
AcDbText
  0
TEXT
  5
12D
330
4D2
100
AcDbEntity
  8
HATCH
  6
Continuous
 62
     7
370
    13
100
AcDbText
 10
56.665469
 20
-40.47751
 30
0.0
 40
0.050625
  1
IN ACCORDANCE WITH SPECIFICATIONS.
 41
0.9
  7
Style-Arial
100
AcDbText
  0
TEXT
  5
12E
330
4D2
100
AcDbEntity
  8
HATCH
  6
Continuous
 62
     7
370
    13
100
AcDbText
 10
56.665469
 20
-40.396552
 30
0.0
 40
0.050625
  1
ALL COMPONENTS DETAIL HEREON ARE TO BE GALVANIZED
 41
0.9
  7
Style-Arial
100
AcDbText
  0
TEXT
  5
12F
330
4D2
100
AcDbEntity
  8
LEGEND
  6
Continuous
 62
     7
370
    13
100
AcDbText
 10
64.419583
 20
-42.854211
 30
0.0
 40
0.050625
  1
4-1/2"
 50
90.0
 41
0.9
  7
Style-Arial
100
AcDbText
  0
TEXT
  5
135
330
4D2
100
AcDbEntity
  8
LEGEND
  6
Continuous
 62
     7
370
    13
100
AcDbText
 10
63.796887
 20
-42.101771
 30
0.0
 40
0.050625
  1
5-3/8"
 41
0.9
  7
Style-Arial
100
AcDbText
  0
TEXT
  5
136
330
4D2
100
AcDbEntity
  8
LEGEND
  6
Continuous
 62
     7
370
    13
100
AcDbText
 10
63.93183
 20
-42.253083
 30
0.0
 40
0.050625
  1
2-11/16"
 41
0.9
  7
Style-Arial
100
AcDbText
  0
TEXT
  5
145
330
4D2
100
AcDbEntity
  8
2-30K
  6
Continuous
 62
     7
370
    13
100
AcDbText
 10
57.839532
 20
-43.517177
 30
0.0
 40
0.050625
  1
NOT TO SCALE
 41
0.9
  7
Style-Arial
100
AcDbText
  0
TEXT
  5
146
330
4D2
100
AcDbEntity
  8
TITLE
  6
Continuous
 62
     7
370
    13
100
AcDbText
 10
57.508948
 20
-42.445448
 30
0.0
 40
0.050625
  1
WITH HEX NUT
 41
0.9
  7
Style-Arial
100
AcDbText
  0
TEXT
  5
147
330
4D2
100
AcDbEntity
  8
TITLE
  6
Continuous
 62
     7
370
    13
100
AcDbText
 10
57.508948
 20
-42.3645
 30
0.0
 40
0.050625
  1
3/4" X 2" HEX HEAD BOLT
 41
0.9
  7
Style-Arial
100
AcDbText
  0
TEXT
  5
148
330
4D2
100
AcDbEntity
  8
TITLE
  6
Continuous
 62
     7
370
    13
100
AcDbText
 10
57.508948
 20
-42.285083
 30
0.0
 40
0.050625
  1
7/8" DIAMETER HOLE
 41
0.9
  7
Style-Arial
100
AcDbText
  0
TEXT
  5
149
330
4D2
100
AcDbEntity
  8
TITLE
  6
Continuous
 62
     7
370
    13
100
AcDbText
 10
62.847294
 20
-42.597896
 30
0.0
 40
0.050625
  1
3/32" RAD.
 41
0.9
  7
Style-Arial
100
AcDbText
  0
TEXT
  5
14A
330
4D2
100
AcDbEntity
  8
TITLE
  6
Continuous
 62
     7
370
    13
100
AcDbText
 10
62.847294
 20
-42.677802
 30
0.0
 40
0.050625
  1
TYP. 3 CORNERS
 41
0.9
  7
Style-Arial
100
AcDbText
  0
TEXT
  5
14E
330
4D2
100
AcDbEntity
  8
TITLE
  6
Continuous
 62
     7
370
    13
100
AcDbText
 10
62.929044
 20
-42.812833
 30
0.0
 40
0.050625
  1
LOCKING LUG
 41
0.9
  7
Style-Arial
100
AcDbText
  0
TEXT
  5
14F
330
4D2
100
AcDbEntity
  8
TITLE
  6
Continuous
 62
     7
370
    13
100
AcDbText
 10
62.93085
 20
-42.89274
 30
0.0
 40
0.050625
  1
5/16"x1"x1-1/4"
 41
0.9
  7
Style-Arial
100
AcDbText
  0
TEXT
  5
153
330
4D2
100
AcDbEntity
  8
LEGEND
  6
Continuous
 62
     7
370
    13
100
AcDbText
 10
60.245646
 20
-41.292574
 30
0.0
 40
0.050625
  1
2"
 50
90.0
 41
0.9
  7
Style-Arial
100
AcDbText
  0
TEXT
  5
158
330
4D2
100
AcDbEntity
  8
LEGEND
  6
Continuous
 62
     7
370
    13
100
AcDbText
 10
60.245646
 20
-41.013031
 30
0.0
 40
0.050625
  1
2"
 50
90.0
 41
0.9
  7
Style-Arial
100
AcDbText
  0
TEXT
  5
15F
330
4D2
100
AcDbEntity
  8
TITLE
  6
Continuous
 62
     7
370
    13
100
AcDbText
 10
60.682268
 20
-41.645771
 30
0.0
 40
0.050625
  1
FACE PLATE
 41
0.9
  7
Style-Arial
100
AcDbText
  0
TEXT
  5
166
330
4D2
100
AcDbEntity
  8
TITLE
  6
Continuous
 62
     7
370
    13
100
AcDbText
 10
61.19049
 20
-41.366937
 30
0.0
 40
0.050625
  1
POSITION PLATE
 41
0.9
  7
Style-Arial
100
AcDbText
  0
TEXT
  5
167
330
4D2
100
AcDbEntity
  8
LEGEND
  6
Continuous
 62
     7
370
    13
100
AcDbText
 10
60.894917
 20
-41.528979
 30
0.0
 40
0.050625
  1
BOLT W/HEX NUT
 41
0.9
  7
Style-Arial
100
AcDbText
  0
TEXT
  5
168
330
4D2
100
AcDbEntity
  8
LEGEND
  6
Continuous
 62
     7
370
    13
100
AcDbText
 10
60.894917
 20
-41.448021
 30
0.0
 40
0.050625
  1
3/4%x2" LG HEX
 41
0.9
  7
Style-Arial
100
AcDbText
  0
TEXT
  5
16B
330
4D2
100
AcDbEntity
  8
TITLE
  6
Continuous
 62
     7
370
    13
100
AcDbText
 10
61.354531
 20
-40.825875
 30
0.0
 40
0.050625
  1
POST WEB
 41
0.9
  7
Style-Arial
100
AcDbText
  0
TEXT
  5
16F
330
4D2
100
AcDbEntity
  8
LEGEND
  6
Continuous
 62
     7
370
    13
100
AcDbText
 10
60.1501
 20
-40.716979
 30
0.0
 40
0.050625
  1
1/4"
 41
0.9
  7
Style-Arial
100
AcDbText
  0
TEXT
  5
176
330
4D2
100
AcDbEntity
  8
LEGEND
  6
Continuous
 62
     7
370
    13
100
AcDbText
 10
60.719163
 20
-40.668792
 30
0.0
 40
0.050625
  1
5-11/16"
 41
0.9
  7
Style-Arial
100
AcDbText
  0
TEXT
  5
17C
330
4D2
100
AcDbEntity
  8
TITLE
  6
Continuous
 62
     7
370
    13
100
AcDbText
 10
61.394177
 20
-40.916885
 30
0.0
 40
0.050625
  1
PITCH PLATE
 41
0.9
  7
Style-Arial
100
AcDbText
  0
TEXT
  5
183
330
4D2
100
AcDbEntity
  8
LEGEND
  6
Continuous
 62
     7
370
    13
100
AcDbText
 10
61.594823
 20
-41.193479
 30
0.0
 40
0.050625
  1
5/16"
 41
0.9
  7
Style-Arial
100
AcDbText
  0
TEXT
  5
184
330
4D2
100
AcDbEntity
  8
LEGEND
  6
Continuous
 62
     7
370
    13
100
AcDbText
 10
61.594823
 20
-41.09176
 30
0.0
 40
0.050625
  1
1/4"
 41
0.9
  7
Style-Arial
100
AcDbText
  0
TEXT
  5
1C8
330
4D2
100
AcDbEntity
  8
LEGEND
  6
Continuous
 62
     7
370
    13
100
AcDbText
 10
64.495812
 20
-43.660406
 30
0.0
 40
0.050625
  1
AS NOTED
 41
0.9
  7
Style-Arial
100
AcDbText
  0
TEXT
  5
1CC
330
4D2
100
AcDbEntity
  8
LEGEND
  6
Continuous
 62
     7
370
    13
100
AcDbText
 10
64.444906
 20
-43.74526
 30
0.0
 40
0.050625
  1
1/4"
 41
0.9
  7
Style-Arial
100
AcDbText
  0
TEXT
  5
1D3
330
4D2
100
AcDbEntity
  8
LEGEND
  6
Continuous
 62
     7
370
    13
100
AcDbText
 10
64.081312
 20
-42.97149
 30
0.0
 40
0.050625
  1
1/2"
 50
90.0
 41
0.9
  7
Style-Arial
100
AcDbText
  0
TEXT
  5
1DB
330
4D2
100
AcDbEntity
  8
LEGEND
  6
Continuous
 62
     7
370
    13
100
AcDbText
 10
63.852167
 20
-43.640625
 30
0.0
 40
0.050625
  1
 3 SIDES
 41
0.9
  7
Style-Arial
100
AcDbText
  0
TEXT
  5
1DC
330
4D2
100
AcDbEntity
  8
LEGEND
  6
Continuous
 62
     7
370
    13
100
AcDbText
 10
63.861271
 20
-43.559667
 30
0.0
 40
0.050625
  1
1-1/4" TYP.
 41
0.9
  7
Style-Arial
100
AcDbText
  0
TEXT
  5
1E6
330
4D2
100
AcDbEntity
  8
LEGEND
  6
Continuous
 62
     7
370
    13
100
AcDbText
 10
64.008187
 20
-43.384208
 30
0.0
 40
0.050625
  1
5/8"    
 41
0.9
  7
Style-Arial
100
AcDbText
  0
TEXT
  5
217
330
4D2
100
AcDbEntity
  8
TITLE
  6
Continuous
 62
     7
370
    13
100
AcDbText
 10
62.662781
 20
-43.19201
 30
0.0
 40
0.050625
  1
GUARD RAIL BOLT)
 41
0.9
  7
Style-Arial
100
AcDbText
  0
TEXT
  5
218
330
4D2
100
AcDbEntity
  8
TITLE
  6
Continuous
 62
     7
370
    13
100
AcDbText
 10
62.662781
 20
-43.111052
 30
0.0
 40
0.050625
  1
(FOR 5/8"%x2" LG
 41
0.9
  7
Style-Arial
100
AcDbText
  0
TEXT
  5
219
330
4D2
100
AcDbEntity
  8
TITLE
  6
Continuous
 62
     7
370
    13
100
AcDbText
 10
62.662781
 20
-43.030094
 30
0.0
 40
0.050625
  1
3/4"% HOLE
 41
0.9
  7
Style-Arial
100
AcDbText
  0
TEXT
  5
21E
330
4D2
100
AcDbEntity
  8
LEGEND
  6
Continuous
 62
     7
370
    13
100
AcDbText
 10
62.218302
 20
-44.046219
 30
0.0
 40
0.050625
  1
4"
 41
0.9
  7
Style-Arial
100
AcDbText
  0
TEXT
  5
224
330
4D2
100
AcDbEntity
  8
LEGEND
  6
Continuous
 62
     7
370
    13
100
AcDbText
 10
62.358937
 20
-43.910833
 30
0.0
 40
0.050625
  1
2"
 41
0.9
  7
Style-Arial
100
AcDbText
  0
TEXT
  5
228
330
4D2
100
AcDbEntity
  8
LEGEND
  6
Continuous
 62
     7
370
    13
100
AcDbText
 10
62.077667
 20
-43.910833
 30
0.0
 40
0.050625
  1
2"
 41
0.9
  7
Style-Arial
100
AcDbText
  0
TEXT
  5
232
330
4D2
100
AcDbEntity
  8
TITLE
  6
Continuous
 62
     7
370
    13
100
AcDbText
 10
60.603279
 20
-44.121885
 30
0.0
 40
0.050625
  1
DETAIL HEREON
 41
0.9
  7
Style-Arial
100
AcDbText
  0
TEXT
  5
233
330
4D2
100
AcDbEntity
  8
TITLE
  6
Continuous
 62
     7
370
    13
100
AcDbText
 10
60.600257
 20
-44.040656
 30
0.0
 40
0.050625
  1
SEE TYP. TOOTH
 41
0.9
  7
Style-Arial
100
AcDbText
  0
TEXT
  5
237
330
4D2
100
AcDbEntity
  8
TITLE
  6
Continuous
 62
     7
370
    13
100
AcDbText
 10
60.107198
 20
-43.937406
 30
0.0
 40
0.050625
  1
 13/16"% HOLE
 41
0.9
  7
Style-Arial
100
AcDbText
  0
TEXT
  5
23B
330
4D2
100
AcDbEntity
  8
LEGEND
  6
Continuous
 62
     7
370
    13
100
AcDbText
 10
59.821979
 20
-42.850034
 30
0.0
 40
0.050625
  1
1'-1"
 50
90.0
 41
0.9
  7
Style-Arial
100
AcDbText
  0
TEXT
  5
241
330
4D2
100
AcDbEntity
  8
LEGEND
  6
Continuous
 62
     7
370
    13
100
AcDbText
 10
59.978542
 20
-43.337266
 30
0.0
 40
0.050625
  1
6-1/2"
 50
90.0
 41
0.9
  7
Style-Arial
100
AcDbText
  0
TEXT
  5
245
330
4D2
100
AcDbEntity
  8
LEGEND
  6
Continuous
 62
     7
370
    13
100
AcDbText
 10
59.978542
 20
-42.43474
 30
0.0
 40
0.050625
  1
6-1/2"
 50
90.0
 41
0.9
  7
Style-Arial
100
AcDbText
  0
TEXT
  5
24D
330
4D2
100
AcDbEntity
  8
LEGEND
  6
Continuous
 62
     7
370
    13
100
AcDbText
 10
60.160927
 20
-42.457594
 30
0.0
 40
0.050625
  1
1-1/2"
 50
90.0
 41
0.9
  7
Style-Arial
100
AcDbText
  0
TEXT
  5
24E
330
4D2
100
AcDbEntity
  8
LEGEND
  6
Continuous
 62
     7
370
    13
100
AcDbText
 10
60.160927
 20
-43.321345
 30
0.0
 40
0.050625
  1
1-1/2"
 50
90.0
 41
0.9
  7
Style-Arial
100
AcDbText
  0
TEXT
  5
254
330
4D2
100
AcDbEntity
  8
LEGEND
  6
Continuous
 62
     7
370
    13
100
AcDbText
 10
60.211135
 20
-42.903969
 30
0.0
 40
0.050625
  1
1"
 50
90.0
 41
0.9
  7
Style-Arial
100
AcDbText
  0
TEXT
  5
259
330
4D2
100
AcDbEntity
  8
LEGEND
  6
Continuous
 62
     7
370
    13
100
AcDbText
 10
60.211135
 20
-42.747708
 30
0.0
 40
0.050625
  1
1"
 50
90.0
 41
0.9
  7
Style-Arial
100
AcDbText
  0
TEXT
  5
264
330
4D2
100
AcDbEntity
  8
LEGEND
  6
Continuous
 62
     7
370
    13
100
AcDbText
 10
60.971656
 20
-42.754771
 30
0.0
 40
0.050625
  1
7/16" RAD.
 41
0.9
  7
Style-Arial
100
AcDbText
  0
TEXT
  5
26D
330
4D2
100
AcDbEntity
  8
LEGEND
  6
Continuous
 62
     7
370
    13
100
AcDbText
 10
60.729374
 20
-42.357483
 30
0.0
 40
0.050625
  1
1/4"
 41
0.9
  7
Style-Arial
100
AcDbText
  0
TEXT
  5
274
330
4D2
100
AcDbEntity
  8
LEGEND
  6
Continuous
 62
     7
370
    13
100
AcDbText
 10
60.326667
 20
-42.29024
 30
0.0
 40
0.050625
  1
5/16"
 50
90.0
 41
0.9
  7
Style-Arial
100
AcDbText
  0
TEXT
  5
27A
330
4D2
100
AcDbEntity
  8
LEGEND
  6
Continuous
 62
     7
370
    13
100
AcDbText
 10
60.973375
 20
-42.504125
 30
0.0
 40
0.050625
  1
2-1/2" RAD.
 41
0.9
  7
Style-Arial
100
AcDbText
  0
TEXT
  5
27F
330
4D2
100
AcDbEntity
  8
LEGEND
  6
Continuous
 62
     7
370
    13
100
AcDbText
 10
60.968396
 20
-42.641052
 30
0.0
 40
0.050625
  1
1" RAD.
 41
0.9
  7
Style-Arial
100
AcDbText
  0
TEXT
  5
284
330
4D2
100
AcDbEntity
  8
LEGEND
  6
Continuous
 62
     7
370
    13
100
AcDbText
 10
60.591845
 20
-42.154792
 30
0.0
 40
0.050625
  1
3-3/16"
 41
0.9
  7
Style-Arial
100
AcDbText
  0
TEXT
  5
289
330
4D2
100
AcDbEntity
  8
LEGEND
  6
Continuous
 62
     7
370
    13
100
AcDbText
 10
60.496427
 20
-43.660361
 30
0.0
 40
0.050625
  1
1/4" RAD.
 50
90.0
 41
0.9
  7
Style-Arial
100
AcDbText
  0
TEXT
  5
28D
330
4D2
100
AcDbEntity
  8
LEGEND
  6
Continuous
 62
     7
370
    13
100
AcDbText
 10
60.593812
 20
-43.045604
 30
0.0
 40
0.050625
  1
13/16"
 41
0.9
  7
Style-Arial
100
AcDbText
  0
TEXT
  5
293
330
4D2
100
AcDbEntity
  8
LEGEND
  6
Continuous
 62
     7
370
    13
100
AcDbText
 10
60.541344
 20
-43.162469
 30
0.0
 40
0.050625
  1
1/2"
 41
0.9
  7
Style-Arial
100
AcDbText
  0
TEXT
  5
29A
330
4D2
100
AcDbEntity
  8
LEGEND
  6
Continuous
 62
     7
370
    13
100
AcDbText
 10
60.91301
 20
-43.832708
 30
0.0
 40
0.050625
  1
3/8"
 50
90.0
 41
0.9
  7
Style-Arial
100
AcDbText
  0
TEXT
  5
2A0
330
4D2
100
AcDbEntity
  8
LEGEND
  6
Continuous
 62
     7
370
    13
100
AcDbText
 10
60.663969
 20
-43.451781
 30
0.0
 40
0.050625
  1
2-1/2"
 50
43.904347
 41
0.9
  7
Style-Arial
100
AcDbText
  0
TEXT
  5
2A3
330
4D2
100
AcDbEntity
  8
LEGEND
  6
Continuous
 62
     7
370
    13
100
AcDbText
 10
61.309333
 20
-42.900844
 30
0.0
 40
0.050625
  1
1"
 50
90.0
 41
0.9
  7
Style-Arial
100
AcDbText
  0
TEXT
  5
2AB
330
4D2
100
AcDbEntity
  8
LEGEND
  6
Continuous
 62
     7
370
    13
100
AcDbText
 10
61.498469
 20
-43.928062
 30
0.0
 40
0.050625
  1
TYP.
 41
0.9
  7
Style-Arial
100
AcDbText
  0
TEXT
  5
2AF
330
4D2
100
AcDbEntity
  8
LEGEND
  6
Continuous
 62
     7
370
    13
100
AcDbText
 10
61.498469
 20
-43.861427
 30
0.0
 40
0.050625
  1
15^ 
 41
0.9
  7
Style-Arial
100
AcDbText
  0
TEXT
  5
2E4
330
4D2
100
AcDbEntity
  8
LEGEND
  6
Continuous
 62
     7
370
    13
100
AcDbText
 10
61.59374
 20
-43.054073
 30
0.0
 40
0.050625
  1
3"
 50
90.0
 41
0.9
  7
Style-Arial
100
AcDbText
  0
TEXT
  5
2F8
330
4D2
100
AcDbEntity
  8
LEGEND
  6
Continuous
 62
     7
370
    13
100
AcDbText
 10
63.793802
 20
-40.558208
 30
0.0
 40
0.050625
  1
3/32" RAD.
 41
0.9
  7
Style-Arial
100
AcDbText
  0
TEXT
  5
2FE
330
4D2
100
AcDbEntity
  8
LEGEND
  6
Continuous
 62
     7
370
    13
100
AcDbText
 10
62.687265
 20
-40.98374
 30
0.0
 40
0.050625
  1
2-1/2" RAD.
 41
0.9
  7
Style-Arial
100
AcDbText
  0
TEXT
  5
302
330
4D2
100
AcDbEntity
  8
LEGEND
  6
Continuous
 62
     7
370
    13
100
AcDbText
 10
63.162748
 20
-41.300429
 30
0.0
 40
0.050625
  1
2-1/8" RAD.
 50
19.738358
 41
0.9
  7
Style-Arial
100
AcDbText
  0
TEXT
  5
308
330
4D2
100
AcDbEntity
  8
LEGEND
  6
Continuous
 62
     7
370
    13
100
AcDbText
 10
63.398771
 20
-40.711948
 30
0.0
 40
0.050625
  1
15^ 
 41
0.9
  7
Style-Arial
100
AcDbText
  0
TEXT
  5
30E
330
4D2
100
AcDbEntity
  8
LEGEND
  6
Continuous
 62
     7
370
    13
100
AcDbText
 10
63.871257
 20
-40.815691
 30
0.0
 40
0.050625
  1
60
 41
0.9
  7
Style-Arial
100
AcDbText
  0
TEXT
  5
315
330
4D2
100
AcDbEntity
  8
LEGEND
  6
Continuous
 62
     7
370
    13
100
AcDbText
 10
63.727146
 20
-40.64699
 30
0.0
 40
0.050625
  1
30
 41
0.9
  7
Style-Arial
100
AcDbText
  0
TEXT
  5
319
330
4D2
100
AcDbEntity
  8
LEGEND
  6
Continuous
 62
     7
370
    13
100
AcDbText
 10
63.650302
 20
-40.988885
 30
0.0
 40
0.050625
  1
30
 41
0.9
  7
Style-Arial
100
AcDbText
  0
TEXT
  5
31D
330
4D2
100
AcDbEntity
  8
LEGEND
  6
Continuous
 62
     7
370
    13
100
AcDbText
 10
63.59701
 20
-40.258948
 30
0.0
 40
0.050625
  1
3/8"
 50
45.530828
 41
0.9
  7
Style-Arial
100
AcDbText
  0
TEXT
  5
33F
330
4D2
100
AcDbEntity
  8
LEGEND
  6
Continuous
 62
     7
370
    13
100
AcDbText
 10
63.005552
 20
-38.783167
 30
0.0
 40
0.050625
  1
90^ 
 41
0.9
  7
Style-Arial
100
AcDbText
  0
TEXT
  5
36D
330
4D2
100
AcDbEntity
  8
LEGEND
  6
Continuous
 62
     7
370
    13
100
AcDbText
 10
56.585
 20
-39.015573
 30
0.0
 40
0.050625
  1
13"
 50
90.0
 41
0.9
  7
Style-Arial
100
AcDbText
  0
TEXT
  5
373
330
4D2
100
AcDbEntity
  8
LEGEND
  6
Continuous
 62
     7
370
    13
100
AcDbText
 10
57.266469
 20
-39.194509
 30
0.0
 40
0.050625
  1
6-1/2"
 50
90.0
 41
0.9
  7
Style-Arial
100
AcDbText
  0
TEXT
  5
379
330
4D2
100
AcDbEntity
  8
LEGEND
  6
Continuous
 62
     7
370
    13
100
AcDbText
 10
56.916344
 20
-39.461406
 30
0.0
 40
0.050625
  1
6"
 41
0.9
  7
Style-Arial
100
AcDbText
  0
TEXT
  5
380
330
4D2
100
AcDbEntity
  8
LEGEND
  6
Continuous
 62
     7
370
    13
100
AcDbText
 10
57.197406
 20
-38.491687
 30
0.0
 40
0.050625
  1
1-1/2"
 41
0.9
  7
Style-Arial
100
AcDbText
  0
TEXT
  5
381
330
4D2
100
AcDbEntity
  8
TITLE
  6
Continuous
 62
     7
370
    13
100
AcDbText
 10
57.219354
 20
-38.711354
 30
0.0
 40
0.050625
  1
3/4" HOLE DRILLED
 41
0.9
  7
Style-Arial
100
AcDbText
  0
TEXT
  5
382
330
4D2
100
AcDbEntity
  8
TITLE
  6
Continuous
 62
     7
370
    13
100
AcDbText
 10
57.219354
 20
-38.792313
 30
0.0
 40
0.050625
  1
FOR 5/ " BOLT
 41
0.9
  7
Style-Arial
100
AcDbText
  0
TEXT
  5
389
330
4D2
100
AcDbEntity
  8
TITLE
  6
Continuous
 62
     7
370
    13
100
AcDbText
 10
56.880854
 20
-38.350625
 30
0.0
 40
0.050625
  1
1/2" STEEL PLATE
 41
0.9
  7
Style-Arial
100
AcDbText
  0
TEXT
  5
3FC
330
4D2
100
AcDbEntity
  8
LEGEND
  6
Continuous
 62
     7
370
    13
100
AcDbText
 10
61.321226
 20
-39.573698
 30
0.0
 40
0.050625
  1
6'-3"
 41
0.9
  7
Style-Arial
100
AcDbText
  0
TEXT
  5
3FD
330
4D2
100
AcDbEntity
  8
LEGEND
  6
Continuous
 62
     7
370
    13
100
AcDbText
 10
60.548675
 20
-39.573698
 30
0.0
 40
0.050625
  1
6'-3"
 41
0.9
  7
Style-Arial
100
AcDbText
  0
TEXT
  5
3FE
330
4D2
100
AcDbEntity
  8
LEGEND
  6
Continuous
 62
     7
370
    13
100
AcDbText
 10
59.77109
 20
-39.573698
 30
0.0
 40
0.050625
  1
6'-3"
 41
0.9
  7
Style-Arial
100
AcDbText
  0
TEXT
  5
3FF
330
4D2
100
AcDbEntity
  8
LEGEND
  6
Continuous
 62
     7
370
    13
100
AcDbText
 10
58.995381
 20
-39.573698
 30
0.0
 40
0.050625
  1
6'-3"
 41
0.9
  7
Style-Arial
100
AcDbText
  0
TEXT
  5
403
330
4D2
100
AcDbEntity
  8
_0
  6
Continuous
 62
     7
370
    13
100
AcDbText
 10
63.072198
 20
-39.08601
 30
0.0
 40
0.050625
  1
B
 41
0.9
  7
Style-Arial
100
AcDbText
  0
TEXT
  5
404
330
4D2
100
AcDbEntity
  8
_0
  6
Continuous
 62
     7
370
    13
100
AcDbText
 10
63.072198
 20
-39.978552
 30
0.0
 40
0.050625
  1
B
 41
0.9
  7
Style-Arial
100
AcDbText
  0
TEXT
  5
408
330
4D2
100
AcDbEntity
  8
_0
  6
Continuous
 62
     7
370
    13
100
AcDbText
 10
60.756948
 20
-38.968719
 30
0.0
 40
0.050625
  1
A
 41
0.9
  7
Style-Arial
100
AcDbText
  0
TEXT
  5
40E
330
4D2
100
AcDbEntity
  8
_0
  6
Continuous
 62
     7
370
    13
100
AcDbText
 10
60.756948
 20
-39.984219
 30
0.0
 40
0.050625
  1
A
 41
0.9
  7
Style-Arial
100
AcDbText
  0
TEXT
  5
412
330
4D2
100
AcDbEntity
  8
LEGEND
  6
Continuous
 62
     7
370
    13
100
AcDbText
 10
58.458535
 20
-39.215604
 30
0.0
 40
0.050625
  1
14"
 41
0.9
  7
Style-Arial
100
AcDbText
  0
TEXT
  5
413
330
4D2
100
AcDbEntity
  8
LEGEND
  6
Continuous
 62
     7
370
    13
100
AcDbText
 10
59.11331
 20
-39.215604
 30
0.0
 40
0.050625
  1
11-1/2"
 41
0.9
  7
Style-Arial
100
AcDbText
  0
TEXT
  5
41A
330
4D2
100
AcDbEntity
  8
LEGEND
  6
Continuous
 62
     7
370
    13
100
AcDbText
 10
60.677481
 20
-39.232292
 30
0.0
 40
0.050625
  1
8-1/2"
 41
0.9
  7
Style-Arial
100
AcDbText
  0
TEXT
  5
41B
330
4D2
100
AcDbEntity
  8
LEGEND
  6
Continuous
 62
     7
370
    13
100
AcDbText
 10
59.997736
 20
-39.227375
 30
0.0
 40
0.050625
  1
10"
 41
0.9
  7
Style-Arial
100
AcDbText
  0
TEXT
  5
421
330
4D2
100
AcDbEntity
  8
LEGEND
  6
Continuous
 62
     7
370
    13
100
AcDbText
 10
61.614084
 20
-39.25024
 30
0.0
 40
0.050625
  1
7"
 41
0.9
  7
Style-Arial
100
AcDbText
  0
TEXT
  5
427
330
4D2
100
AcDbEntity
  8
LEGEND
  6
Continuous
 62
     7
370
    13
100
AcDbText
 10
62.210109
 20
-39.375146
 30
0.0
 40
0.050625
  1
5-1/2"
 41
0.9
  7
Style-Arial
100
AcDbText
  0
TEXT
  5
42C
330
4D2
100
AcDbEntity
  8
LEGEND
  6
Continuous
 62
     7
370
    13
100
AcDbText
 10
63.108703
 20
-39.380448
 30
0.0
 40
0.050625
  1
4"
 41
0.9
  7
Style-Arial
100
AcDbText
  0
TEXT
  5
434
330
4D2
100
AcDbEntity
  8
LEGEND
  6
Continuous
 62
     7
370
    13
100
AcDbText
 10
62.265448
 20
-38.774563
 30
0.0
 40
0.050625
  1
75^ 
 41
0.9
  7
Style-Arial
100
AcDbText
  0
TEXT
  5
439
330
4D2
100
AcDbEntity
  8
LEGEND
  6
Continuous
 62
     7
370
    13
100
AcDbText
 10
61.501656
 20
-38.733104
 30
0.0
 40
0.050625
  1
60^ 
 41
0.9
  7
Style-Arial
100
AcDbText
  0
TEXT
  5
43E
330
4D2
100
AcDbEntity
  8
LEGEND
  6
Continuous
 62
     7
370
    13
100
AcDbText
 10
60.79276
 20
-38.801333
 30
0.0
 40
0.050625
  1
45^ 
 41
0.9
  7
Style-Arial
100
AcDbText
  0
TEXT
  5
444
330
4D2
100
AcDbEntity
  8
LEGEND
  6
Continuous
 62
     7
370
    13
100
AcDbText
 10
60.059427
 20
-38.812771
 30
0.0
 40
0.050625
  1
30^ 
 41
0.9
  7
Style-Arial
100
AcDbText
  0
TEXT
  5
44A
330
4D2
100
AcDbEntity
  8
LEGEND
  6
Continuous
 62
     7
370
    13
100
AcDbText
 10
59.172594
 20
-38.734437
 30
0.0
 40
0.050625
  1
15^ 
 41
0.9
  7
Style-Arial
100
AcDbText
  0
TEXT
  5
44E
330
4D2
100
AcDbEntity
  8
TITLE
  6
Continuous
 62
     7
370
    13
100
AcDbText
 10
63.602056
 20
-39.139042
 30
0.0
 40
0.050625
  1
FLAT
 41
0.9
  7
Style-Arial
100
AcDbText
  0
TEXT
  5
451
330
4D2
100
AcDbEntity
  8
TITLE
  6
Continuous
 62
     7
370
    13
100
AcDbText
 10
61.017281
 20
-39.411313
 30
0.0
 40
0.050625
  1
INTERMEDIATE POST
 41
0.9
  7
Style-Arial
100
AcDbText
  0
TEXT
  5
452
330
4D2
100
AcDbEntity
  8
TITLE
  6
Continuous
 62
     7
370
    13
100
AcDbText
 10
61.134573
 20
-39.492896
 30
0.0
 40
0.050625
  1
(SEE DETAIL)
 41
0.9
  7
Style-Arial
100
AcDbText
  0
TEXT
  5
455
330
4D2
100
AcDbEntity
  8
TITLE
  6
Continuous
 62
     7
370
    13
100
AcDbText
 10
60.370146
 20
-39.461604
 30
0.0
 40
0.050625
  1
W6 x 8.5
 41
0.9
  7
Style-Arial
100
AcDbText
  0
TEXT
  5
45A
330
4D2
100
AcDbEntity
  8
LEGEND
  6
Continuous
 62
     7
370
    13
100
AcDbText
 10
58.215375
 20
-39.669934
 30
0.0
 40
0.050625
  1
3'-6" MIN
 50
90.0
 41
0.9
  7
Style-Arial
100
AcDbText
  0
TEXT
  5
45B
330
4D2
100
AcDbEntity
  8
LEGEND
  6
Continuous
 62
     7
370
    13
100
AcDbText
 10
58.314229
 20
-39.61276
 30
0.0
 40
0.050625
  1
TYP.
 50
90.0
 41
0.9
  7
Style-Arial
100
AcDbText
  0
TEXT
  5
467
330
4D2
100
AcDbEntity
  8
LEGEND
  6
Continuous
 62
     7
370
    13
100
AcDbText
 10
62.081809
 20
-39.573698
 30
0.0
 40
0.050625
  1
6'-3"
 41
0.9
  7
Style-Arial
100
AcDbText
  0
TEXT
  5
468
330
4D2
100
AcDbEntity
  8
LEGEND
  6
Continuous
 62
     7
370
    13
100
AcDbText
 10
62.870945
 20
-39.573698
 30
0.0
 40
0.050625
  1
6'-3"
 41
0.9
  7
Style-Arial
100
AcDbText
  0
TEXT
  5
46A
330
4D2
100
AcDbEntity
  8
TITLE
  6
Continuous
 62
     7
370
    13
100
AcDbText
 10
57.480031
 20
-38.792302
 30
0.0
 40
0.050625
  1
8
 41
0.9
  7
Style-Arial
100
AcDbText
  0
TEXT
  5
46B
330
4D2
100
AcDbEntity
  8
TEXT
  6
Continuous
 62
     7
370
    13
100
AcDbText
 10
56.11884
 20
-44.348677
 30
0.0
 40
0.050625
  1
REFERENCE:  FOR MORE INFORMATION ON GUARD RAILS
 41
0.9
  7
Style-Arial
100
AcDbText
  0
TEXT
  5
88
330
4D2
100
AcDbEntity
  8
Level 8
  6
Continuous
 62
     7
370
    13
100
AcDbText
 10
58.275529
 20
-45.146931
 30
0.0
 40
0.10125
  1
GUARD RAIL TERMINAL TREATMENT
 41
0.9
  7
Style-Arial
100
AcDbText
  0
TEXT
  5
45F
330
4D2
100
AcDbEntity
  8
DIM
  6
Continuous
 62
     7
370
    13
100
AcDbText
 10
63.170633
 20
-45.01605
 30
0.0
 40
0.075937
  1
DATE
 41
0.9
  7
Style-Arial
100
AcDbText
  0
TEXT
  5
45D
330
4D2
100
AcDbEntity
  8
DIM
  6
Continuous
 62
     7
370
    13
100
AcDbText
 10
64.273325
 20
-45.011774
 30
0.0
 40
0.075937
  1
FIGURE
 41
0.9
  7
Style-Arial
100
AcDbText
  0
TEXT
  5
45C
330
4D2
100
AcDbEntity
  8
DIM
  6
Continuous
 62
     7
370
    13
100
AcDbText
 10
64.328314
 20
-45.138425
 30
0.0
 40
0.075937
  1
2-30k
 41
0.9
  7
Style-Arial
100
AcDbText
  0
TEXT
  5
461
330
4D2
100
AcDbEntity
  8
Level 8
  6
Continuous
 62
     7
370
    13
100
AcDbText
 10
57.795307
 20
-44.958465
 30
0.0
 40
0.10125
  1
TYPICAL ALTERNATE ANCHORAGE FOR WITH BEAM
 41
0.9
  7
Style-Arial
100
AcDbText
  0
TEXT
  5
89
330
4D2
100
AcDbEntity
  8
Level 8
  6
Continuous
 62
     7
370
    13
100
AcDbText
 10
61.946998
 20
-40.078637
 30
0.0
 40
0.075937
  1
ELEVATION
 41
0.9
  7
Style-Arial
100
AcDbText
  0
TEXT
  5
140
330
4D2
100
AcDbEntity
  8
Level 8
  6
Continuous
 62
     7
370
    13
100
AcDbText
 10
62.947407
 20
-41.582488
 30
0.0
 40
0.075937
  1
TYPICAL TOOTH DETAIL
 41
0.9
  7
Style-Arial
100
AcDbText
  0
TEXT
  5
144
330
4D2
100
AcDbEntity
  8
Level 8
  6
Continuous
 62
     7
370
    13
100
AcDbText
 10
60.057753
 20
-44.339326
 30
0.0
 40
0.075937
  1
POSITION ON PALTE
 41
0.9
  7
Style-Arial
100
AcDbText
  0
TEXT
  5
143
330
4D2
100
AcDbEntity
  8
Level 8
  6
Continuous
 62
     7
370
    13
100
AcDbText
 10
60.243425
 20
-44.464294
 30
0.0
 40
0.075937
  1
5/16" x 5" x 9"
 41
0.9
  7
Style-Arial
100
AcDbText
  0
TEXT
  5
142
330
4D2
100
AcDbEntity
  8
Level 8
  6
Continuous
 62
     7
370
    13
100
AcDbText
 10
61.952436
 20
-44.316177
 30
0.0
 40
0.075937
  1
FACE PLATE
 41
0.9
  7
Style-Arial
100
AcDbText
  0
TEXT
  5
141
330
4D2
100
AcDbEntity
  8
Level 8
  6
Continuous
 62
     7
370
    13
100
AcDbText
 10
63.61674
 20
-43.982915
 30
0.0
 40
0.075937
  1
PITCH PLATE
 41
0.9
  7
Style-Arial
100
AcDbText
  0
TEXT
  5
365
330
4D2
100
AcDbEntity
  8
Level 8
  6
Continuous
 62
     7
370
    13
100
AcDbText
 10
56.355937
 20
-39.658064
 30
0.0
 40
0.075937
  1
DETAIL OF STEEL PLATE
 41
0.9
  7
Style-Arial
100
AcDbText
  0
TEXT
  5
364
330
4D2
100
AcDbEntity
  8
Level 8
  6
Continuous
 62
     7
370
    13
100
AcDbText
 10
56.246864
 20
-39.781543
 30
0.0
 40
0.075937
  1
(APPLICABLE TO POST NO. 1)
 41
0.9
  7
Style-Arial
100
AcDbText
  0
TEXT
  5
44F
330
4D2
100
AcDbEntity
  8
TITLE
  6
Continuous
 62
     7
370
    13
100
AcDbText
 10
58.555217
 20
-38.929697
 30
0.0
 40
0.075937
  1
REGULAR SECTION
 41
0.9
  7
Style-Arial
100
AcDbText
  0
TEXT
  5
4BD
330
4D2
100
AcDbEntity
  8
_0
  6
Continuous
 62
     7
370
    13
100
AcDbText
 10
58.448609
 20
-38.490806
 30
0.0
 40
0.075937
  1
NORMAL
 41
0.9
  7
Style-Arial
100
AcDbText
  0
TEXT
  5
121
330
4D2
100
AcDbEntity
  8
HATCH
  6
Continuous
 62
     7
370
    13
100
AcDbText
 10
57.463067
 20
-40.231052
 30
0.0
 40
0.075937
  1
NOTES
 41
0.9
  7
Style-Arial
100
AcDbText
  0
ENDSEC
  0
SECTION
  2
OBJECTS
  0
DICTIONARY
  5
4C6
330
0
100
AcDbDictionary
281
     1
  3
ACAD_COLOR
350
4E5
  3
ACAD_GROUP
350
4E2
  3
ACAD_LAYOUT
350
4D6
  3
ACAD_MATERIAL
350
4E4
  3
ACAD_MLINESTYLE
350
4D0
  3
ACAD_PLOTSETTINGS
350
4E3
  3
ACAD_PLOTSTYLENAME
350
4C5
  3
ACAD_TABLESTYLE
350
4FD
  3
AcadDim
350
4F2
  3
MicroStation
350
4EA
  0
DICTIONARY
  5
4C2
330
4C1
100
AcDbDictionary
280
     1
281
     1
  3
ACAD_LAYERFILTERS
360
4E9
  3
ACAD_LAYERSTATES
360
4C3
  0
DICTIONARY
  5
4F9
330
4D2
100
AcDbDictionary
280
     1
281
     1
  3
ACAD_SORTENTS
360
4FA
  0
DICTIONARY
  5
4E5
102
{ACAD_REACTORS
330
4C6
102
}
330
4C6
100
AcDbDictionary
281
     1
  0
DICTIONARY
  5
4E2
102
{ACAD_REACTORS
330
4C6
102
}
330
4C6
100
AcDbDictionary
281
     1
  0
DICTIONARY
  5
4D6
102
{ACAD_REACTORS
330
4C6
102
}
330
4C6
100
AcDbDictionary
281
     1
  3
Layout1
350
4DA
  3
Model
350
4D5
  0
DICTIONARY
  5
4E4
102
{ACAD_REACTORS
330
4C6
102
}
330
4C6
100
AcDbDictionary
281
     1
  0
DICTIONARY
  5
4D0
102
{ACAD_REACTORS
330
4C6
102
}
330
4C6
100
AcDbDictionary
281
     1
  3
Standard
350
4CF
  0
DICTIONARY
  5
4E3
102
{ACAD_REACTORS
330
4C6
102
}
330
4C6
100
AcDbDictionary
281
     1
  0
ACDBDICTIONARYWDFLT
  5
4C5
102
{ACAD_REACTORS
330
4C6
102
}
330
4C6
100
AcDbDictionary
281
     1
  3
Normal
350
4C4
100
AcDbDictionaryWithDefault
340
4C4
  0
DICTIONARY
  5
4FD
102
{ACAD_REACTORS
330
4C6
102
}
330
4C6
100
AcDbDictionary
281
     1
  0
XRECORD
  5
4F2
102
{ACAD_REACTORS
330
4C6
102
}
330
4C6
100
AcDbXrecord
280
     1
 90
   990106
  3
 
 60
     0
 61
     0
 62
     1
 63
     1
 64
     0
 65
     0
 66
     0
 67
     3
 68
     1
 69
     1
 70
     0
 71
     0
 72
     0
 40
0.0
170
     0
  0
DICTIONARY
  5
4EA
102
{ACAD_REACTORS
330
4C6
102
}
330
4C6
100
AcDbDictionary
281
     1
  3
ApplicationElement 1206
350
4B6
  3
ApplicationElement 1211
350
4BB
  3
ApplicationElement 1212
350
4BC
  3
ApplicationElement 1214
350
4BE
  3
ModelApplicationElement 0 1205
350
4B5
  0
DICTIONARY
  5
4E9
102
{ACAD_REACTORS
330
4C2
102
}
330
4C2
100
AcDbDictionary
281
     1
  0
DICTIONARY
  5
4C3
102
{ACAD_REACTORS
330
4C2
102
}
330
4C2
100
AcDbDictionary
281
     1
  0
SORTENTSTABLE
  5
4FA
102
{ACAD_REACTORS
330
4F9
102
}
330
4F9
100
AcDbSortentsTable
330
4D2
331
6D
  5
3DF
331
6E
  5
6D
331
6F
  5
6E
331
70
  5
6F
331
71
  5
70
331
72
  5
71
331
73
  5
72
331
74
  5
73
331
75
  5
74
331
76
  5
75
331
77
  5
76
331
78
  5
77
331
79
  5
78
331
7A
  5
79
331
7B
  5
3E0
331
7C
  5
3E1
331
7D
  5
7A
331
7E
  5
7B
331
7F
  5
7C
331
80
  5
3E2
331
81
  5
7D
331
82
  5
7E
331
83
  5
7F
331
84
  5
80
331
85
  5
81
331
86
  5
82
331
87
  5
83
331
88
  5
45D
331
89
  5
462
331
8A
  5
3E3
331
8B
  5
3E4
331
8C
  5
84
331
96
  5
85
331
97
  5
86
331
98
  5
87
331
99
  5
88
331
9A
  5
89
331
9B
  5
8A
331
9C
  5
8B
331
9D
  5
8C
331
A1
  5
96
331
A9
  5
97
331
B0
  5
98
331
B8
  5
99
331
BC
  5
9A
331
BD
  5
9B
331
BE
  5
9C
331
BF
  5
9D
331
C0
  5
A1
331
C1
  5
A9
331
C2
  5
B0
331
C3
  5
B8
331
C4
  5
BC
331
C5
  5
BD
331
C6
  5
BE
331
C7
  5
BF
331
C8
  5
C0
331
C9
  5
C1
331
CA
  5
C2
331
CB
  5
C3
331
CC
  5
C4
331
CD
  5
C5
331
CE
  5
C6
331
DF
  5
C7
331
E0
  5
C8
331
E4
  5
C9
331
EB
  5
CA
331
F5
  5
CB
331
F6
  5
CC
331
FA
  5
CD
331
FB
  5
CE
331
FC
  5
DF
331
FD
  5
E0
331
FE
  5
E4
331
FF
  5
EB
331
100
  5
F5
331
101
  5
F6
331
102
  5
FA
331
103
  5
FB
331
104
  5
FC
331
105
  5
FD
331
106
  5
FE
331
107
  5
FF
331
108
  5
100
331
109
  5
101
331
10A
  5
102
331
10B
  5
103
331
10C
  5
104
331
10D
  5
105
331
10E
  5
106
331
10F
  5
107
331
110
  5
108
331
111
  5
109
331
112
  5
10A
331
113
  5
10B
331
114
  5
10C
331
115
  5
10D
331
116
  5
10E
331
117
  5
10F
331
118
  5
110
331
119
  5
111
331
11A
  5
112
331
11B
  5
113
331
11C
  5
114
331
11D
  5
115
331
11E
  5
116
331
11F
  5
117
331
120
  5
118
331
121
  5
4BD
331
122
  5
3E5
331
123
  5
3E6
331
124
  5
3E7
331
125
  5
3E8
331
126
  5
3E9
331
127
  5
3EA
331
128
  5
3EB
331
129
  5
3EC
331
12A
  5
3ED
331
12B
  5
3EE
331
12C
  5
3EF
331
12D
  5
3F0
331
12E
  5
3F1
331
12F
  5
3F2
331
130
  5
119
331
131
  5
11A
331
132
  5
11B
331
133
  5
11C
331
134
  5
11D
331
135
  5
3F3
331
136
  5
3F4
331
137
  5
11E
331
138
  5
11F
331
139
  5
120
331
13A
  5
121
331
13B
  5
122
331
13C
  5
123
331
13D
  5
124
331
13E
  5
125
331
13F
  5
126
331
140
  5
463
331
141
  5
467
331
142
  5
466
331
143
  5
465
331
144
  5
464
331
145
  5
3F5
331
146
  5
3F6
331
147
  5
3F7
331
148
  5
3F8
331
149
  5
3F9
331
14A
  5
3FA
331
14B
  5
127
331
14C
  5
128
331
14D
  5
129
331
14E
  5
3FB
331
14F
  5
3FC
331
150
  5
12A
331
151
  5
12B
331
152
  5
12C
331
153
  5
3FD
331
154
  5
12D
331
155
  5
12E
331
156
  5
12F
331
157
  5
130
331
158
  5
3FE
331
159
  5
131
331
15A
  5
132
331
15B
  5
133
331
15C
  5
134
331
15D
  5
135
331
15E
  5
136
331
15F
  5
3FF
331
160
  5
137
331
161
  5
138
331
162
  5
139
331
163
  5
13A
331
164
  5
13B
331
165
  5
13C
331
166
  5
400
331
167
  5
401
331
168
  5
402
331
169
  5
13D
331
16A
  5
13E
331
16B
  5
403
331
16C
  5
13F
331
16D
  5
140
331
16E
  5
141
331
16F
  5
404
331
170
  5
142
331
171
  5
143
331
172
  5
144
331
173
  5
145
331
174
  5
146
331
175
  5
147
331
176
  5
405
331
177
  5
148
331
178
  5
149
331
179
  5
14A
331
17A
  5
14B
331
17B
  5
14C
331
17C
  5
406
331
17D
  5
14D
331
17E
  5
14E
331
17F
  5
14F
331
180
  5
150
331
181
  5
151
331
182
  5
152
331
183
  5
407
331
184
  5
408
331
185
  5
153
331
186
  5
154
331
187
  5
155
331
188
  5
156
331
189
  5
157
331
18A
  5
158
331
18B
  5
159
331
18C
  5
15A
331
18D
  5
15B
331
18E
  5
15C
331
18F
  5
15D
331
190
  5
15E
331
191
  5
15F
331
192
  5
160
331
193
  5
161
331
194
  5
162
331
195
  5
163
331
196
  5
164
331
197
  5
165
331
198
  5
166
331
199
  5
167
331
19A
  5
168
331
19B
  5
169
331
19C
  5
16A
331
19D
  5
16B
331
19E
  5
16C
331
19F
  5
16D
331
1A0
  5
16E
331
1A1
  5
16F
331
1A2
  5
170
331
1A3
  5
171
331
1A4
  5
172
331
1A5
  5
173
331
1A6
  5
174
331
1A7
  5
175
331
1A9
  5
177
331
1AA
  5
178
331
1AB
  5
179
331
1AC
  5
17A
331
1AD
  5
17B
331
1AE
  5
17C
331
1AF
  5
17D
331
1B0
  5
17E
331
1B1
  5
17F
331
1B2
  5
180
331
1B3
  5
181
331
1B4
  5
182
331
1B5
  5
183
331
1B6
  5
184
331
1B7
  5
185
331
1B8
  5
186
331
1B9
  5
187
331
1BA
  5
188
331
1BB
  5
189
331
1BC
  5
18A
331
1BD
  5
18B
331
1BE
  5
18C
331
1BF
  5
18D
331
1C0
  5
18E
331
1C1
  5
18F
331
1C2
  5
190
331
1C3
  5
191
331
1C4
  5
192
331
1C5
  5
193
331
1C6
  5
194
331
1C7
  5
195
331
1C8
  5
409
331
1C9
  5
196
331
1CA
  5
197
331
1CB
  5
198
331
1CC
  5
40A
331
1CD
  5
199
331
1CE
  5
19A
331
1CF
  5
19B
331
1D0
  5
19C
331
1D1
  5
19D
331
1D2
  5
19E
331
1D3
  5
40B
331
1D4
  5
19F
331
1D5
  5
1A0
331
1D6
  5
1A1
331
1D7
  5
1A2
331
1D8
  5
1A3
331
1D9
  5
1A4
331
1DA
  5
1A5
331
1DB
  5
40C
331
1DC
  5
40D
331
1DD
  5
1A6
331
1DE
  5
1A7
331
1DF
  5
1A8
331
1E0
  5
1A9
331
1E1
  5
1AA
331
1E2
  5
1AB
331
1E3
  5
1AC
331
1E4
  5
1AD
331
1E5
  5
1AE
331
1E6
  5
40E
331
1E7
  5
1AF
331
1E8
  5
1B0
331
1E9
  5
1B1
331
1EA
  5
1B2
331
1EB
  5
1B3
331
1EC
  5
1B4
331
1ED
  5
1B5
331
1EE
  5
1B6
331
1EF
  5
1B7
331
1F0
  5
1B8
331
1F1
  5
1B9
331
1F2
  5
1BA
331
1F3
  5
1BB
331
1F4
  5
1BC
331
1F5
  5
1BD
331
1F6
  5
1BE
331
1F7
  5
1BF
331
1F8
  5
1C0
331
1F9
  5
1C1
331
1FA
  5
1C2
331
1FB
  5
1C3
331
1FC
  5
1C4
331
1FD
  5
1C5
331
1FE
  5
1C6
331
1FF
  5
1C7
331
200
  5
1C8
331
201
  5
1C9
331
202
  5
1CA
331
203
  5
1CB
331
204
  5
1CC
331
205
  5
1CD
331
206
  5
1CE
331
207
  5
1CF
331
208
  5
1D0
331
209
  5
1D1
331
20A
  5
1D2
331
20B
  5
1D3
331
20C
  5
1D4
331
20D
  5
1D5
331
20E
  5
1D6
331
20F
  5
1D7
331
210
  5
1D8
331
211
  5
1D9
331
212
  5
1DA
331
213
  5
1DB
331
214
  5
1DC
331
215
  5
1DD
331
216
  5
1DE
331
217
  5
40F
331
218
  5
410
331
219
  5
411
331
21A
  5
1DF
331
21B
  5
1E0
331
21C
  5
1E1
331
21D
  5
1E2
331
21E
  5
412
331
21F
  5
1E3
331
220
  5
1E4
331
221
  5
1E5
331
222
  5
1E6
331
223
  5
1E7
331
224
  5
413
331
225
  5
1E8
331
226
  5
1E9
331
227
  5
1EA
331
228
  5
414
331
229
  5
1EB
331
22A
  5
1EC
331
22B
  5
1ED
331
22C
  5
1EE
331
22D
  5
1EF
331
22E
  5
1F0
331
22F
  5
1F1
331
230
  5
1F2
331
231
  5
1F3
331
232
  5
415
331
233
  5
416
331
234
  5
1F4
331
235
  5
1F5
331
236
  5
1F6
331
237
  5
417
331
238
  5
1F7
331
239
  5
1F8
331
23A
  5
1F9
331
23B
  5
418
331
23C
  5
1FA
331
23D
  5
1FB
331
23E
  5
1FC
331
23F
  5
1FD
331
240
  5
1FE
331
241
  5
419
331
242
  5
1FF
331
243
  5
200
331
244
  5
201
331
245
  5
41A
331
246
  5
202
331
247
  5
203
331
248
  5
204
331
249
  5
205
331
24A
  5
206
331
24B
  5
207
331
24C
  5
208
331
24D
  5
41B
331
24E
  5
41C
331
24F
  5
209
331
250
  5
20A
331
251
  5
20B
331
252
  5
20C
331
253
  5
20D
331
254
  5
41D
331
255
  5
20E
331
256
  5
20F
331
257
  5
210
331
258
  5
211
331
259
  5
41E
331
25A
  5
212
331
25B
  5
213
331
25C
  5
214
331
25D
  5
215
331
25E
  5
216
331
25F
  5
217
331
260
  5
218
331
261
  5
219
331
262
  5
21A
331
263
  5
21B
331
264
  5
41F
331
265
  5
21C
331
266
  5
21D
331
267
  5
21E
331
268
  5
21F
331
269
  5
220
331
26A
  5
221
331
26B
  5
222
331
26C
  5
223
331
26D
  5
420
331
26E
  5
224
331
26F
  5
225
331
270
  5
226
331
271
  5
227
331
272
  5
228
331
273
  5
229
331
274
  5
421
331
275
  5
22A
331
276
  5
22B
331
277
  5
22C
331
278
  5
22D
331
279
  5
22E
331
27A
  5
422
331
27B
  5
22F
331
27C
  5
230
331
27D
  5
231
331
27E
  5
232
331
27F
  5
423
331
280
  5
233
331
281
  5
234
331
282
  5
235
331
283
  5
236
331
284
  5
424
331
285
  5
237
331
286
  5
238
331
287
  5
239
331
288
  5
23A
331
289
  5
425
331
28A
  5
23B
331
28B
  5
23C
331
28C
  5
23D
331
28D
  5
426
331
28E
  5
23E
331
28F
  5
23F
331
290
  5
240
331
291
  5
241
331
292
  5
242
331
293
  5
427
331
294
  5
243
331
295
  5
244
331
296
  5
245
331
297
  5
246
331
298
  5
247
331
299
  5
248
331
29A
  5
428
331
29B
  5
249
331
29C
  5
24A
331
29D
  5
24B
331
29E
  5
24C
331
29F
  5
24D
331
2A0
  5
429
331
2A1
  5
24E
331
2A2
  5
24F
331
2A3
  5
42A
331
2A4
  5
250
331
2A5
  5
251
331
2A6
  5
252
331
2A7
  5
253
331
2A8
  5
254
331
2A9
  5
255
331
2AA
  5
256
331
2AB
  5
42B
331
2AC
  5
257
331
2AD
  5
258
331
2AE
  5
259
331
2AF
  5
42C
331
2B0
  5
25A
331
2B1
  5
25B
331
2B2
  5
25C
331
2B3
  5
25D
331
2B4
  5
25E
331
2B5
  5
25F
331
2B6
  5
260
331
2B7
  5
261
331
2B8
  5
262
331
2B9
  5
263
331
2BA
  5
264
331
2BB
  5
265
331
2BC
  5
266
331
2BD
  5
267
331
2BE
  5
268
331
2BF
  5
269
331
2C0
  5
26A
331
2C1
  5
26B
331
2C2
  5
26C
331
2C3
  5
26D
331
2C4
  5
26E
331
2C5
  5
26F
331
2C6
  5
270
331
2C7
  5
271
331
2C8
  5
272
331
2C9
  5
273
331
2CA
  5
274
331
2CB
  5
275
331
2CC
  5
276
331
2CD
  5
277
331
2CE
  5
278
331
2CF
  5
279
331
2D0
  5
27A
331
2D1
  5
27B
331
2D2
  5
27C
331
2D3
  5
27D
331
2D4
  5
27E
331
2D5
  5
27F
331
2D6
  5
280
331
2D7
  5
281
331
2D8
  5
282
331
2D9
  5
283
331
2DA
  5
284
331
2DB
  5
285
331
2DC
  5
286
331
2DD
  5
287
331
2DE
  5
288
331
2DF
  5
289
331
2E0
  5
28A
331
2E1
  5
28B
331
2E2
  5
28C
331
2E3
  5
28D
331
2E4
  5
42D
331
2E5
  5
28E
331
2E6
  5
28F
331
2E7
  5
290
331
2E8
  5
291
331
2E9
  5
292
331
2EA
  5
293
331
2EB
  5
294
331
2EC
  5
295
331
2ED
  5
296
331
2EE
  5
297
331
2EF
  5
298
331
2F0
  5
299
331
2F1
  5
29A
331
2F2
  5
29B
331
2F3
  5
29C
331
2F4
  5
29D
331
2F5
  5
29E
331
2F6
  5
29F
331
2F7
  5
2A0
331
2F8
  5
42E
331
2F9
  5
2A1
331
2FA
  5
2A2
331
2FB
  5
2A3
331
2FC
  5
2A4
331
2FD
  5
2A5
331
2FE
  5
42F
331
2FF
  5
2A6
331
300
  5
2A7
331
301
  5
2A8
331
302
  5
430
331
303
  5
2A9
331
304
  5
2AA
331
305
  5
2AB
331
306
  5
2AC
331
307
  5
2AD
331
308
  5
431
331
309
  5
2AE
331
30A
  5
2AF
331
30B
  5
2B0
331
30C
  5
2B1
331
30D
  5
2B2
331
30E
  5
432
331
30F
  5
2B3
331
310
  5
2B4
331
311
  5
2B5
331
312
  5
2B6
331
313
  5
2B7
331
314
  5
2B8
331
315
  5
433
331
316
  5
2B9
331
317
  5
2BA
331
318
  5
2BB
331
319
  5
434
331
31A
  5
2BC
331
31B
  5
2BD
331
31C
  5
2BE
331
31D
  5
435
331
31E
  5
2BF
331
31F
  5
2C0
331
320
  5
2C1
331
321
  5
2C2
331
322
  5
2C3
331
323
  5
2C4
331
324
  5
2C5
331
325
  5
2C6
331
326
  5
2C7
331
327
  5
2C8
331
328
  5
2C9
331
329
  5
2CA
331
32A
  5
2CB
331
32B
  5
2CC
331
32C
  5
2CD
331
32D
  5
2CE
331
32E
  5
2CF
331
32F
  5
2D0
331
330
  5
2D1
331
331
  5
2D2
331
332
  5
2D3
331
333
  5
2D4
331
334
  5
2D5
331
335
  5
2D6
331
336
  5
2D7
331
337
  5
2D8
331
338
  5
2D9
331
339
  5
2DA
331
33A
  5
2DB
331
33B
  5
2DC
331
33C
  5
2DD
331
33D
  5
2DE
331
33E
  5
2DF
331
33F
  5
436
331
340
  5
2E0
331
341
  5
2E1
331
342
  5
2E2
331
343
  5
2E3
331
344
  5
2E4
331
345
  5
2E5
331
347
  5
2E6
331
348
  5
2E7
331
349
  5
2E8
331
34A
  5
2E9
331
34C
  5
2EA
331
34D
  5
2EB
331
34F
  5
2EC
331
350
  5
2ED
331
351
  5
2EE
331
353
  5
2EF
331
354
  5
2F0
331
355
  5
2F1
331
356
  5
2F2
331
357
  5
2F3
331
358
  5
2F4
331
359
  5
2F5
331
35B
  5
2F6
331
35D
  5
2F7
331
35E
  5
2F8
331
35F
  5
2F9
331
360
  5
2FA
331
361
  5
2FB
331
362
  5
2FC
331
363
  5
2FD
331
364
  5
469
331
365
  5
468
331
366
  5
2FE
331
367
  5
2FF
331
368
  5
300
331
369
  5
301
331
36A
  5
302
331
36B
  5
303
331
36C
  5
304
331
36D
  5
437
331
36E
  5
305
331
36F
  5
306
331
370
  5
307
331
371
  5
308
331
372
  5
309
331
373
  5
438
331
374
  5
30A
331
375
  5
30B
331
376
  5
30C
331
377
  5
30D
331
378
  5
30E
331
379
  5
439
331
37A
  5
30F
331
37B
  5
310
331
37C
  5
311
331
37D
  5
312
331
37E
  5
313
331
37F
  5
314
331
380
  5
43A
331
381
  5
43B
331
382
  5
43C
331
383
  5
315
331
384
  5
316
331
385
  5
317
331
386
  5
318
331
387
  5
319
331
388
  5
31A
331
389
  5
43D
331
38A
  5
31B
331
38B
  5
31C
331
38C
  5
31D
331
38D
  5
31E
331
38F
  5
31F
331
390
  5
320
331
391
  5
321
331
392
  5
322
331
394
  5
323
331
395
  5
324
331
396
  5
325
331
397
  5
326
331
398
  5
327
331
399
  5
328
331
39A
  5
329
331
39B
  5
32A
331
39C
  5
32B
331
39D
  5
32C
331
39E
  5
32D
331
39F
  5
32E
331
3A0
  5
32F
331
3A1
  5
330
331
3A2
  5
331
331
3A3
  5
332
331
3A4
  5
333
331
3A5
  5
334
331
3A6
  5
335
331
3A7
  5
336
331
3A8
  5
337
331
3A9
  5
338
331
3AA
  5
339
331
3AB
  5
33A
331
3AC
  5
33B
331
3AD
  5
33C
331
3AE
  5
33D
331
3AF
  5
33E
331
3B0
  5
33F
331
3B1
  5
340
331
3B2
  5
341
331
3B3
  5
342
331
3B4
  5
343
331
3B5
  5
344
331
3B6
  5
345
331
3B7
  5
347
331
3B8
  5
348
331
3B9
  5
349
331
3BA
  5
34A
331
3BB
  5
34C
331
3BC
  5
34D
331
3BD
  5
34F
331
3BE
  5
350
331
3BF
  5
351
331
3C0
  5
353
331
3C1
  5
354
331
3C2
  5
355
331
3C3
  5
356
331
3C4
  5
357
331
3C5
  5
358
331
3C6
  5
359
331
3C7
  5
35B
331
3C8
  5
35D
331
3C9
  5
35E
331
3CA
  5
35F
331
3CB
  5
360
331
3CC
  5
361
331
3CD
  5
362
331
3CE
  5
363
331
3CF
  5
364
331
3D0
  5
365
331
3D1
  5
366
331
3D2
  5
367
331
3D3
  5
368
331
3D4
  5
369
331
3D5
  5
36A
331
3D6
  5
36B
331
3D7
  5
36C
331
3D8
  5
36D
331
3D9
  5
36E
331
3DA
  5
36F
331
3DB
  5
370
331
3DC
  5
371
331
3DD
  5
372
331
3DE
  5
373
331
3DF
  5
374
331
3E0
  5
375
331
3E1
  5
376
331
3E2
  5
377
331
3E3
  5
378
331
3E4
  5
379
331
3E5
  5
37A
331
3E6
  5
37B
331
3E7
  5
37C
331
3E8
  5
37D
331
3E9
  5
37E
331
3EA
  5
37F
331
3EB
  5
380
331
3EC
  5
381
331
3ED
  5
382
331
3EE
  5
383
331
3EF
  5
384
331
3F0
  5
385
331
3F1
  5
386
331
3F2
  5
387
331
3F3
  5
388
331
3F4
  5
389
331
3F5
  5
38A
331
3F6
  5
38B
331
3F7
  5
38C
331
3F8
  5
38D
331
3F9
  5
38F
331
3FA
  5
390
331
3FB
  5
391
331
3FC
  5
43E
331
3FD
  5
43F
331
3FE
  5
440
331
3FF
  5
441
331
400
  5
392
331
401
  5
394
331
402
  5
395
331
403
  5
442
331
404
  5
443
331
405
  5
396
331
406
  5
397
331
407
  5
398
331
408
  5
444
331
409
  5
399
331
40A
  5
39A
331
40B
  5
39B
331
40C
  5
39C
331
40D
  5
39D
331
40E
  5
445
331
40F
  5
39E
331
410
  5
39F
331
411
  5
3A0
331
412
  5
446
331
413
  5
447
331
414
  5
3A1
331
415
  5
3A2
331
416
  5
3A3
331
417
  5
3A4
331
418
  5
3A5
331
419
  5
3A6
331
41A
  5
448
331
41B
  5
449
331
41C
  5
3A7
331
41D
  5
3A8
331
41E
  5
3A9
331
41F
  5
3AA
331
420
  5
3AB
331
421
  5
44A
331
422
  5
3AC
331
423
  5
3AD
331
424
  5
3AE
331
425
  5
3AF
331
426
  5
3B0
331
427
  5
44B
331
428
  5
3B1
331
429
  5
3B2
331
42A
  5
3B3
331
42B
  5
3B4
331
42C
  5
44C
331
42D
  5
3B5
331
42E
  5
3B6
331
42F
  5
3B7
331
430
  5
3B8
331
431
  5
3B9
331
432
  5
3BA
331
433
  5
3BB
331
434
  5
44D
331
435
  5
3BC
331
436
  5
3BD
331
437
  5
3BE
331
438
  5
3BF
331
439
  5
44E
331
43A
  5
3C0
331
43B
  5
3C1
331
43C
  5
3C2
331
43D
  5
3C3
331
43E
  5
44F
331
43F
  5
3C4
331
440
  5
3C5
331
441
  5
3C6
331
442
  5
3C7
331
443
  5
3C8
331
444
  5
451
331
445
  5
3C9
331
446
  5
3CA
331
447
  5
3CB
331
448
  5
3CC
331
449
  5
3CD
331
44A
  5
452
331
44B
  5
3CE
331
44C
  5
3CF
331
44D
  5
3D0
331
44E
  5
453
331
44F
  5
46A
331
451
  5
454
331
452
  5
455
331
453
  5
3D1
331
454
  5
3D2
331
455
  5
456
331
456
  5
3D3
331
457
  5
3D4
331
458
  5
3D5
331
459
  5
3D6
331
45A
  5
457
331
45B
  5
458
331
45C
  5
460
331
45D
  5
45F
331
45E
  5
3D7
331
45F
  5
45E
331
460
  5
3D8
331
462
  5
3D9
331
463
  5
3DA
331
464
  5
3DB
331
465
  5
3DC
331
466
  5
3DD
331
467
  5
459
331
468
  5
45A
331
469
  5
3DE
331
46A
  5
45B
331
46B
  5
45C
331
4BD
  5
46B
  0
LAYOUT
  5
4DA
102
{ACAD_REACTORS
330
4D6
330
4D6
102
}
102
{ACAD_XDICTIONARY
360
4DB
102
}
330
4D6
100
AcDbPlotSettings
  1

  2
none_device
  4
Letter_(8.50_x_11.00_Inches)
  6

 40
6.35
 41
6.35
 42
6.350006
 43
6.350006
 44
215.899994
 45
279.399994
 46
0.0
 47
0.0
 48
0.0
 49
0.0
140
0.0
141
0.0
142
1.0
143
1.0
 70
   688
 72
     0
 73
     1
 74
     5
  7

 75
    16
 76
     0
 77
     2
 78
   300
147
1.0
148
0.0
149
0.0
100
AcDbLayout
  1
Layout1
 70
     1
 71
     1
 10
-0.25
 20
-0.25
 11
10.75
 21
8.25
 12
0.0
 22
0.0
 32
0.0
 14
1.049744
 24
0.799667
 34
-0.001526
 15
9.450623
 25
7.200577
 35
0.0
146
0.0
 13
0.0
 23
0.0
 33
0.0
 16
1.0
 26
0.0
 36
0.0
 17
0.0
 27
1.0
 37
0.0
 76
     0
330
4D7
1001
ACAD_PSEXT
1000
None
1000
None
1000
Not applicable
1000
The layout will not be plotted unless a new plotter configuration name is selected.
1070
     0
  0
LAYOUT
  5
4D5
102
{ACAD_REACTORS
330
4D6
330
4D6
102
}
330
4D6
100
AcDbPlotSettings
  1

  2
none_device
  4
ANSI_A_(8.50_x_11.00_Inches)
  6

 40
6.35
 41
19.049999
 42
6.350006
 43
19.049988
 44
215.899994
 45
279.399994
 46
0.0
 47
0.0
 48
0.0
 49
0.0
140
0.0
141
0.0
142
1.0
143
2.584895
 70
 11952
 72
     0
 73
     1
 74
     0
  7

 75
     0
 76
     0
 77
     2
 78
   300
147
0.386863
148
0.0
149
0.0
100
AcDbLayout
  1
Model
 70
     1
 71
     0
 10
0.0
 20
0.0
 11
12.0
 21
9.0
 12
0.0
 22
0.0
 32
0.0
 14
0.0
 24
0.0
 34
0.0
 15
0.0
 25
0.0
 35
0.0
146
0.0
 13
0.0
 23
0.0
 33
0.0
 16
1.0
 26
0.0
 36
0.0
 17
0.0
 27
1.0
 37
0.0
 76
     0
330
4D2
331
49
  0
MLINESTYLE
  5
4CF
102
{ACAD_REACTORS
330
4D0
102
}
330
4D0
100
AcDbMlineStyle
  2
STANDARD
 70
     0
  3

 62
   256
 51
90.0
 52
90.0
 71
     2
 49
0.5
 62
   256
  6
BYLAYER
 49
-0.5
 62
   256
  6
BYLAYER
  0
ACDBPLACEHOLDER
  5
4C4
102
{ACAD_REACTORS
330
4C5
102
}
330
4C5
  0
XRECORD
  5
4B6
102
{ACAD_REACTORS
330
4EA
102
}
330
4EA
100
AcDbXrecord
280
     1
310
3E4F020000004D6F64656C6572000000000000000000000000000000000000000000000000000000000000000000000000000000000000000000000000000000000000000000000000000000000000000000000000000000000000000000000000000000000000000000000000000000000000000000000000000000000000
310
00000000000000000000000000000000000000000000000000000000000000000000000000000000000000000000000000000000000000000000000000000000000000000000000000000000000000000000000000000000000000000000000000000000000000000000000000000000000000000000000000000000000000
310
00
310
00000000000000000000000000000000000000000000000000000000000000000000000000000000000000000000000000000000000000000000000000000000000000000000000000000000000000000000000000000000000000000000000000000000000000000000000000000000000000000000000000000000000000
310
00000000000000000000000000000000000000000000000000000000000000000000000000000000000000000000000000000000000000000000000000000000000000000000000000000000000000000000000000000000000000000000000000000000000000000000000000000000000000000000000000000000000000
310
00
310
00000000000000000000000000000000000000000000000000000000000000000000000000000000000000000000000000000000000000000000000000000000000000000000000000000000000000000000000000000000000000000000000000000000000000000000000000000000000000000000000000000000000000
310
00000000000000000000000000000000000000000000000000000000000000000000000000000000000000000000000000000000000000000000000000000000000000000000000000000000000000000000000000000000000000000000000000000000000000000000000000000000000000000000000000000000000000
310
00
310
00000000000000000000000000000000000000000000000000000000000000000000000000000000000000000000000000000000000000000000000000000000000000000000000000000000000000000000000000000000000000000000000000000000000000000000000000000000000000000000000000000000000000
310
00000000000000000000000000000000000000000000000000000000000000000000000000000000000000000000000000000000000000000000000000000000000000000000000000000000000000000000000000000000000000000000000000000000000000000000000000000000000000000000000000000000000000
310
00
310
00000000000000000000000000000000000000000000000000000000000000000000000000000000000000000000000000000000000000000000000000000000000000000000000000000000000000000000000000000000000000000000000000000000000000000000000000000000000000000000000000000000000000
310
00000000000000000000000000000000000000000000000000000000000000000000000000000000000000000000000000000000000000000000000000000000000000000000000000000000000000000000000000000000000000000000000000000000000000000000000000000000000000000000000000000000000000
310
00
310
00000000000000000000000000000000000000000000000000000000000000000000000000000000000000000000000000000000000000000000000000000000000000000000000000000000000000000000000000000000000000000000000000000000000000000000000000000000000000000000000000000000000000
310
00000000000000000000000000000000000000000000000000000000000000000000000000000000000000000000000000000000000000000000000000000000000000000000000000000000000000000000000000000000000000000000000000000000000000000000000000000000000000000000000000000000000000
310
00
310
00000000000000000000000000000000000000000000000000000000000000000000000000000000000000000000000000000000000000000000000000000000000000000000000000000000000000000000000000000000000000000000000000000000000000000000000000000000000000000000000000000000000000
310
00000000000000000000000000000000000000000000000000000000000000000000000000000000000000000000000000000000000000000000000000000000000000000000000000000000000000000000000000000000000000000000000000000000000000000000000000000000000000000000000000000000000000
310
00
310
00000000000000000000000000000000000000000000000000000000000000000000000000000000000000000000000000000000000000000000000000000000000000000000000000000000000000000000000000000000000000000000000000000000000000000000000000000000000000000000000000000000000000
310
00000000000000000000000000000000000000000000000000000000000000000000000000000000000000000000000000000000000000000000000000000000000000000000000000000000000000000000000000000000000000000000000000000000000000000000000000000000000000000000000000000000000000
310
00
310
00000000000000000000000000000000000000000000000000000000000000000000000000000000000000000000000000000000000000000000000000000000000000000000000000000000000000000000000000000000000000000000000000000000000000000000000000000000000000000000000000000000000000
310
00000000000000000000000000000000000000000000000000000000000000000000000000000000000000000000000000000000000000000000000000000000000000000000000000000000000000000000000000000000000000000000000000000000000000000000000000000000000000000000000000000000000000
310
00
310
00000000000000000000000000000000000000000000000000000000000000000000000000000000000000000000000000000000000000000000000000000000000000000000000000000000000000000000000000000000000000000000000000000000000000000000000000000000000000000000000000000000000000
310
00000000000000000000000000000000000000000000000000000000000000000000000000000000000000000000000000000000000000000000000000000000000000000000000000000000000000000000000000000000000000000000000000000000000000000000000000000000000000000000000000000000000000
310
00
310
00000000000000000000000000000000000000000000000000000000000000000000000000000000000000000000000000000000000000000000000000000000000000000000000000000000000000000000000000000000000000000000000000000000000000000000000000000000000000000000000000000000000000
310
00000000000000000000000000000000000000000000000000000000000000000000000000000000000000000000000000000000000000000000000000000000000000000000000000000000000000000000000000000000000000000000000000000000000000000000000000000000000000000000000000000000000000
310
00
310
00000000000000000000000000000000000000000000000000000000000000000000000000000000000000000000000000000000000000000000000000000000000000000000000000000000000000000000000000000000000000000000000000000000000000000000000000000000000000000000000000000000000000
310
00000000000000000000000000000000000000000000000000000000000000000000000000000000000000000000000000000000000000000000000000000000000000000000000000000000000000000000000000000000000000000000000000000000000000000000000000000000000000000000000000000000000000
310
00
310
00000000000000000000000000000000000000000000000000000000000000000000000000000000000000000000000000000000000000000000000000000000000000000000000000000000000000000000000000000000000000000000000000000000000000000000000000000000000000000000000000000000000000
310
00000000000000000000000000000000000000000000000000000000000000000000000000000000000000000000000000000000000000000000000000000000000000000000000000000000000000000000000000000000000000000000000000000000000000000000000000000000000000000000000000000000000000
310
00
310
00000000000000000000000000000000000000000000000000000000000000000000000000000000000000000000000000000000000000000000000000000000000000000000000000000000000000000000000000000000000000000000000000000000000000000000000000000000000000
  0
XRECORD
  5
4BB
102
{ACAD_REACTORS
330
4EA
102
}
330
4EA
100
AcDbXrecord
280
     1
310
3E4F020000004D6F64656C6572000000000000000000000000000000000000000000000000000000000000000000000000000000000000000000000000000000000000000000000000000000000000000000000000000000000000000000000000000000000000000000000000000000000000000000000000000000000000
310
00000000000000000000000000000000000000000000000000000000000000000000000000000000000000000000000000000000000000000000000000000000000000000000000000000000000000000000000000000000000000000000000000000000000000000000000000000000000000000000000000000000000000
310
00
310
00000000000000000000000000000000000000000000000000000000000000000000000000000000000000000000000000000000000000000000000000000000000000000000000000000000000000000000000000000000000000000000000000000000000000000000000000000000000000000000000000000000000000
310
00000000000000000000000000000000000000000000000000000000000000000000000000000000000000000000000000000000000000000000000000000000000000000000000000000000000000000000000000000000000000000000000000000000000000000000000000000000000000000000000000000000000000
310
00
310
00000000000000000000000000000000000000000000000000000000000000000000000000000000000000000000000000000000000000000000000000000000000000000000000000000000000000000000000000000000000000000000000000000000000000000000000000000000000000000000000000000000000000
310
00000000000000000000000000000000000000000000000000000000000000000000000000000000000000000000000000000000000000000000000000000000000000000000000000000000000000000000000000000000000000000000000000000000000000000000000000000000000000000000000000000000000000
310
00
310
00000000000000000000000000000000000000000000000000000000000000000000000000000000000000000000000000000000000000000000000000000000000000000000000000000000000000000000000000000000000000000000000000000000000000000000000000000000000000000000000000000000000000
310
00000000000000000000000000000000000000000000000000000000000000000000000000000000000000000000000000000000000000000000000000000000000000000000000000000000000000000000000000000000000000000000000000000000000000000000000000000000000000000000000000000000000000
310
00
310
00000000000000000000000000000000000000000000000000000000000000000000000000000000000000000000000000000000000000000000000000000000000000000000000000000000000000000000000000000000000000000000000000000000000000000000000000000000000000000000000000000000000000
310
00000000000000000000000000000000000000000000000000000000000000000000000000000000000000000000000000000000000000000000000000000000000000000000000000000000000000000000000000000000000000000000000000000000000000000000000000000000000000000000000000000000000000
310
00
310
00000000000000000000000000000000000000000000000000000000000000000000000000000000000000000000000000000000000000000000000000000000000000000000000000000000000000000000000000000000000000000000000000000000000000000000000000000000000000000000000000000000000000
310
00000000000000000000000000000000000000000000000000000000000000000000000000000000000000000000000000000000000000000000000000000000000000000000000000000000000000000000000000000000000000000000000000000000000000000000000000000000000000000000000000000000000000
310
00
310
00000000000000000000000000000000000000000000000000000000000000000000000000000000000000000000000000000000000000000000000000000000000000000000000000000000000000000000000000000000000000000000000000000000000000000000000000000000000000000000000000000000000000
310
00000000000000000000000000000000000000000000000000000000000000000000000000000000000000000000000000000000000000000000000000000000000000000000000000000000000000000000000000000000000000000000000000000000000000000000000000000000000000000000000000000000000000
310
00
310
00000000000000000000000000000000000000000000000000000000000000000000000000000000000000000000000000000000000000000000000000000000000000000000000000000000000000000000000000000000000000000000000000000000000000000000000000000000000000000000000000000000000000
310
00000000000000000000000000000000000000000000000000000000000000000000000000000000000000000000000000000000000000000000000000000000000000000000000000000000000000000000000000000000000000000000000000000000000000000000000000000000000000000000000000000000000000
310
00
310
00000000000000000000000000000000000000000000000000000000000000000000000000000000000000000000000000000000000000000000000000000000000000000000000000000000000000000000000000000000000000000000000000000000000000000000000000000000000000000000000000000000000000
310
00000000000000000000000000000000000000000000000000000000000000000000000000000000000000000000000000000000000000000000000000000000000000000000000000000000000000000000000000000000000000000000000000000000000000000000000000000000000000000000000000000000000000
310
00
310
00000000000000000000000000000000000000000000000000000000000000000000000000000000000000000000000000000000000000000000000000000000000000000000000000000000000000000000000000000000000000000000000000000000000000000000000000000000000000000000000000000000000000
310
00000000000000000000000000000000000000000000000000000000000000000000000000000000000000000000000000000000000000000000000000000000000000000000000000000000000000000000000000000000000000000000000000000000000000000000000000000000000000000000000000000000000000
310
00
310
00000000000000000000000000000000000000000000000000000000000000000000000000000000000000000000000000000000000000000000000000000000000000000000000000000000000000000000000000000000000000000000000000000000000000000000000000000000000000000000000000000000000000
310
00000000000000000000000000000000000000000000000000000000000000000000000000000000000000000000000000000000000000000000000000000000000000000000000000000000000000000000000000000000000000000000000000000000000000000000000000000000000000000000000000000000000000
310
00
310
00000000000000000000000000000000000000000000000000000000000000000000000000000000000000000000000000000000000000000000000000000000000000000000000000000000000000000000000000000000000000000000000000000000000000000000000000000000000000000000000000000000000000
310
00000000000000000000000000000000000000000000000000000000000000000000000000000000000000000000000000000000000000000000000000000000000000000000000000000000000000000000000000000000000000000000000000000000000000000000000000000000000000000000000000000000000000
310
00
310
00000000000000000000000000000000000000000000000000000000000000000000000000000000000000000000000000000000000000000000000000000000000000000000000000000000000000000000000000000000000000000000000000000000000000000000000000000000000000000000000000000000000000
310
00000000000000000000000000000000000000000000000000000000000000000000000000000000000000000000000000000000000000000000000000000000000000000000000000000000000000000000000000000000000000000000000000000000000000000000000000000000000000000000000000000000000000
310
00
310
00000000000000000000000000000000000000000000000000000000000000000000000000000000000000000000000000000000000000000000000000000000000000000000000000000000000000000000000000000000000000000000000000000000000000000000000000000000000000
  0
XRECORD
  5
4BC
102
{ACAD_REACTORS
330
4EA
102
}
330
4EA
100
AcDbXrecord
280
     1
310
3E4F020000004D6F64656C6572000000000000000000000000000000000000000000000000000000000000000000000000000000000000000000000000000000000000000000000000000000000000000000000000000000000000000000000000000000000000000000000000000000000000000000000000000000000000
310
00000000000000000000000000000000000000000000000000000000000000000000000000000000000000000000000000000000000000000000000000000000000000000000000000000000000000000000000000000000000000000000000000000000000000000000000000000000000000000000000000000000000000
310
00
310
00000000000000000000000000000000000000000000000000000000000000000000000000000000000000000000000000000000000000000000000000000000000000000000000000000000000000000000000000000000000000000000000000000000000000000000000000000000000000000000000000000000000000
310
00000000000000000000000000000000000000000000000000000000000000000000000000000000000000000000000000000000000000000000000000000000000000000000000000000000000000000000000000000000000000000000000000000000000000000000000000000000000000000000000000000000000000
310
00
310
00000000000000000000000000000000000000000000000000000000000000000000000000000000000000000000000000000000000000000000000000000000000000000000000000000000000000000000000000000000000000000000000000000000000000000000000000000000000000000000000000000000000000
310
00000000000000000000000000000000000000000000000000000000000000000000000000000000000000000000000000000000000000000000000000000000000000000000000000000000000000000000000000000000000000000000000000000000000000000000000000000000000000000000000000000000000000
310
00
310
00000000000000000000000000000000000000000000000000000000000000000000000000000000000000000000000000000000000000000000000000000000000000000000000000000000000000000000000000000000000000000000000000000000000000000000000000000000000000000000000000000000000000
310
00000000000000000000000000000000000000000000000000000000000000000000000000000000000000000000000000000000000000000000000000000000000000000000000000000000000000000000000000000000000000000000000000000000000000000000000000000000000000000000000000000000000000
310
00
310
00000000000000000000000000000000000000000000000000000000000000000000000000000000000000000000000000000000000000000000000000000000000000000000000000000000000000000000000000000000000000000000000000000000000000000000000000000000000000000000000000000000000000
310
00000000000000000000000000000000000000000000000000000000000000000000000000000000000000000000000000000000000000000000000000000000000000000000000000000000000000000000000000000000000000000000000000000000000000000000000000000000000000000000000000000000000000
310
00
310
00000000000000000000000000000000000000000000000000000000000000000000000000000000000000000000000000000000000000000000000000000000000000000000000000000000000000000000000000000000000000000000000000000000000000000000000000000000000000000000000000000000000000
310
00000000000000000000000000000000000000000000000000000000000000000000000000000000000000000000000000000000000000000000000000000000000000000000000000000000000000000000000000000000000000000000000000000000000000000000000000000000000000000000000000000000000000
310
00
310
00000000000000000000000000000000000000000000000000000000000000000000000000000000000000000000000000000000000000000000000000000000000000000000000000000000000000000000000000000000000000000000000000000000000000000000000000000000000000000000000000000000000000
310
00000000000000000000000000000000000000000000000000000000000000000000000000000000000000000000000000000000000000000000000000000000000000000000000000000000000000000000000000000000000000000000000000000000000000000000000000000000000000000000000000000000000000
310
00
310
00000000000000000000000000000000000000000000000000000000000000000000000000000000000000000000000000000000000000000000000000000000000000000000000000000000000000000000000000000000000000000000000000000000000000000000000000000000000000000000000000000000000000
310
00000000000000000000000000000000000000000000000000000000000000000000000000000000000000000000000000000000000000000000000000000000000000000000000000000000000000000000000000000000000000000000000000000000000000000000000000000000000000000000000000000000000000
310
00
310
00000000000000000000000000000000000000000000000000000000000000000000000000000000000000000000000000000000000000000000000000000000000000000000000000000000000000000000000000000000000000000000000000000000000000000000000000000000000000000000000000000000000000
310
00000000000000000000000000000000000000000000000000000000000000000000000000000000000000000000000000000000000000000000000000000000000000000000000000000000000000000000000000000000000000000000000000000000000000000000000000000000000000000000000000000000000000
310
00
310
00000000000000000000000000000000000000000000000000000000000000000000000000000000000000000000000000000000000000000000000000000000000000000000000000000000000000000000000000000000000000000000000000000000000000000000000000000000000000000000000000000000000000
310
00000000000000000000000000000000000000000000000000000000000000000000000000000000000000000000000000000000000000000000000000000000000000000000000000000000000000000000000000000000000000000000000000000000000000000000000000000000000000000000000000000000000000
310
00
310
00000000000000000000000000000000000000000000000000000000000000000000000000000000000000000000000000000000000000000000000000000000000000000000000000000000000000000000000000000000000000000000000000000000000000000000000000000000000000000000000000000000000000
310
00000000000000000000000000000000000000000000000000000000000000000000000000000000000000000000000000000000000000000000000000000000000000000000000000000000000000000000000000000000000000000000000000000000000000000000000000000000000000000000000000000000000000
310
00
310
00000000000000000000000000000000000000000000000000000000000000000000000000000000000000000000000000000000000000000000000000000000000000000000000000000000000000000000000000000000000000000000000000000000000000000000000000000000000000000000000000000000000000
310
00000000000000000000000000000000000000000000000000000000000000000000000000000000000000000000000000000000000000000000000000000000000000000000000000000000000000000000000000000000000000000000000000000000000000000000000000000000000000000000000000000000000000
310
00
310
00000000000000000000000000000000000000000000000000000000000000000000000000000000000000000000000000000000000000000000000000000000000000000000000000000000000000000000000000000000000000000000000000000000000000000000000000000000000000000000000000000000000000
310
00000000000000000000000000000000000000000000000000000000000000000000000000000000000000000000000000000000000000000000000000000000000000000000000000000000000000000000000000000000000000000000000000000000000000000000000000000000000000000000000000000000000000
310
00
310
00000000000000000000000000000000000000000000000000000000000000000000000000000000000000000000000000000000000000000000000000000000000000000000000000000000000000000000000000000000000000000000000000000000000000000000000000000000000000
  0
XRECORD
  5
4BE
102
{ACAD_REACTORS
330
4EA
102
}
330
4EA
100
AcDbXrecord
280
     1
310
3E4F020000004D6F64656C6572000000000000000000000000000000000000000000000000000000000000000000000000000000000000000000000000000000000000000000000000000000000000000000000000000000000000000000000000000000000000000000000000000000000000000000000000000000000000
310
00000000000000000000000000000000000000000000000000000000000000000000000000000000000000000000000000000000000000000000000000000000000000000000000000000000000000000000000000000000000000000000000000000000000000000000000000000000000000000000000000000000000000
310
00
310
00000000000000000000000000000000000000000000000000000000000000000000000000000000000000000000000000000000000000000000000000000000000000000000000000000000000000000000000000000000000000000000000000000000000000000000000000000000000000000000000000000000000000
310
00000000000000000000000000000000000000000000000000000000000000000000000000000000000000000000000000000000000000000000000000000000000000000000000000000000000000000000000000000000000000000000000000000000000000000000000000000000000000000000000000000000000000
310
00
310
00000000000000000000000000000000000000000000000000000000000000000000000000000000000000000000000000000000000000000000000000000000000000000000000000000000000000000000000000000000000000000000000000000000000000000000000000000000000000000000000000000000000000
310
00000000000000000000000000000000000000000000000000000000000000000000000000000000000000000000000000000000000000000000000000000000000000000000000000000000000000000000000000000000000000000000000000000000000000000000000000000000000000000000000000000000000000
310
00
310
00000000000000000000000000000000000000000000000000000000000000000000000000000000000000000000000000000000000000000000000000000000000000000000000000000000000000000000000000000000000000000000000000000000000000000000000000000000000000000000000000000000000000
310
00000000000000000000000000000000000000000000000000000000000000000000000000000000000000000000000000000000000000000000000000000000000000000000000000000000000000000000000000000000000000000000000000000000000000000000000000000000000000000000000000000000000000
310
00
310
00000000000000000000000000000000000000000000000000000000000000000000000000000000000000000000000000000000000000000000000000000000000000000000000000000000000000000000000000000000000000000000000000000000000000000000000000000000000000000000000000000000000000
310
00000000000000000000000000000000000000000000000000000000000000000000000000000000000000000000000000000000000000000000000000000000000000000000000000000000000000000000000000000000000000000000000000000000000000000000000000000000000000000000000000000000000000
310
00
310
00000000000000000000000000000000000000000000000000000000000000000000000000000000000000000000000000000000000000000000000000000000000000000000000000000000000000000000000000000000000000000000000000000000000000000000000000000000000000000000000000000000000000
310
00000000000000000000000000000000000000000000000000000000000000000000000000000000000000000000000000000000000000000000000000000000000000000000000000000000000000000000000000000000000000000000000000000000000000000000000000000000000000000000000000000000000000
310
00
310
00000000000000000000000000000000000000000000000000000000000000000000000000000000000000000000000000000000000000000000000000000000000000000000000000000000000000000000000000000000000000000000000000000000000000000000000000000000000000000000000000000000000000
310
00000000000000000000000000000000000000000000000000000000000000000000000000000000000000000000000000000000000000000000000000000000000000000000000000000000000000000000000000000000000000000000000000000000000000000000000000000000000000000000000000000000000000
310
00
310
00000000000000000000000000000000000000000000000000000000000000000000000000000000000000000000000000000000000000000000000000000000000000000000000000000000000000000000000000000000000000000000000000000000000000000000000000000000000000000000000000000000000000
310
00000000000000000000000000000000000000000000000000000000000000000000000000000000000000000000000000000000000000000000000000000000000000000000000000000000000000000000000000000000000000000000000000000000000000000000000000000000000000000000000000000000000000
310
00
310
00000000000000000000000000000000000000000000000000000000000000000000000000000000000000000000000000000000000000000000000000000000000000000000000000000000000000000000000000000000000000000000000000000000000000000000000000000000000000000000000000000000000000
310
00000000000000000000000000000000000000000000000000000000000000000000000000000000000000000000000000000000000000000000000000000000000000000000000000000000000000000000000000000000000000000000000000000000000000000000000000000000000000000000000000000000000000
310
00
310
00000000000000000000000000000000000000000000000000000000000000000000000000000000000000000000000000000000000000000000000000000000000000000000000000000000000000000000000000000000000000000000000000000000000000000000000000000000000000000000000000000000000000
310
00000000000000000000000000000000000000000000000000000000000000000000000000000000000000000000000000000000000000000000000000000000000000000000000000000000000000000000000000000000000000000000000000000000000000000000000000000000000000000000000000000000000000
310
00
310
00000000000000000000000000000000000000000000000000000000000000000000000000000000000000000000000000000000000000000000000000000000000000000000000000000000000000000000000000000000000000000000000000000000000000000000000000000000000000000000000000000000000000
310
00000000000000000000000000000000000000000000000000000000000000000000000000000000000000000000000000000000000000000000000000000000000000000000000000000000000000000000000000000000000000000000000000000000000000000000000000000000000000000000000000000000000000
310
00
310
00000000000000000000000000000000000000000000000000000000000000000000000000000000000000000000000000000000000000000000000000000000000000000000000000000000000000000000000000000000000000000000000000000000000000000000000000000000000000000000000000000000000000
310
00000000000000000000000000000000000000000000000000000000000000000000000000000000000000000000000000000000000000000000000000000000000000000000000000000000000000000000000000000000000000000000000000000000000000000000000000000000000000000000000000000000000000
310
00
310
00000000000000000000000000000000000000000000000000000000000000000000000000000000000000000000000000000000000000000000000000000000000000000000000000000000000000000000000000000000000000000000000000000000000000000000000000000000000000000000000000000000000000
310
00000000000000000000000000000000000000000000000000000000000000000000000000000000000000000000000000000000000000000000000000000000000000000000000000000000000000000000000000000000000000000000000000000000000000000000000000000000000000000000000000000000000000
310
00
310
00000000000000000000000000000000000000000000000000000000000000000000000000000000000000000000000000000000000000000000000000000000000000000000000000000000000000000000000000000000000000000000000000000000000000000000000000000000000000
  0
XRECORD
  5
4B5
102
{ACAD_REACTORS
330
4EA
102
}
330
4EA
100
AcDbXrecord
280
     1
310
DF56060034040701D0009A9999999999B93F000000000000000000000000000000000400000009000000000000000200000064000000640000000100000001000000190000007B14AE47E17A843F00000000004060409A9999999999B93F00000000004C2D41000000000070F7400000000000942141000000000000000000
310
0000000000000000000000000000000AD482040000000000000000000000000000F03F000000000000000000000000000030402D431CEBE2362A3F00000000000008400000000000000000009807C000000000000000007C1A61B9A711364020000000050000000A000000200000002000000020000000000000000000F03F
310
00
310
0000000000F03F000000000000F03F333333333333D33F333333333333D33F333333333333D33F000000000000F43F000000000000F43F000000000000F03F0200000064000000000000000000000000000840000000000000F83F00000000000000000000000000000000008056409A9999999999B93F0000000000000000
310
00000000000000000000000000000000000000000000000000000000000000000000000000000000000000000000000000000000000000000000000000000000000000000000000000000000000000000000000000000000000000000000000000000000000000000000000000000000000000000000000000000000000000
310
00
310
0000000000000000000000000000000000000000000000000000000000000000000000000000000000000000000000000000000000000000000000000000000000000000000000000000000000000000000000000000000000000000000000000000000000000000000000000000000000000000000000009A9999999999A9
310
3F9100000000000000000000000000000035A781D547960F40000000000000F03F000000000000F03F666666666666164000000000104068F200000000000000000000000000000000000000000000000000000000000000000000000000000000000000000000000000000000000000000000000000000000000000000000
310
00
310
00000000000000000000000000000000000000000000000000000000000000000000000000000000000000000000000000000000000000000000000000000000000000000000000000000000000000000000000000000000000000000000000000000000000000000000000000000000000000000000000000000000000000
310
000000000000000000000000000000000000000000000000000000000000000000000000000000000000000000000000000000000000000000000000FF000000000000000000000000000000000000000000000000000000000000000000000000000000000000000000000000000000000000000000000000000000000000
310
00
310
0000000000000000000000000000000000000000000000000000000000000000000000000000000000000000000000000000000000000000000000000000000000000000
  0
DICTIONARY
  5
4DB
330
4DA
100
AcDbDictionary
280
     1
281
     1
  3
ADSK_XREC_LAYOUTTHUMBNAIL
360
4DC
  0
XRECORD
  5
4DC
102
{ACAD_REACTORS
330
4DB
102
}
330
4DB
100
AcDbXrecord
280
     1
310
28000000B40000008B0000000100080000000000BC61000000000000000000000001000000000000FFFFFF0000000000FFFFFF000000000000000000000000000000000000000000000000000000000000000000330000006600000099000000CC000000FF00000000330000333300006633000099330000CC330000FF3300
310
0000660000336600006666000099660000CC660000FF66000000990000339900006699000099990000CC990000FF99000000CC000033CC000066CC000099CC0000CCCC0000FFCC000000FF000033FF000066FF000099FF0000CCFF0000FFFF000000003300330033006600330099003300CC003300FF003300003333003333
310
33006633330099333300CC333300FF33330000663300336633006666330099663300CC663300FF66330000993300339933006699330099993300CC993300FF99330000CC330033CC330066CC330099CC3300CCCC3300FFCC330000FF330033FF330066FF330099FF3300CCFF3300FFFF330000006600330066006600660099
310
006600CC006600FF00660000336600333366006633660099336600CC336600FF33660000666600336666006666660099666600CC666600FF66660000996600339966006699660099996600CC996600FF99660000CC660033CC660066CC660099CC6600CCCC6600FFCC660000FF660033FF660066FF660099FF6600CCFF6600
310
FFFF660000009900330099006600990099009900CC009900FF00990000339900333399006633990099339900CC339900FF33990000669900336699006666990099669900CC669900FF66990000999900339999006699990099999900CC999900FF99990000CC990033CC990066CC990099CC9900CCCC9900FFCC990000FF99
310
0033FF990066FF990099FF9900CCFF9900FFFF99000000CC003300CC006600CC009900CC00CC00CC00FF00CC000033CC003333CC006633CC009933CC00CC33CC00FF33CC000066CC003366CC006666CC009966CC00CC66CC00FF66CC000099CC003399CC006699CC009999CC00CC99CC00FF99CC0000CCCC0033CCCC0066CC
310
CC0099CCCC00CCCCCC00FFCCCC0000FFCC0033FFCC0066FFCC0099FFCC00CCFFCC00FFFFCC000000FF003300FF006600FF009900FF00CC00FF00FF00FF000033FF003333FF006633FF009933FF00CC33FF00FF33FF000066FF003366FF006666FF009966FF00CC66FF00FF66FF000099FF003399FF006699FF009999FF00CC
310
99FF00FF99FF0000CCFF0033CCFF0066CCFF0099CCFF00CCCCFF00FFCCFF0000FFFF0033FFFF0066FFFF0099FFFF00CCFFFF00FFFFFF00000000000D0D0D001A1A1A00282828003535350043434300505050005D5D5D006B6B6B00787878008686860093939300A1A1A100AEAEAE00BBBBBB00C9C9C900D6D6D600E4E4E400
310
F1F1F100FFFFFF0000000000000000000000000000000000000000000000000000000000000000000000000000000000E2E2E2E2E2E2E2E2E2E2E2E2E2E2E2E2E2E2E2E2E2E2E2E2E2E2E2E2E2E2E2E2E2E2E2E2E2E2E2E2E2E2E2E2E2E2E2E2E2E2E2E2E2E2E2E2E2E2E2E2E2E2E2E2E2E2E2E2E2E2E2E2E2E2E2E2E2E2E2
310
E2E2E2E2E2E2E2E2E2E2E2E2E2E2E2E2E2E2E2E2E2E2E2E2E2E2E2E2E2E2E2E2E2E2E2E2E2E2E2E2E2E2E2E2E2E2E2E2E2E2E2E2E2E2E2E2E2E2E2E2E2E2E2E2E2E2E2E2E2E2E2E2E2E2E2E2E2E2E2E2E2E2E2E2E2E2E2E2E2E2E2E2E2E2E2E2E2E2E2E2EFF5F5F5F5F5F5F5F5F5F5F5F5F5F5F5F5F5F5F5F5F5F5F5F5F5F5
310
F5F5F5F5F5F5F5F5F5F5F5F5F5F5F5F5F5F5F5F5F5F5F5F5F5F5F5F5F5F5F5F5F5F5F5F5F5F5F5F5F5F5F5F5F5F5F5F5F5F5F5F5F5F5F5F5F5F5F5F5F5F5F5F5F5F5F5F5F5F5F5F5F5F5F5F5F5F5F5F5F5F5F5F5F5F5F5F5F5F5F5F5F5F5F5F5F5F5F5F5F5F5F5F5F5F5F5F5F5F5F5F5F5F5F5F5F5F5F5F5F5F5F5F5F5F5F5
310
F5F5F5F5F5F5F5F5F5F5F5F5F5F5F5F5F5F5F5F5F5F5F5F5E2E2EFF5F5F5F5F5F5F5F5F5F5F5F5F5F5F5F5F5F5F5F5F5F5F5F5F5F5F5F5F5F5F5F5F5F5F5F5F5F5F5F5F5F5F5F5F5F5F5F5F5F5F5F5F5F5F5F5F5F5F5F5F5F5F5F5F5F5F5F5F5F5F5F5F5F5F5F5F5F5F5F5F5F5F5F5F5F5F5F5F5F5F5F5F5F5F5F5F5F5F5F5
310
F5F5F5F5F5F5F5F5F5F5F5F5F5F5F5F5F5F5F5F5F5F5F5F5F5F5F5F5F5F5F5F5F5F5F5F5F5F5F5F5F5F5F5F5F5F5F5F5F5F5F5F5F5F5F5F5F5F5F5F5F5F5F5F5F5F5F5F5F5F5F5F5F5F5F5F5F5E2E2EFF5F5F5F5F5F5F5F5F5F5F5F5F5F5F5F5F5F5F5F5F5F5F5F5F5F5F5F5F5F5F5F5F5F5F5F5F5F5F5F5F5F5F5F5F5F5F5
310
F5F5F5F5F5F5F5F5F5F5F5F5F5F5F5F5F5F5F5F5F5F5F5F5F5F5F5F5F5F5F5F5F5F5F5F5F5F5F5F5F5F5F5F5F5F5F5F5F5F5F5F5F5F5F5F5F5F5F5F5F5F5F5F5F5F5F5F5F5F5F5F5F5F5F5F5F5F5F5F5F5F5F5F5F5F5F5F5F5F5F5F5F5F5F5F5F5F5F5F5F5F5F5F5F5F5F5F5F5F5F5F5F5F5F5F5F5F5F5F5F5F5F5F5F5F5F5
310
F5F5F5E2E2EFF5F5F5E2E2E2E2E2E2E2E2F5F5F5F5F5F5F5F5F5E2E2E2E2E2E2E2E2E2E2E2E2E2E2E2E2F5F5F5F5F5F5F5F5E2E2E2E2E2E2E2E2E2E2E2E2E2E2E2E2F5F5F5F5F5F5F5F5F5E2E2E2E2E2E2E2E2E2E2E2E2E2E2E2F5F5F5F5F5F5F5F5F5E2E2E2E2E2E2E2E2E2E2E2E2E2E2E2F5F5F5F5F5F5F5F5F5E2E2E2E2
310
E2E2E2E2E2E2E2E2E2E2E2E2F5F5F5F5F5F5F5F5E2E2E2E2E2E2E2E2E2E2E2E2E2E2E2E2F5F5F5F5F5F5F5F5F5E2E2E2E2E2E2E2E2F5F5F5E2E2EFF5F5F5E2F5F5F5F5F5F5F5F5F5F5F5F5F5F5F5F5F5F5F5F5F5F5F5F5F5F5F5F5F5F5F5F5F5F5F5F5F5F5F5F5F5F5F5F5F5F5F5F5F5F5F5F5F5F5F5F5F5F5F5F5F5F5F5F5
310
F5F5F5F5F5F5F5F5F5F5F5F5F5F5F5F5F5F5F5F5F5F5F5F5F5F5F5F5F5F5F5F5F5F5F5F5F5F5F5F5F5F5F5F5F5F5F5F5F5F5F5F5F5F5F5F5F5F5F5F5F5F5F5F5F5F5F5F5F5F5F5F5F5F5F5F5F5F5F5F5F5F5F5F5F5F5F5F5F5F5F5F5F5F5F5F5F5F5F5F5F5F5F5F5F5E2F5F5F5E2E2EFF5F5F5E2F5F5F5F5F5F5F5F5F5F5F5
310
F5F5F5F5F5F5F5F5F5F5F5F5F5F5F5F5F5F5F5F5F5F5F5F5F5F5F5F5F5F5F5F5F5F5F5F5F5F5F5F5F5F5F5F5F5F5F5F5F5F5F5F5F5F5F5F5F5F5F5F5F5F5F5F5F5F5F5F5F5F5F5F5F5F5F5F5F5F5F5F5F5F5F5F5F5F5F5F5F5F5F5F5F5F5F5F5F5F5F5F5F5F5F5F5F5F5F5F5F5F5F5F5F5F5F5F5F5F5F5F5F5F5F5F5F5F5F5
310
F5F5F5F5F5F5F5F5F5F5F5F5F5F5F5F5F5F5F5F5F5F5F5F5F5F5F5F5F5F5F5E2F5F5F5E2E2EFF5F5F5E2F5F5F5F5F5F5F5F5F5F5F5F5F5F5F5F5F5F5F5F5F5F5F5F5F5F5F5F5F5F5F5F5F5F5F5F5F5F5F5F5F5F5F5F5F5F5F5F5F5F5F5F5F5F5F5F5F5F5F5F5F5F5F5F5F5F5F5F5F5F5F5F5F5F5F5F5F5F5F5F5F5F5F5F5F5
310
F5F5F5F5F5F5F5F5F5F5F5F5F5F5F5F5F5F5F5F5F5F5F5F5F5F5F5F5F5F5F5F5F5F5F5F5F5F5F5F5F5F5F5F5F5F5F5F5F5F5F5F5F5F5F5F5F5F5F5F5F5F5F5F5F5F5F5F5F5F5F5F5F5F5F5F5F5F5F5F5F5F5F5F5E2F5F5F5E2E2EFF5F5F5E2F5F5F5F5F5F5F5F5F5F5F5F5F5F5F5F5F5F5F5F5F5F5F5F5F5F5F5F5F5F5F5F5
310
F5F5F5F5F5F5F5F5F5F5F5F5F5F5F5F5F5F5F5F5F5F5F5F5F5F5F5F5F5F5F5F5F5F5F5F5F5F5F5F5F5F5F5F5F5F5F5F5F5F5F5F5F5F5F5F5F5F5F5F5F5F5F5F5F5F5F5F5F5F5F5F5F5F5F5F5F5F5F5F5F5F5F5F5F5F5F5F5F5F5F5F5F5F5F5F5F5F5F5F5F5F5F5F5F5F5F5F5F5F5F5F5F5F5F5F5F5F5F5F5F5F5F5F5F5F5F5
310
F5F5F5F5F5F5F5F5F5F5E2F5F5F5E2E2EFF5F5F5E2F5F5F5F5F5F5F5F5F5F5F5F5F5F5F5F5F5F5F5F5F5F5F5F5F5F5F5F5F5F5F5F5F5F5F5F5F5F5F5F5F5F5F5F5F5F5F5F5F5F5F5F5F5F5F5F5F5F5F5F5F5F5F5F5F5F5F5F5F5F5F5F5F5F5F5F5F5F5F5F5F5F5F5F5F5F5F5F5F5F5F5F5F5F5F5F5F5F5F5F5F5F5F5F5F5F5
310
F5F5F5F5F5F5F5F5F5F5F5F5F5F5F5F5F5F5F5F5F5F5F5F5F5F5F5F5F5F5F5F5F5F5F5F5F5F5F5F5F5F5F5F5F5F5F5F5F5F5F5F5F5F5F5F5F5F5F5F5F5F5F5E2F5F5F5E2E2EFF5F5F5E2F5F5F5F5F5F5F5F5F5F5F5F5F5F5F5F5F5F5F5F5F5F5F5F5F5F5F5F5F5F5F5F5F5F5F5F5F5F5F5F5F5F5F5F5F5F5F5F5F5F5F5F5F5
310
F5F5F5F5F5F5F5F5F5F5F5F5F5F5F5F5F5F5F5F5F5F5F5F5F5F5F5F5F5F5F5F5F5F5F5F5F5F5F5F5F5F5F5F5F5F5F5F5F5F5F5F5F5F5F5F5F5F5F5F5F5F5F5F5F5F5F5F5F5F5F5F5F5F5F5F5F5F5F5F5F5F5F5F5F5F5F5F5F5F5F5F5F5F5F5F5F5F5F5F5F5F5F5F5F5F5F5F5F5F5F5F5F5F5F5F5E2F5F5F5E2E2EFF5F5F5E2
310
F5F5F5F5F5F5F5F5F5F5F5F5F5F5F5F5F5F5F5F5F5F5F5F5F5F5F5F5F5F5F5F5F5F5F5F5F5F5F5F5F5F5F5F5F5F5F5F5F5F5F5F5F5F5F5F5F5F5F5F5F5F5F5F5F5F5F5F5F5F5F5F5F5F5F5F5F5F5F5F5F5F5F5F5F5F5F5F5F5F5F5F5F5F5F5F5F5F5F5F5F5F5F5F5F5F5F5F5F5F5F5F5F5F5F5F5F5F5F5F5F5F5F5F5F5F5F5
310
F5F5F5F5F5F5F5F5F5F5F5F5F5F5F5F5F5F5F5F5F5F5F5F5F5F5F5F5F5F5F5F5F5F5F5F5F5F5F5F5F5F5E2F5F5F5E2E2EFF5F5F5E2F5F5F5F5F5F5F5F5F5F5F5F5F5F5F5F5F5F5F5F5F5F5F5F5F5F5F5F5F5F5F5F5F5F5F5F5F5F5F5F5F5F5F5F5F5F5F5F5F5F5F5F5F5F5F5F5F5F5F5F5F5F5F5F5F5F5F5F5F5F5F5F5F5F5
310
F5F5F5F5F5F5F5F5F5F5F5F5F5F5F5F5F5F5F5F5F5F5F5F5F5F5F5F5F5F5F5F5F5F5F5F5F5F5F5F5F5F5F5F5F5F5F5F5F5F5F5F5F5F5F5F5F5F5F5F5F5F5F5F5F5F5F5F5F5F5F5F5F5F5F5F5F5F5F5F5F5F5F5F5F5F5F5F5F5F5F5F5F5F5F5E2F5F5F5E2E2EFF5F5F5F5F5F5F5F5F5F5F5F5F5F5F5F5F5F5F5F5F5F5F5F5F5
310
F5F5F5F5F5F5F5F5F5F5F5F5F5F5F5F5F5F5F5F5F5F5F5F5F5F5F5F5F5F5F5F5F5F5F5F5F5F5F5F5F5F5F5F5F5F5F5F5F5F5F5F5F5F5F5F5F5F5F5F5F5F5F5F5F5F5F5F5F5F5F5F5F5F5F5F5F5F5F5F5F5F5F5F5F5F5F5F5F5F5F5F5F5F5F5F5F5F5F5F5F5F5F5F5F5F5F5F5F5F5F5F5F5F5F5F5F5F5F5F5F5F5F5F5F5F5F5
310
F5F5F5F5F5F5F5F5F5F5F5F5F5F5F5F5F5F5F5F5F5F5F5F5F5E2E2EFF5F5F5F5F5F5F5F5F5F5F5F5F5F5F5F5F5F5F5F5F5F5F5F5F5F5F5F5F5F5F5F5F5F5F5F5F5F5F5F5F5F5F5F5F5F5F5F5F5F5F5F5F5F5F5F5F5F5F5F5F5F5F5F5F5F5F5F5F5F5F5F5F5F5F5F5F5F5F5F5F5F5F5F5F5F5F5F5F5F5F5F5F5F5F5F5F5F5F5
310
F5F5F5F5F5F5F5F5F5F5F5F5F5F5F5F5F5F5F5F5F5F5F5F5F5F5F5F5F5F5F5F5F5F5F5F5F5F5F5F5F5F5F5F5F5F5F5F5F5F5F5F5F5F5F5F5F5F5F5F5F5F5F5F5F5F5F5F5F5F5F5F5F5F5F5F5F5F5E2E2EFF5F5F5F5F5F5F5F5F5F5F5F5F5F5F5F5F5F5F5F5F5F5F5F5F5F5F5F5F5F5F5F5F5F5F5F5F5F5F5F5F5F5F5F5F5F5
310
F5F5F5F5F5F5F5F5F5F5F5F5F5F5F5F5F5F5F5F5F5F5F5F5F5F5F5F5F5F5F5F5F5F5F5F5F5F5F5F5F5F5F5F5F5F5F5F5F5F5F5F5F5F5F5F5F5F5F5F5F5F5F5F5F5F5F5F5F5F5F5F5F5F5F5F5F5F5F5F5F5F5F5F5F5F5F5F5F5F5F5F5F5F5F5F5F5F5F5F5F5F5F5F5F5F5F5F5F5F5F5F5F5F5F5F5F5F5F5F5F5F5F5F5F5F5F5
310
F5F5F5F5E2E2EFF5F5F5F5F5F5F5F5F5F5F5F5F5F5F5F5F5F5F5F5F5F5F5F5F5F5F5F5F5F5F5F5F5F5F5F5F5F5F5F5F5F5F5F5F5F5F5F5F5F5F5F5F5F5F5F5F5F5F5F5F5F5F5F5F5F5F5F5F5F5F5F5F5F5F5F5F5F5F5F5F5F5F5F5F5F5F5F5F5F5F5F5F5F5F5F5F5F5F5F5F5F5F5F5F5F5F5F5F5F5F5F5F5F5F5F5F5F5F5F5
310
F5F5F5F5F5F5F5F5F5F5F5F5F5F5F5F5F5F5F5F5F5F5F5F5F5F5F5F5F5F5F5F5F5F5F5F5F5F5F5F5F5F5F5F5F5F5F5F5F5F5F5F5F5F5F5F5F5E2E2EFF5F5F5F5F5F5F5F5F5F5F5F5F5F5F5F5F5F5F5F5E2E2E2E2E2E2E2E2E2E2E2E2E2E2E2E2E2E2E2E2E2E2E2E2E2E2E2E2E2E2E2E2E2E2E2E2E2E2E2E2E2E2E2E2E2E2E2
310
E2E2E2E2E2E2E2E2E2E2E2E2E2E2E2E2E2E2E2E2E2E2E2E2E2E2E2E2E2E2E2E2E2E2E2E2E2E2E2E2E2E2E2E2E2E2E2E2E2E2E2E2E2E2E2E2E2E2E2E2E2E2E2E2E2E2E2E2E2E2E2E2E2E2E2E2E2E2E2E2E2E2E2E2E2E2E2E2E2E2F5F5F5F5F5F5F5F5F5F5F5F5F5F5F5F5F5F5F5F5E2E2EFF5F5F5F5F5F5F5F5F5F5F5F5F5F5
310
F5F5F5F5F5F5E2F5F5F5F5F5F5F5F5F5F5F5F5F5F5F5F5F5F5F5F5F5F5F5F5F5F5F5F5F5F5F5F5F5F5F5F5F5F5F5F5F5F5F5F5F5F5F5F5F5F5F5F5F5F5F5F5F5F5F5F5F5F5F5F5F5F5F5F5F5F5F5F5F5F5F5F5F5F5F5F5F5F5F5F5F5F5F5F5F5F5F5F5F5F5F5F5F5F5F5F5F5F5F5F5F5F5F5F5F5F5F5F5F5F5F5F5F5F5F5F5
310
F5F5F5F5F5F5F5F5F5F5F5F5F5F5F5E2F5F5F5F5F5F5F5F5F5F5F5F5F5F5F5F5F5F5F5F5E2E2EFF5F5F5F5F5F5F5F5F5F5F5F5F5F5F5F5F5F5F5F5E2F5F5F5F5F5F5F5F5F5F5F5F5F5F5F5F5F5F5F5F5F5F5F5F5F5F5F5F5F5F5F5F5F5F5F5F5F5F5F5F5F5F5F5F5F5F5F5F5F5F5F5F5F5F5F5F5F5F5F5F5F5F5F5F5F5F5F5
310
F5F5F5F5F5F5F5F5F5F5F5F5F5F5F5F5F5F5F5F5F5F5F5F5F5F5F5F5F5F5F5F5F5F5F5F5F5F5F5F5F5F5F5F5F5F5F5F5F5F5F5F5F5F5F5F5F5F5F5F5F5F5F5F5F5F5F5F5E2F5F5F5F5F5F5F5F5F5F5F5F5F5F5F5F5F5F5F5F5E2E2EFF5F5F5F5F5F5F5F5F5F5F5F5F5F5F5F5F5F5F5F5E2F5F5F5F5F5F5F5F5F5F5F5F5F5F5
310
F5F5F5F5F5F5F5F5F5F5F5F5F5F5F5F5F5F5F5F5F5F5F5F5F5F5F5F5F5F5F5F5F5F5F5F5F5F5F5F5F5F5F5F5F5F5F5F5F5F5F5F5F5F5F5F5F5F5F5F5F5F5F5F5F5F5F5F5F5F5F5F5F5F5F5F5F5F5F5F5F5F5F5F5F5F5F5F5F5F5F5F5F5F5F5F5F5F5F5F5F5F5F5F5F5F5F5F5F5F5F5F5F5F5F5F5F5F5F5F5F5E2F5F5F5F5F5
310
F5F5F5F5F5F5F5F5F5F5F5F5F5F5F5E2E2EFF5F5F5F5F5F5F5F5F5F5F5F5F5F5F5F5F5F5F5F5E2F5F5F5F5F5F5F5F5F5F5F5F5F5F5F5F5F5F5F5F5F5F5F5F5F5F5F5F5F5F5F5F5F5F5F5F5F5F5F5F5F5F5F5F5F5F5F5F5F5F5F5F5F5F5F5F5F5F5F5F5F5F5F5F5F5F5F5F5F5F5F5F5F5F5F5F5F5F5F5F5F5F5F5F5F5F5F5F5
310
F5F5F5F5F5F5F5F5F5F5F5F5F5F5F5F5F5F5F5F5F5F5F5F5F5F5F5F5F5F5F5F5F5F5F5F5F5F5F5F5F5F5F5F5F5F5F5E2F5F5F5F5F5F5F5F5F5F5F5F5F5F5F5F5F5F5F5F5E2E2EFF5F5F5E2F5F5F5F5F5F5F5F5F5F5F5F5F5F5F5F5E2F5F5F5F5F5F5F5F5F5F5F5F5F5F5F5F5F5F5F5F5F5F5F5F5F5F5F5F5F5F5F5F5F5F5F5
310
F5F5F5F5F5F5F5F5F5F5F5F5F5F5F5F5F5F5F5F5F5F5F5F5F5F5F5F5F5F5F5F5F5F5F5F5F5F5F5F5F5F5F5F5F5F5F5F5F5F5F5F5F5F5F5F5F5F5F5F5F5F5F5F5F5F5F5F5F5F5F5F5F5F5F5F5F5F5F5F5F5F5F5F5F5F5F5F5F5F5F5F5F5F5F5F5F5F5F5F5E2F5F5F5F5F5F5F5F5F5F5F5F5F5F5F5F5E2F5F5F5E2E2EFF5F5F5
310
E2F5F5F5F5F5F5F5F5F5F5F5F5F5F5F5F5E2F5F5F5F5F5F5F5F5F5F5F5F5F5F5F5F5F5F5F5F5F5F5F5F5F5F5F5F5F5F5F5F5F5F5F5F5F5F5F5F5F5F5F5F5F5F5F5F5F5F5F5F5F5F5F5F5F5F5F5F5F5F5F5F5F5F5F5F5F5F5F5F5F5F5F5F5F5F5F5F5F5F5F5F5F5F5F5F5F5F5F5F5F5F5F5F5F5F5F5F5F5F5F5F5F5F5F5F5F5
310
F5F5F5F5F5F5F5F5F5F5F5F5F5F5F5F5F5F5F5F5F5F5F5F5F5F5E2F5F5F5F5F5F5F5F5F5F5F5F5F5F5F5F5E2F5F5F5E2E2EFF5F5F5E2F5F5F5F5F5F5F5F5F5F5F5F5F5F5F5F5E2F5F5F5F5F5F5F5F5F5F5F5F5F5F5F5F5F5F5F5F5F5F5F5F5F5F5F5F5F5F5F5F5F5F5F5F5F5F5F5F5F5F5F5F5F5F5F5F5F5F5F5F5F5F5F5F5
310
F5F5F5F5F5F5F5F5F5F5F5F5F5F5F5F5F5F5F5F5F5F5F5F5F5F5F5F5F5F5F5F5F5F5F5F5F5F5F5F5F5F5F5F5F5F5F5F5F5F5F5F5F5F5F5F5F5F5F5F5F5F5F5F5F5F5F5F5F5F5F5F5F5F5F5F5F5F5F5E2F5F5F5F5F5F5F5F5F5F5F5F5F5F5F5F5E2F5F5F5E2E2EFF5F5F5E2F5F5F5F5F5F5F5F5F5F5F5F5F5F5F5F5E2F5F5F5
310
F5F5F5F5F5F5F5F5F5F5F5F5F5F5F5F5F5F5F5F5F5F5F5F5F5F5F5F5F5F5F5F5F5F5F5F5F5F5F5F5F5F5F5F5F5F5F5F5F5F5F5F5F5F5F5F5F5F5F5F5F5F5F5F5F5F5F5F5F5F5F5F5F5F5F5F5F5F5F5F5F5F5F5F5F5F5F5F5F5F5F5F5F5F5F5F5F5F5F5F5F5F5F5F5F5F5F5F5F5F5F5F5F5F5F5F5F5F5F5F5F5F5F5F5F5F5F5
310
F5F5F5F5F5E2F5F5F5F5F5F5F5F5F5F5F5F5F5F5F5F5E2F5F5F5E2E2EFF5F5F5E2F5F5F5F5F5F5F5F5F5F5F5F5F5F5F5F5E2F5F5F5F5F5F5F5F5F5F5F5F5F5F5F5F5F5F5F5F5F5F5F5F5F5F5F5F5F5F5F5F5F5F5F5F5F5F5F5F5F5F5F5F5F5F5F5F5F5F5F5F5F5F5F5F5F5F5F5F5F5F5F5F5F5F5F5F5F5F5F5F5F5F5F5F5F5
310
F5F5F5F5F5F5F5F5F5F5F5F5F5F5F5F5F5F5F5F5F5F5F5F5F5F5F5F5F5F5F5F5F5F5F5F5F5F5F5F5F5F5F5F5F5F5F5F5F5F5F5F5F5F5F5F5F5F5E2F5F5F5F5F5F5F5F5F5F5F5F5F5F5F5F5E2F5F5F5E2E2EFF5F5F5E2F5F5F5F5F5F5F5F5F5F5F5F5F5F5F5F5E2F5F5F5F5F5F5F5F5F5F5F5F5F5F5F5F5F5F5F5F5F5F5F5F5
310
F5F5F5F5F5F5F5F5F5F5F5F5F5F5F5F5F5F5F5F5F5F5F5F5F5F5F5F5F5F5F5F5F5F5F5F5F5F5F5F5F5F5F5F5F5F5F5F5F5F5F5F5F5F5F5F5F5F5F5F5F5F5F5F5F5F5F5F5F5F5F5F5F5F5F5F5F5F5F5F5F5F5F5F5F5F5F5F5F5F5F5F5F5F5F5F5F5F5F5F5F5F5F5F5F5F5F5F5F5F5F5E2F5F5F5F5F5F5F5F5F5F5F5F5F5F5F5
310
F5E2F5F5F5E2E2EFF5F5F5E2F5F5F5F5F5F5F5F5F5F5F5F5F5F5F5F5E2F5F5F5F5F5F5F5F5F5F5F5F5F5F5F5F5F5F5F5F5F5F5F5F5F5F5F5F5F5F5F5F5F5F5F5F5F5F5F5F5F5F5F5F5F5F5F5F5F5F5F5F5F5F5F5F5F5F5F5F5F5F5F5F5F5F5F5F5F5F5F5F5F5F5F5F5F5F5F5F5F5F5F5F5F5F5F5F5F5F5F5F5F5F5F5F5F5F5
310
F5F5F5F5F5F5F5F5F5F5F5F5F5F5F5F5F5F5F5F5F5F5F5F5F5F5F5F5F5F5F5F5F5F5F5F5F5E2F5F5F5F5F5F5F5F5F5F5F5F5F5F5F5F5E2F5F5F5E2E2EFF5F5F5E2F5F5F5F5F5F5F5F5F5F5F5F5F5F5F5F5E2F5F5F5F5F5F5F5F5F5F5F5F5F5F5F5F5F5F5F5F5F5F5F5F5F5F5F5F5F5F5F5F5F5F5F5F5F5F5F5F5F5F5F5F5F5
310
F5F5F5F5F5F5F5F5F5F5F5F5F5F5F5F5F5F5F5F5F5F5F5F5F5F5F5F5F5F5F5F5F5F5F5F5F5F5F5F5F5F5F5F5F5F5F5F5F5F5F5F5F5F5F5F5F5F5F5F5F5F5F5F5F5F5F5F5F5F5F5F5F5F5F5F5F5F5F5F5F5F5F5F5F5F5F5F5F5F5E2F5F5F5F5F5F5F5F5F5F5F5F5F5F5F5F5E2F5F5F5E2E2EFF5F5F5E2F5F5F5F5F5F5F5F5F5
310
F5F5F5F5F5F5F5E2F5F5F5F5F5F5F5F5F5F5F5F5F5F5F5F5F5F5F5F5F5F5F5F5F5F5F5F5F5F5F5F5F5F5F5F5F5F5F5F5F5F5F5F5F5F5F5F5F5F5F5F5F5F5F5F5F5F5F5F5F5F5F5F5F5F5F5F5F5F5F5F5F5F5F5F5F5F5F5F5F5F5F5F5F5F5F5F5F5F5F5F5F5F5F5F5F5F5F5F5F5F5F5F5F5F5F5F5F5F5F5F5F5F5F5F5F5F5F5
310
F5F5F5F5F5F5F5F5F5F5F5F5F5F5F5F5E2F5F5F5F5F5F5F5F5F5F5F5F5F5F5F5F5E2F5F5F5E2E2EFF5F5F5E2F5F5F5F5F5F5F5F5F5F5F5F5F5F5F5F5E2F5F5F5F5F5F5F5F5F5F5F5F5F5F5F5F5F5F5F5F5F5F5F5F5F5F5F5F5F5F5F5F5F5F5F5F5F5F5F5F5F5F5F5F5F5F5F5F5F5F5F5F5F5F5F5F5F5F5F5F5F5F5F5F5F5F5
310
F5F5F5F5F5F5F5F5F5F5F5F5F5F5F5F5F5F5F5F5F5F5F5F5F5F5F5F5F5F5F5F5F5F5F5F5F5F5F5F5F5F5F5F5F5F5F5F5F5F5F5F5F5F5F5F5F5F5F5F5F5F5F5F5F5F5F5F5F5E2F5F5F5F5F5F5F5F5F5F5F5F5F5F5F5F5E2F5F5F5E2E2EFF5F5F5E2F5F5F5F5F5F5F5F5F5F5F5F5F5F5F5F5E2F5F5F5F5F5F5F5F5F5F5F5F5F5
310
F5F5F5F5F5F5F5F5F5F5F5F5F5F5F5F5F5F5F5F5F5F5F5F5F5F5F5F5F5F5F5F5F5F5F5F5F5F5F5F5F5F5F5F5F5F5F5F5F5F5F5F5F5F5F5F5F5F5F5F5F5F5F5F5F5F5F5F5F5F5F5F5F5F5F5F5F5F5F5F5F5F5F5F5F5F5F5F5F5F5F5F5F5F5F5F5F5F5F5F5F5F5F5F5F5F5F5F5F5F5F5F5F5F5F5F5F5F5F5F5F5F5E2F5F5F5F5
310
F5F5F5F5F5F5F5F5F5F5F5F5E2F5F5F5E2E2EFF5F5F5E2F5F5F5F5F5F5F5F5F5F5F5F5F5F5F5F5E2F5F5F5F5F5F5F5F5F5F5F5F5F5F5F5F5F5F5F5F5F5F5F5F5F5F5F5F5F5F5F5F5F5F5F5F5F5F5F5F5F5F5F5F5F5F5F5F5F5F5F5F5F5F5F5F5F5F5F5F5F5F5F5F5F5F5F5F5F5F5F5F5F5F5F5F5F5F5F5F5F5F5F5F5F5F5F5
310
F5F5F5F5F5F5F5F5F5F5F5F5F5F5F5F5F5F5F5F5F5F5F5F5F5F5F5F5F5F5F5F5F5F5F5F5F5F5F5F5F5F5F5F5F5F5F5F5E2F5F5F5F5F5F5F5F5F5F5F5F5F5F5F5F5E2F5F5F5E2E2EFF5F5F5E2F5F5F5F5F5F5F5F5F5F5F5F5F5F5F5F5E2F5F5F5F5F5F5F5F5F5F5F5F5F5F5F5F5F5F5F5F5F5F5F5F5F5F5F5F5F5F5F5F5F5F5
310
F5F5F5F5F5F5F5F5F5F5F5F5F5F5F5F5F5F5F5F5F5F5F5F5F5F5F5F5F5F5F5F5F5F5F5F5F5F5F5F5F5F5F5F5F5F5F5F5F5F5F5F5F5F5F5F5F5F5F5F5F5F5F5F5F5F5F5F5F5F5F5F5F5F5F5F5F5F5F5F5F5F5F5F5F5F5F5F5F5F5F5F5F5F5F5F5F5F5F5F5F5E2F5F5F5F5F5F5F5F5F5F5F5F5F5F5F5F5E2F5F5F5E2E2EFF5F5
310
F5E2F5F5F5F5F5F5F5F5F5F5F5F5F5F5F5F5E2F5F5F5F5F5F5F5F5F5F5F5F5F5F5F5F5F5F5F5F5F5F5F5F5F5F5F5F5F5F5F5F5F5F5F5F5F5F5F5F5F5F5F5F5F5F5F5F5F5F5F5F5F5F5F5F5F5F5F5F5F5F5F5F5F5F5F5F5F5F5F5F5F5F5F5F5F5F5F5F5F5F5F5F5F5F5F5F5F5F5F5F5F5F5F5F5F5F5F5F5F5F5F5F5F5F5F5F5
310
F5F5F5F5F5F5F5F5F5F5F5F5F5F5F5F5F5F5F5F5F5F5F5F5F5F5F5E2F5F5F5F5F5F5F5F5F5F5F5F5F5F5F5F5E2F5F5F5E2E2EFF5F5F5E2F5F5F5F5F5F5F5F5F5F5F5F5F5F5F5F5E2F5F5F5F5F5F5F5F5F5F5F5F5F5F5F5F5F5F5F5F5F5F5F5F5F5F5F5F5F5F5F5F5F5F5F5F5F5F5F5F5F5F5F5F5F5F5F5F5F5F5F5F5F5F5F5
310
F5F5F5F5F5F5F5F5F5F5F5F5F5F5F5F5F5F5F5F5F5F5F5F5F5F5F5F5F5F5F5F5F5F5F5F5F5F5F5F5F5F5F5F5F5F5F5F5F5F5F5F5F5F5F5F5F5F5F5F5F5F5F5F5F5F5F5F5F5F5F5F5F5F5F5F5F5F5F5F5E2F5F5F5F5F5F5F5F5F5F5F5F5F5F5F5F5E2F5F5F5E2E2EFF5F5F5E2F5F5F5F5F5F5F5F5F5F5F5F5F5F5F5F5E2F5F5
310
F5F5F5F5F5F5F5F5F5F5F5F5F5F5F5F5F5F5F5F5F5F5F5F5F5F5F5F5F5F5F5F5F5F5F5F5F5F5F5F5F5F5F5F5F5F5F5F5F5F5F5F5F5F5F5F5F5F5F5F5F5F5F5F5F5F5F5F5F5F5F5F5F5F5F5F5F5F5F5F5F5F5F5F5F5F5F5F5F5F5F5F5F5F5F5F5F5F5F5F5F5F5F5F5F5F5F5F5F5F5F5F5F5F5F5F5F5F5F5F5F5F5F5F5F5F5F5
310
F5F5F5F5F5F5E2F5F5F5F5F5F5F5F5F5F5F5F5F5F5F5F5E2F5F5F5E2E2EFF5F5F5E2F5F5F5F5F5F5F5F5F5F5F5F5F5F5F5F5E2F5F5F5F5F5F5F5F5F5F5F5F5F5F5F5F5F5F5F5F5F5F5F5F5F5F5F5F5F5F5F5F5F5F5F5F5F5F5F5F5F5F5F5F5F5F5F5F5F5F5F5F5F5F5F5F5F5F5F5F5F5F5F5F5F5F5F5F5F5F5F5F5F5F5F5F5
310
F5F5F5F5F5F5F5F5F5F5F5F5F5F5F5F5F5F5F5F5F5F5F5F5F5F5F5F5F5F5F5F5F5F5F5F5F5F5F5F5F5F5F5F5F5F5F5F5F5F5F5F5F5F5F5F5F5F5F5E2F5F5F5F5F5F5F5F5F5F5F5F5F5F5F5F5E2F5F5F5E2E2EFF5F5F5F5F5F5F5F5F5F5F5F5F5F5F5F5F5F5F5F5E2F5F5F5F5F5F5F5F5F5F5F5F5F5F5F5F5F5F5F5F5F5F5F5
310
F5F5F5F5F5F5F5F5F5F5F5F5F5F5F5F5F5F5F5F5F5F5F5F5F5F5F5F5F5F5F5F5F5F5F5F5F5F5F5F5F5F5F5F5F5F5F5F5F5F5F5F5F5F5F5F5F5F5F5F5F5F5F5F5F5F5F5F5F5F5F5F5F5F5F5F5F5F5F5F5F5F5F5F5F5F5F5F5F5F5F5F5F5F5F5F5F5F5F5F5F5F5F5F5F5F5F5F5F5F5F5F5E2F5F5F5F5F5F5F5F5F5F5F5F5F5F5
310
F5F5F5F5F5F5E2E2EFF5F5F5F5F5F5F5F5F5F5F5F5F5F5F5F5F5F5F5F5E2F5F5F5F5F5F5F5F5F5F5F5F5F5F5F5F5F5F5F5F5F5F5F5F5F5F5F5F5F5F5F5F5F5F5F5F5F5F5F5F5F5F5F5F5F5F5F5F5F5F5F5F5F5F5F5F5F5F5F5F5F5F5F5F5F5F5F5F5F5F5F5F5F5F5F5F5F5F5F5F5F5F5F5F5F5F5F5F5F5F5F5F5F5F5F5F5F5
310
F5F5F5F5F5F5F5F5F5F5F5F5F5F5F5F5F5F5F5F5F5F5F5F5F5F5F5F5F5F5F5F5F5F5F5F5F5F5E2F5F5F5F5F5F5F5F5F5F5F5F5F5F5F5F5F5F5F5F5E2E2EFF5F5F5F5F5F5F5F5F5F5F5F5F5F5F5F5F5F5F5F5E2F5F5F5F5F5F5F5F5F5F5F5F5F5F5F5F5F5F5F5F5F5F5F5F5F5F5F5F5F5F5F5F5F5F5F5F5F5F5F5F5F5F5F5F5
310
F5F5F5F5F5F5F5F5F5F5F5F5F5F5F5F5F5F5F5F5F5F5F5F5F5F5F5F5F5F5F5F5F5F5F5F5F5F5F5F5F5F5F5F5F5F5F5F5F5F5F5F5F5F5F5F5F5F5F5F5F5F5F5F5F5F5F5F5F5F5F5F5F5F5F5F5F5F5F5F5F5F5F5F5F5F5F5F5F5F5F5E2F5F5F5F5F5F5F5F5F5F5F5F5F5F5F5F5F5F5F5F5E2E2EFF5F5F5F5F5F5F5F5F5F5F5F5
310
F5F5F5F5F5F5F5F5E2F5F5F5F5F5F5F5F5F5F5F5F5F5F5F5F5F5F5F5F5F5F5F5F5F5F5F5F5F5F5F5F5F5F5F5F5F5F5F5F5F5F5F5F5F5F5F5F5F5F5F5F5F5F5F5F5F5F5F5F5F5F5F5F5F5F5F5F5F5F5F5F5F5F5F5F5F5F5F5F5F5F5F5F5F5F5F5F5F5F5F5F5F5F5F5F5F5F5F5F5F5F5F5F5F5F5F5F5F5F5F5F5F5F5F5F5F5F5
310
F5F5F5F5F5F5F5F5F5F5F5F5F5F5F5F5F5E2F5F5F5F5F5F5F5F5F5F5F5F5F5F5F5F5F5F5F5F5E2E2EFF5F5F5F5F5F5F5F5F5F5F5F5F5F5F5F5F5F5F5F5E2F5F5F5F5F5F5F5F5F5F5F5F5F5F5F5F5F5F5F5F5F5F5F5F5F5F5F5F5F5F5F5F5F5F5F5F5F5F5F5F5F5F5F5F5F5F5F5F5F5F5F5F5F5F5F5F5F5F5F5F5F5F5F5F5F5
310
F5F5F5F5F5F5F5F5F5F5F5F5F5F5F5F5F5F5F5F5F5F5F5F5F5F5F5F5F5F5F5F5F5F5F5F5F5F5F5F5F5F5F5F5F5F5F5F5F5F5F5F5F5F5F5F5F5F5F5F5F5F5F5F5F5F5F5F5F5F5E2F5F5F5F5F5F5F5F5F5F5F5F5F5F5F5F5F5F5F5F5E2E2EFF5F5F5F5F5F5F5F5F5F5F5F5F5F5F5F5F5F5F5F5E2F5F5F5F5F5F5F5F5F5F5F5F5
310
F5F5F5F5F5F5F5F5F5F5F5F5F5F5F5F5F5F5F5F5F5F5F5F5F5F5F5F5F5F5F5F5F5F5F5F5F5F5F5F5F5F5F5F5F5F5F5F5F5F5F5F5F5F5F5F5F5F5F5F5F5F5F5F5F5F5F5F5F5F5F5F5F5F5F5F5F5F5F5F5F5F5F5F5F5F5F5F5F5F5F5F5F5F5F5F5F5F5F5F5F5F5F5F5F5F5F5F5F5F5F5F5F5F5F5F5F5F5F5F5F5F5F5E2F5F5F5
310
F5F5F5F5F5F5F5F5F5F5F5F5F5F5F5F5F5E2E2EFF5F5F5F5F5F5F5F5F5F5F5F5F5F5F5F5F5F5F5F5E2F5F5F5F5F5F5F5F5F5F5F5F5F5F5F5F5F5F5F5F5F5F5F5F5F5F5F5F5F5F5F5F5F5F5F5F5F5F5F5F5F5F5F5F5F5F5F5F5F5F5F5F5F5F5F5F5F5F5F5F5F5F5F5F5F5F5F5F5F5F5F5F5F5F5F5F5F5F5F5F5F5F5F5F5F5F5
310
F5F5F5F5F5F5F5F5F5F5F5F5F5F5F5F5F5F5F5F5F5F5F5F5F5F5F5F5F5F5F5F5F5F5F5F5F5F5F5F5F5F5F5F5F5F5F5F5F5E2F5F5F5F5F5F5F5F5F5F5F5F5F5F5F5F5F5F5F5F5E2E2EFF5F5F5F5F5F5F5F5F5F5F5F5F5F5F5F5F5F5F5F5E2F5F5F5F5F5F5F5F5F5F5F5F5F5F5F5F5F5F5F5F5F5F5F5F5F5F5F5F5F5F5F5F5F5
310
F5F5F5F5F5F5F5F5F5F5F5F5F5F5F5F5F5F5F5F5F5F5F5F5F5F5F5F5F5F5F5F5F5F5F5F5F5F5F5F5F5F5F5F5F5F5F5F5F5F5F5F5F5F5F5F5F5F5F5F5F5F5F5F5F5F5F5F5F5F5F5F5F5F5F5F5F5F5F5F5F5F5F5F5F5F5F5F5F5F5F5F5F5F5F5F5F5F5F5F5F5F5E2F5F5F5F5F5F5F5F5F5F5F5F5F5F5F5F5F5F5F5F5E2E2EFF5
310
F5F5F5F5F5F5F5F5F5F5F5F5F5F5F5F5F5F5F5E2F5F5F5F5F5F5F5F5F5F5F5F5F5F5F5F5F5F5F5F5F5F5F5F5F5F5F5F5F5F5F5F5F5F5F5F5F5F5F5F5F5F5F5F5F5F5F5F5F5F5F5F5F5F5F5F5F5F5F5F5F5F5F5F5F5F5F5F5F5F5F5F5F5F5F5F5F5F5F5F5F5F5F5F5F5F5F5F5F5F5F5F5F5F5F5F5F5F5F5F5F5F5F5F5F5F5F5
310
F5F5F5F5F5F5F5F5F5F5F5F5F5F5F5F5F5F5F5F5F5F5F5F5F5F5F5F5E2F5F5F5F5F5F5F5F5F5F5F5F5F5F5F5F5F5F5F5F5E2E2EFF5F5F5E2F5F5F5F5F5F5F5F5F5F5F5F5F5F5F5F5E2F5F5F5F5F5F5F5F5F5F5F5F5F5F5F5F5F5F5F5F5F5F5F5F5F5F5F5F5F5F5F5F5F5F5F5F5F5F5F5F5F5F5F5F5F5F5F5F5F5F5F5F5F5F5
310
F5F5F5F5F5F5F5F5F5F5F5F5F5F5F5F5F5F5F5F5F5F5F5F5F5F5F5F5F5F5F5F5F5F5F5F5F5F5F5F5F5F5F5F5F5F5F5F5F5F5F5F5F5F5F5F5F5F5F5F5F5F5F5F5F5F5F5F5F5F5F5F5F5F5F5F5F5F5F5F5F5E2F5F5F5F5F5F5F5F5F5F5F5F5F5F5F5F5E2F5F5F5E2E2EFF5F5F5E2F5F5F5F5F5F5F5F5F5F5F5F5F5F5F5F5E2F5
310
F5F5F5F5F5F5F5F5F5F5F5F5F5F5F5F5F5F5F5F5F5F5F5F5F5F5F5F5F5F5F5F5F5F5F5F5F5F5F5F5F5F5F5F5F5F5F5F5F5F5F5F5F5F5F5F5F5F5F5F5F5F5F5F5F5F5F5F5F5F5F5F5F5F5F5F5F5F5F5F5F5F5F5F5F5F5F5F5F5F5F5F5F5F5F5F5F5F5F5F5F5F5F5F5F5F5F5F5F5F5F5F5F5F5F5F5F5F5F5F5F5F5F5F5F5F5F5
310
F5F5F5F5F5F5F5E2F5F5F5F5F5F5F5F5F5F5F5F5F5F5F5F5E2F5F5F5E2E2EFF5F5F5E2F5F5F5F5F5F5F5F5F5F5F5F5F5F5F5F5E2F5F5F5F5F5F5F5F5F5F5F5F5F5F5F5F5F5F5F5F5F5F5F5F5F5F5F5F5F5F5F5F5F5F5F5F5F5F5F5F5F5F5F5F5F5F5F5F5F5F5F5F5F5F5F5F5F5F5F5F5F5F5F5F5F5F5F5F5F5F5F5F5F5F5F5
310
F5F5F5F5F5F5F5F5F5F5F5F5F5F5F5F5F5F5F5F5F5F5F5F5F5F5F5F5F5F5F5F5F5F5F5F5F5F5F5F5F5F5F5F5F5F5F5F5F5F5F5F5F5F5F5F5F5F5F5F5E2F5F5F5F5F5F5F5F5F5F5F5F5F5F5F5F5E2F5F5F5E2E2EFF5F5F5E2F5F5F5F5F5F5F5F5F5F5F5F5F5F5F5F5E2F5F5F5F5F5F5F5F5F5F5F5F5F5F5F5F5F5F5F5F5F5F5
310
F5F5F5F5F5F5F5F5F5F5F5F5F5F5F5F5F5F5F5F5F5F5F5F5F5F5F5F5F5F5F5F5F5F5F5F5F5F5F5F5F5F5F5F5F5F5F5F5F5F5F5F5F5F5F5F5F5F5F5F5F5F5F5F5F5F5F5F5F5F5F5F5F5F5F5F5F5F5F5F5F5F5F5F5F5F5F5F5F5F5F5F5F5F5F5F5F5F5F5F5F5F5F5F5F5F5F5F5F5F5F5F5F5E2F5F5F5F5F5F5F5F5F5F5F5F5F5
310
F5F5F5E2F5F5F5E2E2EFF5F5F5E2F5F5F5F5F5F5F5F5F5F5F5F5F5F5F5F5E2F5F5F5F5F5F5F5F5F5F5F5F5F5F5F5F5F5F5F5F5F5F5F5F5F5F5F5F5F5F5F5F5F5F5F5F5F5F5F5F5F5F5F5F5F5F5F5F5F5F5F5F5F5F5F5F5F5F5F5F5F5F5F5F5F5F5F5F5F5F5F5F5F5F5F5F5F5F5F5F5F5F5F5F5F5F5F5F5F5F5F5F5F5F5F5F5
310
F5F5F5F5F5F5F5F5F5F5F5F5F5F5F5F5F5F5F5F5F5F5F5F5F5F5F5F5F5F5F5F5F5F5F5F5F5F5F5E2F5F5F5F5F5F5F5F5F5F5F5F5F5F5F5F5E2F5F5F5E2E2EFF5F5F5E2F5F5F5F5F5F5F5F5F5F5F5F5F5F5F5F5E2F5F5F5F5F5F5F5F5F5F5F5F5F5F5F5F5F5F5F5F5F5F5F5F5F5F5F5F5F5F5F5F5F5F5F5F5F5F5F5F5F5F5F5
310
F5F5F5F5F5F5F5F5F5F5F5F5F5F5F5F5F5F5F5F5F5F5F5F5F5F5F5F5F5F5F5F5F5F5F5F5F5F5F5F5F5F5F5F5F5F5F5F5F5F5F5F5F5F5F5F5F5F5F5F5F5F5F5F5F5F5F5F5F5F5F5F5F5F5F5F5F5F5F5F5F5F5F5F5F5F5F5F5F5F5F5F5E2F5F5F5F5F5F5F5F5F5F5F5F5F5F5F5F5E2F5F5F5E2E2EFF5F5F5E2F5F5F5F5F5F5F5
310
F5F5F5F5F5F5F5F5F5E2F5F5F5F5F5F5F5F5F5F5F5F5F5F5F5F5F5F5F5F5F5F5F5F5F5F5F5F5F5F5F5F5F5F5F5F5F5F5F5F5F5F5F5F5F5F5F5F5F5F5F5F5F5F5F5F5F5F5F5F5F5F5F5F5F5F5F5F5F5F5F5F5F5F5F5F5F5F5F5F5F5F5F5F5F5F5F5F5F5F5F5F5F5F5F5F5F5F5F5F5F5F5F5F5F5F5F5F5F5F5F5F5F5F5F5F5F5
310
F5F5F5F5F5F5F5F5F5F5F5F5F5F5F5F5F5F5E2F5F5F5F5F5F5F5F5F5F5F5F5F5F5F5F5E2F5F5F5E2E2EFF5F5F5E2F5F5F5F5F5F5F5F5F5F5F5F5F5F5F5F5E2F5F5F5F5F5F5F5F5F5F5F5F5F5F5F5F5F5F5F5F5F5F5F5F5F5F5F5F5F5F5F5F5F5F5F5F5F5F5F5F5F5F5F5F5F5F5F5F5F5F5F5F5F5F5F5F5F5F5F5F5F5F5F5F5
310
F5F5F5F5F5F5F5F5F5F5F5F5F5F5F5F5F5F5F5F5F5F5F5F5F5F5F5F5F5F5F5F5F5F5F5F5F5F5F5F5F5F5F5F5F5F5F5F5F5F5F5F5F5F5F5F5F5F5F5F5F5F5F5F5F5F5F5F5F5F5F5E2F5F5F5F5F5F5F5F5F5F5F5F5F5F5F5F5E2F5F5F5E2E2EFF5F5F5E2F5F5F5F5F5F5F5F5F5F5F5F5F5F5F5F5E2F5F5F5F5F5F5F5F5F5F5F5
310
F5F5F5F5F5F5F5F5F5F5F5F5F5F5F5F5F5F5F5F5F5F5F5F5F5F5F5F5F5F5F5F5F5F5F5F5F5F5F5F5F5F5F5F5F5F5F5F5F5F5F5F5F5F5F5F5F5F5F5F5F5F5F5F5F5F5F5F5F5F5F5F5F5F5F5F5F5F5F5F5F5F5F5F5F5F5F5F5F5F5F5F5F5F5F5F5F5F5F5F5F5F5F5F5F5F5F5F5F5F5F5F5F5F5F5F5F5F5F5F5F5F5F5F5E2F5F5
310
F5F5F5F5F5F5F5F5F5F5F5F5F5F5E2F5F5F5E2E2EFF5F5F5E2F5F5F5F5F5F5F5F5F5F5F5F5F5F5F5F5E2F5F5F5F5F5F5F5F5F5F5F5F5F5F5F5F5F5F5F5F5F5F5F5F5F5F5F5F5F5F5F5F5F5F5F5F5F5F5F5F5F5F5F5F5F5F5F5F5F5F5F5F5F5F5F5F5F5F5F5F5F5F5F5F5F5F5F5F5F5F5F5F5F5F5F5F5F5F5F5F5F5F5F5F5F5
310
F5F5F5F5F5F5F5F5F5F5F5F5F5F5F5F5F5F5F5F5F5F5F5F5F5F5F5F5F5F5F5F5F5F5F5F5F5F5F5F5F5F5F5F5F5F5F5F5F5F5E2F5F5F5F5F5F5F5F5F5F5F5F5F5F5F5F5E2F5F5F5E2E2EFF5F5F5E2F5F5F5F5F5F5F5F5F5F5F5F5F5F5F5F5E2F5F5F5F5F5F5F5F5F5F5F5F5F5F5F5F5F5F5F5F5F5F5F5F5F5F5F5F5F5F5F5F5
310
F5F5F5F5F5F5F5F5F5F5F5F5F5F5F5F5F5F5F5F5F5F5F5F5F5F5F5F5F5F5F5F5F5F5F5F5F5F5F5F5F5F5F5F5F5F5F5F5F5F5F5F5F5F5F5F5F5F5F5F5F5F5F5F5F5F5F5F5F5F5F5F5F5F5F5F5F5F5F5F5F5F5F5F5F5F5F5F5F5F5F5F5F5F5F5F5F5F5F5F5F5F5F5E2F5F5F5F5F5F5F5F5F5F5F5F5F5F5F5F5E2F5F5F5E2E2EF
310
F5F5F5E2F5F5F5F5F5F5F5F5F5F5F5F5F5F5F5F5E2F5F5F5F5F5F5F5F5F5F5F5F5F5F5F5F5F5F5F5F5F5F5F5F5F5F5F5F5F5F5F5F5F5F5F5F5F5F5F5F5F5F5F5F5F5F5F5F5F5F5F5F5F5F5F5F5F5F5F5F5F5F5F5F5F5F5F5F5F5F5F5F5F5F5F5F5F5F5F5F5F5F5F5F5F5F5F5F5F5F5F5F5F5F5F5F5F5F5F5F5F5F5F5F5F5F5
310
F5F5F5F5F5F5F5F5F5F5F5F5F5F5F5F5F5F5F5F5F5F5F5F5F5F5F5F5F5E2F5F5F5F5F5F5F5F5F5F5F5F5F5F5F5F5E2F5F5F5E2E2EFF5F5F5E2F5F5F5F5F5F5F5F5F5F5F5F5F5F5F5F5E2F5F5F5F5F5F5F5F5F5F5F5F5F5F5F5F5F5F5F5F5F5F5F5F5F5F5F5F5F5F5F5F5F5F5F5F5F5F5F5F5F5F5F5F5F5F5F5F5F5F5F5F5F5
310
F5F5F5F5F5F5F5F5F5F5F5F5F5F5F5F5F5F5F5F5F5F5F5F5F5F5F5F5F5F5F5F5F5F5F5F5F5F5F5F5F5F5F5F5F5F5F5F5F5F5F5F5F5F5F5F5F5F5F5F5F5F5F5F5F5F5F5F5F5F5F5F5F5F5F5F5F5F5F5F5F5F5E2F5F5F5F5F5F5F5F5F5F5F5F5F5F5F5F5E2F5F5F5E2E2EFF5F5F5E2F5F5F5F5F5F5F5F5F5F5F5F5F5F5F5F5E2
310
F5F5F5F5F5F5F5F5F5F5F5F5F5F5F5F5F5F5F5F5F5F5F5F5F5F5F5F5F5F5F5F5F5F5F5F5F5F5F5F5F5F5F5F5F5F5F5F5F5F5F5F5F5F5F5F5F5F5F5F5F5F5F5F5F5F5F5F5F5F5F5F5F5F5F5F5F5F5F5F5F5F5F5F5F5F5F5F5F5F5F5F5F5F5F5F5F5F5F5F5F5F5F5F5F5F5F5F5F5F5F5F5F5F5F5F5F5F5F5F5F5F5F5F5F5F5F5
310
F5F5F5F5F5F5F5F5E2F5F5F5F5F5F5F5F5F5F5F5F5F5F5F5F5E2F5F5F5E2E2EFF5F5F5E2F5F5F5F5F5F5F5F5F5F5F5F5F5F5F5F5E2F5F5F5F5F5F5F5F5F5F5F5F5F5F5F5F5F5F5F5F5F5F5F5F5F5F5F5F5F5F5F5F5F5F5F5F5F5F5F5F5F5F5F5F5F5F5F5F5F5F5F5F5F5F5F5F5F5F5F5F5F5F5F5F5F5F5F5F5F5F5F5F5F5F5
310
F5F5F5F5F5F5F5F5F5F5F5F5F5F5F5F5F5F5F5F5F5F5F5F5F5F5F5F5F5F5F5F5F5F5F5F5F5F5F5F5F5F5F5F5F5F5F5F5F5F5F5F5F5F5F5F5F5F5F5F5F5E2F5F5F5F5F5F5F5F5F5F5F5F5F5F5F5F5E2F5F5F5E2E2EFF5F5F5E2F5F5F5F5F5F5F5F5F5F5F5F5F5F5F5F5E2F5F5F5F5F5F5F5F5F5F5F5F5F5F5F5F5F5F5F5F5F5
310
F5F5F5F5F5F5F5F5F5F5F5F5F5F5F5F5F5F5F5F5F5F5F5F5F5F5F5F5F5F5F5F5F5F5F5F5F5F5F5F5F5F5F5F5F5F5F5F5F5F5F5F5F5F5F5F5F5F5F5F5F5F5F5F5F5F5F5F5F5F5F5F5F5F5F5F5F5F5F5F5F5F5F5F5F5F5F5F5F5F5F5F5F5F5F5F5F5F5F5F5F5F5F5F5F5F5F5F5F5F5F5F5F5F5E2F5F5F5F5F5F5F5F5F5F5F5F5
310
F5F5F5F5E2F5F5F5E2E2EFF5F5F5E2F5F5F5F5F5F5F5F5F5F5F5F5F5F5F5F5E2F5F5F5F5F5F5F5F5F5F5F5F5F5F5F5F5F5F5F5F5F5F5F5F5F5F5F5F5F5F5F5F5F5F5F5F5F5F5F5F5F5F5F5F5F5F5F5F5F5F5F5F5F5F5F5F5F5F5F5F5F5F5F5F5F5F5F5F5F5F5F5F5F5F5F5F5F5F5F5F5F5F5F5F5F5F5F5F5F5F5F5F5F5F5F5
310
F5F5F5F5F5F5F5F5F5F5F5F5F5F5F5F5F5F5F5F5F5F5F5F5F5F5F5F5F5F5F5F5F5F5F5F5F5F5F5F5E2F5F5F5F5F5F5F5F5F5F5F5F5F5F5F5F5E2F5F5F5E2E2EFF5F5F5F5F5F5F5F5F5F5F5F5F5F5F5F5F5F5F5F5E2F5F5F5F5F5F5F5F5F5F5F5F5F5F5F5F5F5F5F5F5F5F5F5F5F5F5F5F5F5F5F5F5F5F5F5F5F5F5F5F5F5F5
310
F5F5F5F5F5F5F5F5F5F5F5F5F5F5F5F5F5F5F5F5F5F5F5F5F5F5F5F5F5F5F5F5F5F5F5F5F5F5F5F5F5F5F5F5F5F5F5F5F5F5F5F5F5F5F5F5F5F5F5F5F5F5F5F5F5F5F5F5F5F5F5F5F5F5F5F5F5F5F5F5F5F5F5F5F5F5F5F5F5F5F5F5F5E2F5F5F5F5F5F5F5F5F5F5F5F5F5F5F5F5F5F5F5F5E2E2EFF5F5F5F5F5F5F5F5F5F5
310
F5F5F5F5F5F5F5F5F5F5E2F5F5F5F5F5F5F5F5F5F5F5F5F5F5F5F5F5F5F5F5F5F5F5F5F5F5F5F5F5F5F5F5F5F5F5F5F5F5F5F5F5F5F5F5F5F5F5F5F5F5F5F5F5F5F5F5F5F5F5F5F5F5F5F5F5F5F5F5F5F5F5F5F5F5F5F5F5F5F5F5F5F5F5F5F5F5F5F5F5F5F5F5F5F5F5F5F5F5F5F5F5F5F5F5F5F5F5F5F5F5F5F5F5F5F5F5
310
F5F5F5F5F5F5F5F5F5F5F5F5F5F5F5F5F5F5F5E2F5F5F5F5F5F5F5F5F5F5F5F5F5F5F5F5F5F5F5F5E2E2EFF5F5F5F5F5F5F5F5F5F5F5F5F5F5F5F5F5F5F5F5E2F5F5F5F5F5F5F5F5F5F5F5F5F5F5F5F5F5F5F5F5F5F5F5F5F5F5F5F5F5F5F5F5F5F5F5F5F5F5F5F5F5F5F5F5F5F5F5F5F5F5F5F5F5F5F5F5F5F5F5F5F5F5F5
310
F5F5F5F5F5F5F5F5F5F5F5F5F5F5F5F5F5F5F5F5F5F5F5F5F5F5F5F5F5F5F5F5F5F5F5F5F5F5F5F5F5F5F5F5F5F5F5F5F5F5F5F5F5F5F5F5F5F5F5F5F5F5F5F5F5F5F5F5F5F5F5F5E2F5F5F5F5F5F5F5F5F5F5F5F5F5F5F5F5F5F5F5F5E2E2EFF5F5F5F5F5F5F5F5F5F5F5F5F5F5F5F5F5F5F5F5E2F5F5F5F5F5F5F5F5F5F5
310
F5F5F5F5F5F5F5F5F5F5F5F5F5F5F5F5F5F5F5F5F5F5F5F5F5F5F5F5F5F5F5F5F5F5F5F5F5F5F5F5F5F5F5F5F5F5F5F5F5F5F5F5F5F5F5F5F5F5F5F5F5F5F5F5F5F5F5F5F5F5F5F5F5F5F5F5F5F5F5F5F5F5F5F5F5F5F5F5F5F5F5F5F5F5F5F5F5F5F5F5F5F5F5F5F5F5F5F5F5F5F5F5F5F5F5F5F5F5F5F5F5F5F5F5F5E2F5
310
F5F5F5F5F5F5F5F5F5F5F5F5F5F5F5F5F5F5F5E2E2EFF5F5F5F5F5F5F5F5F5F5F5F5F5F5F5F5F5F5F5F5E2F5F5F5F5F5F5F5F5F5F5F5F5F5F5F5F5F5F5F5F5F5F5F5F5F5F5F5F5F5F5F5F5F5F5F5F5F5F5F5F5F5F5F5F5F5F5F5F5F5F5F5F5F5F5F5F5F5F5F5F5F5F5F5F5F5F5F5F5F5F5F5F5F5F5F5F5F5F5F5F5F5F5F5F5
310
F5F5F5F5F5F5F5F5F5F5F5F5F5F5F5F5F5F5F5F5F5F5F5F5F5F5F5F5F5F5F5F5F5F5F5F5F5F5F5F5F5F5F5F5F5F5F5F5F5F5F5E2F5F5F5F5F5F5F5F5F5F5F5F5F5F5F5F5F5F5F5F5E2E2EFF5F5F5F5F5F5F5F5F5F5F5F5F5F5F5F5F5F5F5F5E2F5F5F5F5F5F5F5F5F5F5F5F5F5F5F5F5F5F5F5F5F5F5F5F5F5F5F5F5F5F5F5
310
F5F5F5F5F5F5F5F5F5F5F5F5F5F5F5F5F5F5F5F5F5F5F5F5F5F5F5F5F5F5F5F5F5F5F5F5F5F5F5F5F5F5F5F5F5F5F5F5F5F5F5F5F5F5F5F5F5F5F5F5F5F5F5F5F5F5F5F5F5F5F5F5F5F5F5F5F5F5F5F5F5F5F5F5F5F5F5F5F5F5F5F5F5F5F5F5F5F5F5F5F5F5F5F5E2F5F5F5F5F5F5F5F5F5F5F5F5F5F5F5F5F5F5F5F5E2E2
310
EFF5F5F5F5F5F5F5F5F5F5F5F5F5F5F5F5F5F5F5F5E2F5F5F5F5F5F5F5F5F5F5F5F5F5F5F5F5F5F5F5F5F5F5F5F5F5F5F5F5F5F5F5F5F5F5F5F5F5F5F5F5F5F5F5F5F5F5F5F5F5F5F5F5F5F5F5F5F5F5F5F5F5F5F5F5F5F5F5F5F5F5F5F5F5F5F5F5F5F5F5F5F5F5F5F5F5F5F5F5F5F5F5F5F5F5F5F5F5F5F5F5F5F5F5F5F5
310
F5F5F5F5F5F5F5F5F5F5F5F5F5F5F5F5F5F5F5F5F5F5F5F5F5F5F5F5F5F5E2F5F5F5F5F5F5F5F5F5F5F5F5F5F5F5F5F5F5F5F5E2E2EFF5F5F5F5F5F5F5F5F5F5F5F5F5F5F5F5F5F5F5F5E2F5F5F5F5F5F5F5F5F5F5F5F5F5F5F5F5F5F5F5F5F5F5F5F5F5F5F5F5F5F5F5F5F5F5F5F5F5F5F5F5F5F5F5F5F5F5F5F5F5F5F5F5
310
F5F5F5F5F5F5F5F5F5F5F5F5F5F5F5F5F5F5F5F5F5F5F5F5F5F5F5F5F5F5F5F5F5F5F5F5F5F5F5F5F5F5F5F5F5F5F5F5F5F5F5F5F5F5F5F5F5F5F5F5F5F5F5F5F5F5F5F5F5F5F5F5F5F5F5F5F5F5F5F5F5F5F5E2F5F5F5F5F5F5F5F5F5F5F5F5F5F5F5F5F5F5F5F5E2E2EFF5F5F5F5F5F5F5F5F5F5F5F5F5F5F5F5F5F5F5F5
310
E2F5F5F5F5F5F5F5F5F5F5F5F5F5F5F5F5F5F5F5F5F5F5F5F5F5F5F5F5F5F5F5F5F5F5F5F5F5F5F5F5F5F5F5F5F5F5F5F5F5F5F5F5F5F5F5F5F5F5F5F5F5F5F5F5F5F5F5F5F5F5F5F5F5F5F5F5F5F5F5F5F5F5F5F5F5F5F5F5F5F5F5F5F5F5F5F5F5F5F5F5F5F5F5F5F5F5F5F5F5F5F5F5F5F5F5F5F5F5F5F5F5F5F5F5F5F5
310
F5F5F5F5F5F5F5F5F5E2F5F5F5F5F5F5F5F5F5F5F5F5F5F5F5F5F5F5F5F5E2E2EFF5F5F5E2F5F5F5F5F5F5F5F5F5F5F5F5F5F5F5F5E2F5F5F5F5F5F5F5F5F5F5F5F5F5F5F5F5F5F5F5F5F5F5F5F5F5F5F5F5F5F5F5F5F5F5F5F5F5F5F5F5F5F5F5F5F5F5F5F5F5F5F5F5F5F5F5F5F5F5F5F5F5F5F5F5F5F5F5F5F5F5F5F5F5
310
F5F5F5F5F5F5F5F5F5F5F5F5F5F5F5F5F5F5F5F5F5F5F5F5F5F5F5F5F5F5F5F5F5F5F5F5F5F5F5F5F5F5F5F5F5F5F5F5F5F5F5F5F5F5F5F5F5F5F5F5F5F5E2F5F5F5F5F5F5F5F5F5F5F5F5F5F5F5F5E2F5F5F5E2E2EFF5F5F5E2F5F5F5F5F5F5F5F5F5F5F5F5F5F5F5F5E2F5F5F5F5F5F5F5F5F5F5F5F5F5F5F5F5F5F5F5F5
310
F5F5F5F5F5F5F5F5F5F5F5F5F5F5F5F5F5F5F5F5F5F5F5F5F5F5F5F5F5F5F5F5F5F5F5F5F5F5F5F5F5F5F5F5F5F5F5F5F5F5F5F5F5F5F5F5F5F5F5F5F5F5F5F5F5F5F5F5F5F5F5F5F5F5F5F5F5F5F5F5F5F5F5F5F5F5F5F5F5F5F5F5F5F5F5F5F5F5F5F5F5F5F5F5F5F5F5F5F5F5F5F5F5F5F5E2F5F5F5F5F5F5F5F5F5F5F5
310
F5F5F5F5F5E2F5F5F5E2E2EFF5F5F5E2F5F5F5F5F5F5F5F5F5F5F5F5F5F5F5F5E2F5F5F5F5F5F5F5F5F5F5F5F5F5F5F5F5F5F5F5F5F5F5F5F5F5F5F5F5F5F5F5F5F5F5F5F5F5F5F5F5F5F5F5F5F5F5F5F5F5F5F5F5F5F5F5F5F5F5F5F5F5F5F5F5F5F5F5F5F5F5F5F5F5F5F5F5F5F5F5F5F5F5F5F5F5F5F5F5F5F5F5F5F5F5
310
F5F5F5F5F5F5F5F5F5F5F5F5F5F5F5F5F5F5F5F5F5F5F5F5F5F5F5F5F5F5F5F5F5F5F5F5F5F5F5F5F5E2F5F5F5F5F5F5F5F5F5F5F5F5F5F5F5F5E2F5F5F5E2E2EFF5F5F5E2F5F5F5F5F5F5F5F5F5F5F5F5F5F5F5F5E2F5F5F5F5F5F5F5F5F5F5F5F5F5F5F5F5F5F5F5F5F5F5F5F5F5F5F5F5F5F5F5F5F5F5F5F5F5F5F5F5F5
310
F5F5F5F5F5F5F5F5F5F5F5F5F5F5F5F5F5F5F5F5F5F5F5F5F5F5F5F5F5F5F5F5F5F5F5F5F5F5F5F5F5F5F5F5F5F5F5F5F5F5F5F5F5F5F5F5F5F5F5F5F5F5F5F5F5F5F5F5F5F5F5F5F5F5F5F5F5F5F5F5F5F5F5F5F5F5F5F5F5F5F5F5F5F5E2F5F5F5F5F5F5F5F5F5F5F5F5F5F5F5F5E2F5F5F5E2E2EFF5F5F5E2F5F5F5F5F5
310
F5F5F5F5F5F5F5F5F5F5F5E2F5F5F5F5F5F5F5F5F5F5F5F5F5F5F5F5F5F5F5F5F5F5F5F5F5F5F5F5F5F5F5F5F5F5F5F5F5F5F5F5F5F5F5F5F5F5F5F5F5F5F5F5F5F5F5F5F5F5F5F5F5F5F5F5F5F5F5F5F5F5F5F5F5F5F5F5F5F5F5F5F5F5F5F5F5F5F5F5F5F5F5F5F5F5F5F5F5F5F5F5F5F5F5F5F5F5F5F5F5F5F5F5F5F5F5
310
F5F5F5F5F5F5F5F5F5F5F5F5F5F5F5F5F5F5F5F5E2F5F5F5F5F5F5F5F5F5F5F5F5F5F5F5F5E2F5F5F5E2E2EFF5F5F5E2F5F5F5F5F5F5F5F5F5F5F5F5F5F5F5F5E2F5F5F5F5F5F5F5F5F5F5F5F5F5F5F5F5F5F5F5F5F5F5F5F5F5F5F5F5F5F5F5F5F5F5F5F5F5F5F5F5F5F5F5F5F5F5F5F5F5F5F5F5F5F5F5F5F5F5F5F5F5F5
310
F5F5F5F5F5F5F5F5F5F5F5F5F5F5F5F5F5F5F5F5F5F5F5F5F5F5F5F5F5F5F5F5F5F5F5F5F5F5F5F5F5F5F5F5F5F5F5F5F5F5F5F5F5F5F5F5F5F5F5F5F5F5F5F5F5F5F5F5F5F5F5F5F5E2F5F5F5F5F5F5F5F5F5F5F5F5F5F5F5F5E2F5F5F5E2E2EFF5F5F5E2F5F5F5F5F5F5F5F5F5F5F5F5F5F5F5F5E2F5F5F5F5F5F5F5F5F5
310
F5F5F5F5F5F5F5F5F5F5F5F5F5F5F5F5F5F5F5F5F5F5F5F5F5F5F5F5F5F5F5F5F5F5F5F5F5F5F5F5F5F5F5F5F5F5F5F5F5F5F5F5F5F5F5F5F5F5F5F5F5F5F5F5F5F5F5F5F5F5F5F5F5F5F5F5F5F5F5F5F5F5F5F5F5F5F5F5F5F5F5F5F5F5F5F5F5F5F5F5F5F5F5F5F5F5F5F5F5F5F5F5F5F5F5F5F5F5F5F5F5F5F5F5F5F5E2
310
F5F5F5F5F5F5F5F5F5F5F5F5F5F5F5F5E2F5F5F5E2E2EFF5F5F5E2F5F5F5F5F5F5F5F5F5F5F5F5F5F5F5F5E2F5F5F5F5F5F5F5F5F5F5F5F5F5F5F5F5F5F5F5F5F5F5F5F5F5F5F5F5F5F5F5F5F5F5F5F5F5F5F5F5F5F5F5F5F5F5F5F5F5F5F5F5F5F5F5F5F5F5F5F5F5F5F5F5F5F5F5F5F5F5F5F5F5F5F5F5F5F5F5F5F5F5F5
310
F5F5F5F5F5F5F5F5F5F5F5F5F5F5F5F5F5F5F5F5F5F5F5F5F5F5F5F5F5F5F5F5F5F5F5F5F5F5F5F5F5F5F5F5F5F5F5F5F5F5F5F5E2F5F5F5F5F5F5F5F5F5F5F5F5F5F5F5F5E2F5F5F5E2E2EFF5F5F5E2F5F5F5F5F5F5F5F5F5F5F5F5F5F5F5F5E2F5F5F5F5F5F5F5F5F5F5F5F5F5F5F5F5F5F5F5F5F5F5F5F5F5F5F5F5F5F5
310
F5F5F5F5F5F5F5F5F5F5F5F5F5F5F5F5F5F5F5F5F5F5F5F5F5F5F5F5F5F5F5F5F5F5F5F5F5F5F5F5F5F5F5F5F5F5F5F5F5F5F5F5F5F5F5F5F5F5F5F5F5F5F5F5F5F5F5F5F5F5F5F5F5F5F5F5F5F5F5F5F5F5F5F5F5F5F5F5F5F5F5F5F5F5F5F5F5F5F5F5F5F5F5F5F5E2F5F5F5F5F5F5F5F5F5F5F5F5F5F5F5F5E2F5F5F5E2
310
E2EFF5F5F5E2F5F5F5F5F5F5F5F5F5F5F5F5F5F5F5F5E2F5F5F5F5F5F5F5F5F5F5F5F5F5F5F5F5F5F5F5F5F5F5F5F5F5F5F5F5F5F5F5F5F5F5F5F5F5F5F5F5F5F5F5F5F5F5F5F5F5F5F5F5F5F5F5F5F5F5F5F5F5F5F5F5F5F5F5F5F5F5F5F5F5F5F5F5F5F5F5F5F5F5F5F5F5F5F5F5F5F5F5F5F5F5F5F5F5F5F5F5F5F5F5F5
310
F5F5F5F5F5F5F5F5F5F5F5F5F5F5F5F5F5F5F5F5F5F5F5F5F5F5F5F5F5F5F5E2F5F5F5F5F5F5F5F5F5F5F5F5F5F5F5F5E2F5F5F5E2E2EFF5F5F5E2F5F5F5F5F5F5F5F5F5F5F5F5F5F5F5F5E2F5F5F5F5F5F5F5F5F5F5F5F5F5F5F5F5F5F5F5F5F5F5F5F5F5F5F5F5F5F5F5F5F5F5F5F5F5F5F5F5F5F5F5F5F5F5F5F5F5F5F5
310
F5F5F5F5F5F5F5F5F5F5F5F5F5F5F5F5F5F5F5F5F5F5F5F5F5F5F5F5F5F5F5F5F5F5F5F5F5F5F5F5F5F5F5F5F5F5F5F5F5F5F5F5F5F5F5F5F5F5F5F5F5F5F5F5F5F5F5F5F5F5F5F5F5F5F5F5F5F5F5F5F5F5F5F5E2F5F5F5F5F5F5F5F5F5F5F5F5F5F5F5F5E2F5F5F5E2E2EFF5F5F5E2F5F5F5F5F5F5F5F5F5F5F5F5F5F5F5
310
F5E2F5F5F5F5F5F5F5F5F5F5F5F5F5F5F5F5F5F5F5F5F5F5F5F5F5F5F5F5F5F5F5F5F5F5F5F5F5F5F5F5F5F5F5F5F5F5F5F5F5F5F5F5F5F5F5F5F5F5F5F5F5F5F5F5F5F5F5F5F5F5F5F5F5F5F5F5F5F5F5F5F5F5F5F5F5F5F5F5F5F5F5F5F5F5F5F5F5F5F5F5F5F5F5F5F5F5F5F5F5F5F5F5F5F5F5F5F5F5F5F5F5F5F5F5F5
310
F5F5F5F5F5F5F5F5F5F5E2F5F5F5F5F5F5F5F5F5F5F5F5F5F5F5F5E2F5F5F5E2E2EFF5F5F5E2F5F5F5F5F5F5F5F5F5F5F5F5F5F5F5F5E2F5F5F5F5F5F5F5F5F5F5F5F5F5F5F5F5F5F5F5F5F5F5F5F5F5F5F5F5F5F5F5F5F5F5F5F5F5F5F5F5F5F5F5F5F5F5F5F5F5F5F5F5F5F5F5F5F5F5F5F5F5F5F5F5F5F5F5F5F5F5F5F5
310
F5F5F5F5F5F5F5F5F5F5F5F5F5F5F5F5F5F5F5F5F5F5F5F5F5F5F5F5F5F5F5F5F5F5F5F5F5F5F5F5F5F5F5F5F5F5F5F5F5F5F5F5F5F5F5F5F5F5F5F5F5F5F5E2F5F5F5F5F5F5F5F5F5F5F5F5F5F5F5F5E2F5F5F5E2E2EFF5F5F5E2F5F5F5F5F5F5F5F5F5F5F5F5F5F5F5F5E2F5F5F5F5F5F5F5F5F5F5F5F5F5F5F5F5F5F5F5
310
F5F5F5F5F5F5F5F5F5F5F5F5F5F5F5F5F5F5F5F5F5F5F5F5F5F5F5F5F5F5F5F5F5F5F5F5F5F5F5F5F5F5F5F5F5F5F5F5F5F5F5F5F5F5F5F5F5F5F5F5F5F5F5F5F5F5F5F5F5F5F5F5F5F5F5F5F5F5F5F5F5F5F5F5F5F5F5F5F5F5F5F5F5F5F5F5F5F5F5F5F5F5F5F5F5F5F5F5F5F5F5F5F5F5F5F5E2F5F5F5F5F5F5F5F5F5F5
310
F5F5F5F5F5F5E2F5F5F5E2E2EFF5F5F5E2F5F5F5F5F5F5F5F5F5F5F5F5F5F5F5F5E2F5F5F5F5F5F5F5F5F5F5F5F5F5F5F5F5F5F5F5F5F5F5F5F5F5F5F5F5F5F5F5F5F5F5F5F5F5F5F5F5F5F5F5F5F5F5F5F5F5F5F5F5F5F5F5F5F5F5F5F5F5F5F5F5F5F5F5F5F5F5F5F5F5F5F5F5F5F5F5F5F5F5F5F5F5F5F5F5F5F5F5F5F5
310
F5F5F5F5F5F5F5F5F5F5F5F5F5F5F5F5F5F5F5F5F5F5F5F5F5F5F5F5F5F5F5F5F5F5F5F5F5F5F5F5F5F5E2F5F5F5F5F5F5F5F5F5F5F5F5F5F5F5F5E2F5F5F5E2E2EFF5F5F5E2F5F5F5F5F5F5F5F5F5F5F5F5F5F5F5F5E2F5F5F5F5F5F5F5F5F5F5F5F5F5F5F5F5F5F5F5F5F5F5F5F5F5F5F5F5F5F5F5F5F5F5F5F5F5F5F5F5
310
F5F5F5F5F5F5F5F5F5F5F5F5F5F5F5F5F5F5F5F5F5F5F5F5F5F5F5F5F5F5F5F5F5F5F5F5F5F5F5F5F5F5F5F5F5F5F5F5F5F5F5F5F5F5F5F5F5F5F5F5F5F5F5F5F5F5F5F5F5F5F5F5F5F5F5F5F5F5F5F5F5F5F5F5F5F5F5F5F5F5F5F5F5F5F5E2F5F5F5F5F5F5F5F5F5F5F5F5F5F5F5F5E2F5F5F5E2E2EFF5F5F5E2F5F5F5F5
310
F5F5F5F5F5F5F5F5F5F5F5F5E2F5F5F5F5F5F5F5F5F5F5F5F5F5F5F5F5F5F5F5F5F5F5F5F5F5F5F5F5F5F5F5F5F5F5F5F5F5F5F5F5F5F5F5F5F5F5F5F5F5F5F5F5F5F5F5F5F5F5F5F5F5F5F5F5F5F5F5F5F5F5F5F5F5F5F5F5F5F5F5F5F5F5F5F5F5F5F5F5F5F5F5F5F5F5F5F5F5F5F5F5F5F5F5F5F5F5F5F5F5F5F5F5F5F5
310
F5F5F5F5F5F5F5F5F5F5F5F5F5F5F5F5F5F5F5F5F5E2F5F5F5F5F5F5F5F5F5F5F5F5F5F5F5F5E2F5F5F5E2E2EFF5F5F5F5F5F5F5F5F5F5F5F5F5F5F5F5F5F5F5F5E2F5F5F5F5F5F5F5F5F5F5F5F5F5F5F5F5F5F5F5F5F5F5F5F5F5F5F5F5F5F5F5F5F5F5F5F5F5F5F5F5F5F5F5F5F5F5F5F5F5F5F5F5F5F5F5F5F5F5F5F5F5
310
F5F5F5F5F5F5F5F5F5F5F5F5F5F5F5F5F5F5F5F5F5F5F5F5F5F5F5F5F5F5F5F5F5F5F5F5F5F5F5F5F5F5F5F5F5F5F5F5F5F5F5F5F5F5F5F5F5F5F5F5F5F5F5F5F5F5F5F5F5F5F5F5F5F5E2F5F5F5F5F5F5F5F5F5F5F5F5F5F5F5F5F5F5F5F5E2E2EFF5F5F5F5F5F5F5F5F5F5F5F5F5F5F5F5F5F5F5F5E2F5F5F5F5F5F5F5F5
310
F5F5F5F5F5F5F5F5F5F5F5F5F5F5F5F5F5F5F5F5F5F5F5F5F5F5F5F5F5F5F5F5F5F5F5F5F5F5F5F5F5F5F5F5F5F5F5F5F5F5F5F5F5F5F5F5F5F5F5F5F5F5F5F5F5F5F5F5F5F5F5F5F5F5F5F5F5F5F5F5F5F5F5F5F5F5F5F5F5F5F5F5F5F5F5F5F5F5F5F5F5F5F5F5F5F5F5F5F5F5F5F5F5F5F5F5F5F5F5F5F5F5F5F5F5F5F5
310
E2F5F5F5F5F5F5F5F5F5F5F5F5F5F5F5F5F5F5F5F5E2E2EFF5F5F5F5F5F5F5F5F5F5F5F5F5F5F5F5F5F5F5F5E2F5F5F5F5F5F5F5F5F5F5F5F5F5F5F5F5F5F5F5F5F5F5F5F5F5F5F5F5F5F5F5F5F5F5F5F5F5F5F5F5F5F5F5F5F5F5F5F5F5F5F5F5F5F5F5F5F5F5F5F5F5F5F5F5F5F5F5F5F5F5F5F5F5F5F5F5F5F5F5F5F5F5
310
F5F5F5F5F5F5F5F5F5F5F5F5F5F5F5F5F5F5F5F5F5F5F5F5F5F5F5F5F5F5F5F5F5F5F5F5F5F5F5F5F5F5F5F5F5F5F5F5F5F5F5F5F5E2F5F5F5F5F5F5F5F5F5F5F5F5F5F5F5F5F5F5F5F5E2E2EFF5F5F5F5F5F5F5F5F5F5F5F5F5F5F5F5F5F5F5F5E2F5F5F5F5F5F5F5F5F5F5F5F5F5F5F5F5F5F5F5F5F5F5F5F5F5F5F5F5F5
310
F5F5F5F5F5F5F5F5F5F5F5F5F5F5F5F5F5F5F5F5F5F5F5F5F5F5F5F5F5F5F5F5F5F5F5F5F5F5F5F5F5F5F5F5F5F5F5F5F5F5F5F5F5F5F5F5F5F5F5F5F5F5F5F5F5F5F5F5F5F5F5F5F5F5F5F5F5F5F5F5F5F5F5F5F5F5F5F5F5F5F5F5F5F5F5F5F5F5F5F5F5F5F5F5F5F5E2F5F5F5F5F5F5F5F5F5F5F5F5F5F5F5F5F5F5F5F5
310
E2E2EFF5F5F5F5F5F5F5F5F5F5F5F5F5F5F5F5F5F5F5F5E2F5F5F5F5F5F5F5F5F5F5F5F5F5F5F5F5F5F5F5F5F5F5F5F5F5F5F5F5F5F5F5F5F5F5F5F5F5F5F5F5F5F5F5F5F5F5F5F5F5F5F5F5F5F5F5F5F5F5F5F5F5F5F5F5F5F5F5F5F5F5F5F5F5F5F5F5F5F5F5F5F5F5F5F5F5F5F5F5F5F5F5F5F5F5F5F5F5F5F5F5F5F5F5
310
F5F5F5F5F5F5F5F5F5F5F5F5F5F5F5F5F5F5F5F5F5F5F5F5F5F5F5F5F5F5F5F5E2F5F5F5F5F5F5F5F5F5F5F5F5F5F5F5F5F5F5F5F5E2E2EFF5F5F5F5F5F5F5F5F5F5F5F5F5F5F5F5F5F5F5F5E2F5F5F5F5F5F5F5F5F5F5F5F5F5F5F5F5F5F5F5F5F5F5F5F5F5F5F5F5F5F5F5F5F5F5F5F5F5F5F5F5F5F5F5F5F5F5F5F5F5F5
310
F5F5F5F5F5F5F5F5F5F5F5F5F5F5F5F5F5F5F5F5F5F5F5F5F5F5F5F5F5F5F5F5F5F5F5F5F5F5F5F5F5F5F5F5F5F5F5F5F5F5F5F5F5F5F5F5F5F5F5F5F5F5F5F5F5F5F5F5F5F5F5F5F5F5F5F5F5F5F5F5F5F5F5F5F5E2F5F5F5F5F5F5F5F5F5F5F5F5F5F5F5F5F5F5F5F5E2E2EFF5F5F5F5F5F5F5F5F5F5F5F5F5F5F5F5F5F5
310
F5F5E2F5F5F5F5F5F5F5F5F5F5F5F5F5F5F5F5F5F5F5F5F5F5F5F5F5F5F5F5F5F5F5F5F5F5F5F5F5F5F5F5F5F5F5F5F5F5F5F5F5F5F5F5F5F5F5F5F5F5F5F5F5F5F5F5F5F5F5F5F5F5F5F5F5F5F5F5F5F5F5F5F5F5F5F5F5F5F5F5F5F5F5F5F5F5F5F5F5F5F5F5F5F5F5F5F5F5F5F5F5F5F5F5F5F5F5F5F5F5F5F5F5F5F5F5
310
F5F5F5F5F5F5F5F5F5F5F5E2F5F5F5F5F5F5F5F5F5F5F5F5F5F5F5F5F5F5F5F5E2E2EFF5F5F5F5F5F5F5F5F5F5F5F5F5F5F5F5F5F5F5F5E2F5F5F5F5F5F5F5F5F5F5F5F5F5F5F5F5F5F5F5F5F5F5F5F5F5F5F5F5F5F5F5F5F5F5F5F5F5F5F5F5F5F5F5F5F5F5F5F5F5F5F5F5F5F5F5F5F5F5F5F5F5F5F5F5F5F5F5F5F5F5F5
310
F5F5F5F5F5F5F5F5F5F5F5F5F5F5F5F5F5F5F5F5F5F5F5F5F5F5F5F5F5F5F5F5F5F5F5F5F5F5F5F5F5F5F5F5F5F5F5F5F5F5F5F5F5F5F5F5F5F5F5F5F5F5F5F5E2F5F5F5F5F5F5F5F5F5F5F5F5F5F5F5F5F5F5F5F5E2E2EFF5F5F5F5F5F5F5F5F5F5F5F5F5F5F5F5F5F5F5F5E2F5F5F5F5F5F5F5F5F5F5F5F5F5F5F5F5F5F5
310
F5F5F5F5F5F5F5F5F5F5F5F5F5F5F5F5F5F5F5F5F5F5F5F5F5F5F5F5F5F5F5F5F5F5F5F5F5F5F5F5F5F5F5F5F5F5F5F5F5F5F5F5F5F5F5F5F5F5F5F5F5F5F5F5F5F5F5F5F5F5F5F5F5F5F5F5F5F5F5F5F5F5F5F5F5F5F5F5F5F5F5F5F5F5F5F5F5F5F5F5F5F5F5F5F5F5F5F5F5F5F5F5F5F5F5F5F5E2F5F5F5F5F5F5F5F5F5
310
F5F5F5F5F5F5F5F5F5F5F5E2E2EFF5F5F5E2F5F5F5F5F5F5F5F5F5F5F5F5F5F5F5F5E2F5F5F5F5F5F5F5F5F5F5F5F5F5F5F5F5F5F5F5F5F5F5F5F5F5F5F5F5F5F5F5F5F5F5F5F5F5F5F5F5F5F5F5F5F5F5F5F5F5F5F5F5F5F5F5F5F5F5F5F5F5F5F5F5F5F5F5F5F5F5F5F5F5F5F5F5F5F5F5F5F5F5F5F5F5F5F5F5F5F5F5F5
310
F5F5F5F5F5F5F5F5F5F5F5F5F5F5F5F5F5F5F5F5F5F5F5F5F5F5F5F5F5F5F5F5F5F5F5F5F5F5F5F5F5F5F5E2F5F5F5F5F5F5F5F5F5F5F5F5F5F5F5F5E2F5F5F5E2E2EFF5F5F5E2F5F5F5F5F5F5F5F5F5F5F5F5F5F5F5F5E2F5F5F5F5F5F5F5F5F5F5F5F5F5F5F5F5F5F5F5F5F5F5F5F5F5F5F5F5F5F5F5F5F5F5F5F5F5F5F5
310
F5F5F5F5F5F5F5F5F5F5F5F5F5F5F5F5F5F5F5F5F5F5F5F5F5F5F5F5F5F5F5F5F5F5F5F5F5F5F5F5F5F5F5F5F5F5F5F5F5F5F5F5F5F5F5F5F5F5F5F5F5F5F5F5F5F5F5F5F5F5F5F5F5F5F5F5F5F5F5F5F5F5F5F5F5F5F5F5F5F5F5F5F5F5F5F5E2F5F5F5F5F5F5F5F5F5F5F5F5F5F5F5F5E2F5F5F5E2E2EFF5F5F5E2F5F5F5
310
F5F5F5F5F5F5F5F5F5F5F5F5F5E2F5F5F5F5F5F5F5F5F5F5F5F5F5F5F5F5F5F5F5F5F5F5F5F5F5F5F5F5F5F5F5F5F5F5F5F5F5F5F5F5F5F5F5F5F5F5F5F5F5F5F5F5F5F5F5F5F5F5F5F5F5F5F5F5F5F5F5F5F5F5F5F5F5F5F5F5F5F5F5F5F5F5F5F5F5F5F5F5F5F5F5F5F5F5F5F5F5F5F5F5F5F5F5F5F5F5F5F5F5F5F5F5F5
310
F5F5F5F5F5F5F5F5F5F5F5F5F5F5F5F5F5F5F5F5F5F5E2F5F5F5F5F5F5F5F5F5F5F5F5F5F5F5F5E2F5F5F5E2E2EFF5F5F5E2F5F5F5F5F5F5F5F5F5F5F5F5F5F5F5F5E2F5F5F5F5F5F5F5F5F5F5F5F5F5F5F5F5F5F5F5F5F5F5F5F5F5F5F5F5F5F5F5F5F5F5F5F5F5F5F5F5F5F5F5F5F5F5F5F5F5F5F5F5F5F5F5F5F5F5F5F5
310
F5F5F5F5F5F5F5F5F5F5F5F5F5F5F5F5F5F5F5F5F5F5F5F5F5F5F5F5F5F5F5F5F5F5F5F5F5F5F5F5F5F5F5F5F5F5F5F5F5F5F5F5F5F5F5F5F5F5F5F5F5F5F5F5F5F5F5F5F5F5F5F5F5F5F5E2F5F5F5F5F5F5F5F5F5F5F5F5F5F5F5F5E2F5F5F5E2E2EFF5F5F5E2F5F5F5F5F5F5F5F5F5F5F5F5F5F5F5F5E2F5F5F5F5F5F5F5
310
F5F5F5F5F5F5F5F5F5F5F5F5F5F5F5F5F5F5F5F5F5F5F5F5F5F5F5F5F5F5F5F5F5F5F5F5F5F5F5F5F5F5F5F5F5F5F5F5F5F5F5F5F5F5F5F5F5F5F5F5F5F5F5F5F5F5F5F5F5F5F5F5F5F5F5F5F5F5F5F5F5F5F5F5F5F5F5F5F5F5F5F5F5F5F5F5F5F5F5F5F5F5F5F5F5F5F5F5F5F5F5F5F5F5F5F5F5F5F5F5F5F5F5F5F5F5F5
310
F5E2F5F5F5F5F5F5F5F5F5F5F5F5F5F5F5F5E2F5F5F5E2E2EFF5F5F5E2F5F5F5F5F5F5F5F5F5F5F5F5F5F5F5F5E2F5F5F5F5F5F5F5F5F5F5F5F5F5F5F5F5F5F5F5F5F5F5F5F5F5F5F5F5F5F5F5F5F5F5F5F5F5F5F5F5F5F5F5F5F5F5F5F5F5F5F5F5F5F5F5F5F5F5F5F5F5F5F5F5F5F5F5F5F5F5F5F5F5F5F5F5F5F5F5F5F5
310
F5F5F5F5F5F5F5F5F5F5F5F5F5F5F5F5F5F5F5F5F5F5F5F5F5F5F5F5F5F5F5F5F5F5F5F5F5F5F5F5F5F5F5F5F5F5F5F5F5F5F5F5F5F5E2F5F5F5F5F5F5F5F5F5F5F5F5F5F5F5F5E2F5F5F5E2E2EFF5F5F5E2F5F5F5F5F5F5F5F5F5F5F5F5F5F5F5F5E2F5F5F5F5F5F5F5F5F5F5F5F5F5F5F5F5F5F5F5F5F5F5F5F5F5F5F5F5
310
F5F5F5F5F5F5F5F5F5F5F5F5F5F5F5F5F5F5F5F5F5F5F5F5F5F5F5F5F5F5F5F5F5F5F5F5F5F5F5F5F5F5F5F5F5F5F5F5F5F5F5F5F5F5F5F5F5F5F5F5F5F5F5F5F5F5F5F5F5F5F5F5F5F5F5F5F5F5F5F5F5F5F5F5F5F5F5F5F5F5F5F5F5F5F5F5F5F5F5F5F5F5F5F5F5F5F5E2F5F5F5F5F5F5F5F5F5F5F5F5F5F5F5F5E2F5F5
310
F5E2E2EFF5F5F5E2F5F5F5F5F5F5F5F5F5F5F5F5F5F5F5F5E2F5F5F5F5F5F5F5F5F5F5F5F5F5F5F5F5F5F5F5F5F5F5F5F5F5F5F5F5F5F5F5F5F5F5F5F5F5F5F5F5F5F5F5F5F5F5F5F5F5F5F5F5F5F5F5F5F5F5F5F5F5F5F5F5F5F5F5F5F5F5F5F5F5F5F5F5F5F5F5F5F5F5F5F5F5F5F5F5F5F5F5F5F5F5F5F5F5F5F5F5F5F5
310
F5F5F5F5F5F5F5F5F5F5F5F5F5F5F5F5F5F5F5F5F5F5F5F5F5F5F5F5F5F5F5F5F5E2F5F5F5F5F5F5F5F5F5F5F5F5F5F5F5F5E2F5F5F5E2E2EFF5F5F5E2F5F5F5F5F5F5F5F5F5F5F5F5F5F5F5F5E2F5F5F5F5F5F5F5F5F5F5F5F5F5F5F5F5F5F5F5F5F5F5F5F5F5F5F5F5F5F5F5F5F5F5F5F5F5F5F5F5F5F5F5F5F5F5F5F5F5
310
F5F5F5F5F5F5F5F5F5F5F5F5F5F5F5F5F5F5F5F5F5F5F5F5F5F5F5F5F5F5F5F5F5F5F5F5F5F5F5F5F5F5F5F5F5F5F5F5F5F5F5F5F5F5F5F5F5F5F5F5F5F5F5F5F5F5F5F5F5F5F5F5F5F5F5F5F5F5F5F5F5F5F5F5F5F5E2F5F5F5F5F5F5F5F5F5F5F5F5F5F5F5F5E2F5F5F5E2E2EFF5F5F5E2F5F5F5F5F5F5F5F5F5F5F5F5F5
310
F5F5F5E2F5F5F5F5F5F5F5F5F5F5F5F5F5F5F5F5F5F5F5F5F5F5F5F5F5F5F5F5F5F5F5F5F5F5F5F5F5F5F5F5F5F5F5F5F5F5F5F5F5F5F5F5F5F5F5F5F5F5F5F5F5F5F5F5F5F5F5F5F5F5F5F5F5F5F5F5F5F5F5F5F5F5F5F5F5F5F5F5F5F5F5F5F5F5F5F5F5F5F5F5F5F5F5F5F5F5F5F5F5F5F5F5F5F5F5F5F5F5F5F5F5F5F5
310
F5F5F5F5F5F5F5F5F5F5F5F5E2F5F5F5F5F5F5F5F5F5F5F5F5F5F5F5F5E2F5F5F5E2E2EFF5F5F5E2F5F5F5F5F5F5F5F5F5F5F5F5F5F5F5F5E2F5F5F5F5F5F5F5F5F5F5F5F5F5F5F5F5F5F5F5F5F5F5F5F5F5F5F5F5F5F5F5F5F5F5F5F5F5F5F5F5F5F5F5F5F5F5F5F5F5F5F5F5F5F5F5F5F5F5F5F5F5F5F5F5F5F5F5F5F5F5
310
F5F5F5F5F5F5F5F5F5F5F5F5F5F5F5F5F5F5F5F5F5F5F5F5F5F5F5F5F5F5F5F5F5F5F5F5F5F5F5F5F5F5F5F5F5F5F5F5F5F5F5F5F5F5F5F5F5F5F5F5F5F5F5F5F5E2F5F5F5F5F5F5F5F5F5F5F5F5F5F5F5F5E2F5F5F5E2E2EFF5F5F5E2F5F5F5F5F5F5F5F5F5F5F5F5F5F5F5F5E2F5F5F5F5F5F5F5F5F5F5F5F5F5F5F5F5F5
310
F5F5F5F5F5F5F5F5F5F5F5F5F5F5F5F5F5F5F5F5F5F5F5F5F5F5F5F5F5F5F5F5F5F5F5F5F5F5F5F5F5F5F5F5F5F5F5F5F5F5F5F5F5F5F5F5F5F5F5F5F5F5F5F5F5F5F5F5F5F5F5F5F5F5F5F5F5F5F5F5F5F5F5F5F5F5F5F5F5F5F5F5F5F5F5F5F5F5F5F5F5F5F5F5F5F5F5F5F5F5F5F5F5F5F5F5F5F5E2F5F5F5F5F5F5F5F5
310
F5F5F5F5F5F5F5F5E2F5F5F5E2E2EFF5F5F5E2F5F5F5F5F5F5F5F5F5F5F5F5F5F5F5F5E2F5F5F5F5F5F5F5F5F5F5F5F5F5F5F5F5F5F5F5F5F5F5F5F5F5F5F5F5F5F5F5F5F5F5F5F5F5F5F5F5F5F5F5F5F5F5F5F5F5F5F5F5F5F5F5F5F5F5F5F5F5F5F5F5F5F5F5F5F5F5F5F5F5F5F5F5F5F5F5F5F5F5F5F5F5F5F5F5F5F5F5
310
F5F5F5F5F5F5F5F5F5F5F5F5F5F5F5F5F5F5F5F5F5F5F5F5F5F5F5F5F5F5F5F5F5F5F5F5F5F5F5F5F5F5F5F5E2F5F5F5F5F5F5F5F5F5F5F5F5F5F5F5F5E2F5F5F5E2E2EFF5F5F5E2F5F5F5F5F5F5F5F5F5F5F5F5F5F5F5F5E2F5F5F5F5F5F5F5F5F5F5F5F5F5F5F5F5F5F5F5F5F5F5F5F5F5F5F5F5F5F5F5F5F5F5F5F5F5F5
310
F5F5F5F5F5F5F5F5F5F5F5F5F5F5F5F5F5F5F5F5F5F5F5F5F5F5F5F5F5F5F5F5F5F5F5F5F5F5F5F5F5F5F5F5F5F5F5F5F5F5F5F5F5F5F5F5F5F5F5F5F5F5F5F5F5F5F5F5F5F5F5F5F5F5F5F5F5F5F5F5F5F5F5F5F5F5F5F5F5F5F5F5F5F5F5F5F5E2F5F5F5F5F5F5F5F5F5F5F5F5F5F5F5F5E2F5F5F5E2E2EFF5F5F5E2F5F5
310
F5F5F5F5F5F5F5F5F5F5F5F5F5F5E2F5F5F5F5F5F5F5F5F5F5F5F5F5F5F5F5F5F5F5F5F5F5F5F5F5F5F5F5F5F5F5F5F5F5F5F5F5F5F5F5F5F5F5F5F5F5F5F5F5F5F5F5F5F5F5F5F5F5F5F5F5F5F5F5F5F5F5F5F5F5F5F5F5F5F5F5F5F5F5F5F5F5F5F5F5F5F5F5F5F5F5F5F5F5F5F5F5F5F5F5F5F5F5F5F5F5F5F5F5F5F5F5
310
F5F5F5F5F5F5F5F5F5F5F5F5F5F5F5F5F5F5F5F5F5F5F5E2F5F5F5F5F5F5F5F5F5F5F5F5F5F5F5F5E2F5F5F5E2E2EFF5F5F5E2F5F5F5F5F5F5F5F5F5F5F5F5F5F5F5F5E2F5F5F5F5F5F5F5F5F5F5F5F5F5F5F5F5F5F5F5F5F5F5F5F5F5F5F5F5F5F5F5F5F5F5F5F5F5F5F5F5F5F5F5F5F5F5F5F5F5F5F5F5F5F5F5F5F5F5F5
310
F5F5F5F5F5F5F5F5F5F5F5F5F5F5F5F5F5F5F5F5F5F5F5F5F5F5F5F5F5F5F5F5F5F5F5F5F5F5F5F5F5F5F5F5F5F5F5F5F5F5F5F5F5F5F5F5F5F5F5F5F5F5F5F5F5F5F5F5F5F5F5F5F5F5F5F5E2F5F5F5F5F5F5F5F5F5F5F5F5F5F5F5F5E2F5F5F5E2E2EFF5F5F5E2F5F5F5F5F5F5F5F5F5F5F5F5F5F5F5F5E2F5F5F5F5F5F5
310
F5F5F5F5F5F5F5F5F5F5F5F5F5F5F5F5F5F5F5F5F5F5F5F5F5F5F5F5F5F5F5F5F5F5F5F5F5F5F5F5F5F5F5F5F5F5F5F5F5F5F5F5F5F5F5F5F5F5F5F5F5F5F5F5F5F5F5F5F5F5F5F5F5F5F5F5F5F5F5F5F5F5F5F5F5F5F5F5F5F5F5F5F5F5F5F5F5F5F5F5F5F5F5F5F5F5F5F5F5F5F5F5F5F5F5F5F5F5F5F5F5F5F5F5F5F5F5
310
F5F5E2F5F5F5F5F5F5F5F5F5F5F5F5F5F5F5F5E2F5F5F5E2E2EFF5F5F5F5F5F5F5F5F5F5F5F5F5F5F5F5F5F5F5F5E2F5F5F5F5F5F5F5F5F5F5F5F5F5F5F5F5F5F5F5F5F5F5F5F5F5F5F5F5F5F5F5F5F5F5F5F5F5F5F5F5F5F5F5F5F5F5F5F5F5F5F5F5F5F5F5F5F5F5F5F5F5F5F5F5F5F5F5F5F5F5F5F5F5F5F5F5F5F5F5F5
310
F5F5F5F5F5F5F5F5F5F5F5F5F5F5F5F5F5F5F5F5F5F5F5F5F5F5F5F5F5F5F5F5F5F5F5F5F5F5F5F5F5F5F5F5F5F5F5F5F5F5F5F5F5F5F5E2F5F5F5F5F5F5F5F5F5F5F5F5F5F5F5F5F5F5F5F5E2E2EFF5F5F5F5F5F5F5F5F5F5F5F5F5F5F5F5F5F5F5F5E2F5F5F5F5F5F5F5F5F5F5F5F5F5F5F5F5F5F5F5F5F5F5F5F5F5F5F5
310
F5F5F5F5F5F5F5F5F5F5F5F5F5F5F5F5F5F5F5F5F5F5F5F5F5F5F5F5F5F5F5F5F5F5F5F5F5F5F5F5F5F5F5F5F5F5F5F5F5F5F5F5F5F5F5F5F5F5F5F5F5F5F5F5F5F5F5F5F5F5F5F5F5F5F5F5F5F5F5F5F5F5F5F5F5F5F5F5F5F5F5F5F5F5F5F5F5F5F5F5F5F5F5F5F5F5F5F5E2F5F5F5F5F5F5F5F5F5F5F5F5F5F5F5F5F5F5
310
F5F5E2E2EFF5F5F5F5F5F5F5F5F5F5F5F5F5F5F5F5F5F5F5F5E2F5F5F5F5F5F5F5F5F5F5F5F5F5F5F5F5F5F5F5F5F5F5F5F5F5F5F5F5F5F5F5F5F5F5F5F5F5F5F5F5F5F5F5F5F5F5F5F5F5F5F5F5F5F5F5F5F5F5F5F5F5F5F5F5F5F5F5F5F5F5F5F5F5F5F5F5F5F5F5F5F5F5F5F5F5F5F5F5F5F5F5F5F5F5F5F5F5F5F5F5F5
310
F5F5F5F5F5F5F5F5F5F5F5F5F5F5F5F5F5F5F5F5F5F5F5F5F5F5F5F5F5F5F5F5F5F5E2F5F5F5F5F5F5F5F5F5F5F5F5F5F5F5F5F5F5F5F5E2E2EFF5F5F5F5F5F5F5F5F5F5F5F5F5F5F5F5F5F5F5F5E2F5F5F5F5F5F5F5F5F5F5F5F5F5F5F5F5F5F5F5F5F5F5F5F5F5F5F5F5F5F5F5F5F5F5F5F5F5F5F5F5F5F5F5F5F5F5F5F5
310
F5F5F5F5F5F5F5F5F5F5F5F5F5F5F5F5F5F5F5F5F5F5F5F5F5F5F5F5F5F5F5F5F5F5F5F5F5F5F5F5F5F5F5F5F5F5F5F5F5F5F5F5F5F5F5F5F5F5F5F5F5F5F5F5F5F5F5F5F5F5F5F5F5F5F5F5F5F5F5F5F5F5F5F5F5F5F5E2F5F5F5F5F5F5F5F5F5F5F5F5F5F5F5F5F5F5F5F5E2E2EFF5F5F5F5F5F5F5F5F5F5F5F5F5F5F5F5
310
F5F5F5F5E2E2E2E2E2E2E2E2E2E2E2E2E2E2E2E2E2E2E2E2E2E2E2E2E2E2E2E2E2E2E2E2E2E2E2E2E2E2E2E2E2E2E2E2E2E2E2E2E2E2E2E2E2E2E2E2E2E2E2E2E2E2E2E2E2E2E2E2E2E2E2E2E2E2E2E2E2E2E2E2E2E2E2E2E2E2E2E2E2E2E2E2E2E2E2E2E2E2E2E2E2E2E2E2E2E2E2E2E2E2E2E2E2E2E2E2E2E2E2E2E2E2E2
310
E2E2E2E2E2E2E2E2E2E2E2E2E2E2F5F5F5F5F5F5F5F5F5F5F5F5F5F5F5F5F5F5F5F5E2E2EFF5F5F5F5F5F5F5F5F5F5F5F5F5F5F5F5F5F5F5F5F5F5F5F5F5F5F5F5F5F5F5F5F5F5F5F5F5F5F5F5F5F5F5F5F5F5F5F5F5F5F5F5F5F5F5F5F5F5F5F5F5F5F5F5F5F5F5F5F5F5F5F5F5F5F5F5F5F5F5F5F5F5F5F5F5F5F5F5F5F5
310
F5F5F5F5F5F5F5F5F5F5F5F5F5F5F5F5F5F5F5F5F5F5F5F5F5F5F5F5F5F5F5F5F5F5F5F5F5F5F5F5F5F5F5F5F5F5F5F5F5F5F5F5F5F5F5F5F5F5F5F5F5F5F5F5F5F5F5F5F5F5F5F5F5F5F5F5F5F5F5F5F5F5F5F5F5F5F5E2E2EFF5F5F5F5F5F5F5F5F5F5F5F5F5F5F5F5F5F5F5F5F5F5F5F5F5F5F5F5F5F5F5F5F5F5F5F5F5
310
F5F5F5F5F5F5F5F5F5F5F5F5F5F5F5F5F5F5F5F5F5F5F5F5F5F5F5F5F5F5F5F5F5F5F5F5F5F5F5F5F5F5F5F5F5F5F5F5F5F5F5F5F5F5F5F5F5F5F5F5F5F5F5F5F5F5F5F5F5F5F5F5F5F5F5F5F5F5F5F5F5F5F5F5F5F5F5F5F5F5F5F5F5F5F5F5F5F5F5F5F5F5F5F5F5F5F5F5F5F5F5F5F5F5F5F5F5F5F5F5F5F5F5F5F5F5F5
310
F5F5F5F5F5F5F5F5F5F5F5F5F5E2E2EFF5F5F5F5F5F5F5F5F5F5F5F5F5F5F5F5F5F5F5F5F5F5F5F5F5F5F5F5F5F5F5F5F5F5F5F5F5F5F5F5F5F5F5F5F5F5F5F5F5F5F5F5F5F5F5F5F5F5F5F5F5F5F5F5F5F5F5F5F5F5F5F5F5F5F5F5F5F5F5F5F5F5F5F5F5F5F5F5F5F5F5F5F5F5F5F5F5F5F5F5F5F5F5F5F5F5F5F5F5F5F5
310
F5F5F5F5F5F5F5F5F5F5F5F5F5F5F5F5F5F5F5F5F5F5F5F5F5F5F5F5F5F5F5F5F5F5F5F5F5F5F5F5F5F5F5F5F5F5F5F5F5F5F5F5F5F5F5F5F5F5F5F5F5F5F5F5F5F5E2E2EFF5F5F5F5F5F5F5F5F5F5F5F5F5F5F5F5F5F5F5F5F5F5F5F5F5F5F5F5F5F5F5F5F5F5F5F5F5F5F5F5F5F5F5F5F5F5F5F5F5F5F5F5F5F5F5F5F5F5
310
F5F5F5F5F5F5F5F5F5F5F5F5F5F5F5F5F5F5F5F5F5F5F5F5F5F5F5F5F5F5F5F5F5F5F5F5F5F5F5F5F5F5F5F5F5F5F5F5F5F5F5F5F5F5F5F5F5F5F5F5F5F5F5F5F5F5F5F5F5F5F5F5F5F5F5F5F5F5F5F5F5F5F5F5F5F5F5F5F5F5F5F5F5F5F5F5F5F5F5F5F5F5F5F5F5F5F5F5F5F5F5F5F5F5F5F5F5F5F5E2E2EFF5F5F5E2F5
310
F5F5F5F5F5F5F5F5F5F5F5F5F5F5F5F5F5F5F5F5F5F5F5F5F5F5F5F5F5F5F5F5F5F5F5F5F5F5F5F5F5F5F5F5F5F5F5F5F5F5F5F5F5F5F5F5F5F5F5F5F5F5F5F5F5F5F5F5F5F5F5F5F5F5F5F5F5F5F5F5F5F5F5F5F5F5F5F5F5F5F5F5F5F5F5F5F5F5F5F5F5F5F5F5F5F5F5F5F5F5F5F5F5F5F5F5F5F5F5F5F5F5F5F5F5F5F5
310
F5F5F5F5F5F5F5F5F5F5F5F5F5F5F5F5F5F5F5F5F5F5F5F5F5F5F5F5F5F5F5F5F5F5F5F5F5F5F5F5F5E2F5F5F5E2E2EFF5F5F5E2F5F5F5F5F5F5F5F5F5F5F5F5F5F5F5F5F5F5F5F5F5F5F5F5F5F5F5F5F5F5F5F5F5F5F5F5F5F5F5F5F5F5F5F5F5F5F5F5F5F5F5F5F5F5F5F5F5F5F5F5F5F5F5F5F5F5F5F5F5F5F5F5F5F5F5
310
F5F5F5F5F5F5F5F5F5F5F5F5F5F5F5F5F5F5F5F5F5F5F5F5F5F5F5F5F5F5F5F5F5F5F5F5F5F5F5F5F5F5F5F5F5F5F5F5F5F5F5F5F5F5F5F5F5F5F5F5F5F5F5F5F5F5F5F5F5F5F5F5F5F5F5F5F5F5F5F5F5F5F5F5F5F5F5F5F5F5F5F5F5F5E2F5F5F5E2E2EFF5F5F5E2F5F5F5F5F5F5F5F5F5F5F5F5F5F5F5F5F5F5F5F5F5F5
310
F5F5F5F5F5F5F5F5F5F5F5F5F5F5F5F5F5F5F5F5F5F5F5F5F5F5F5F5F5F5F5F5F5F5F5F5F5F5F5F5F5F5F5F5F5F5F5F5F5F5F5F5F5F5F5F5F5F5F5F5F5F5F5F5F5F5F5F5F5F5F5F5F5F5F5F5F5F5F5F5F5F5F5F5F5F5F5F5F5F5F5F5F5F5F5F5F5F5F5F5F5F5F5F5F5F5F5F5F5F5F5F5F5F5F5F5F5F5F5F5F5F5F5F5F5F5F5
310
F5F5F5F5F5F5F5F5F5F5F5F5F5F5F5F5F5F5F5F5E2F5F5F5E2E2EFF5F5F5E2F5F5F5F5F5F5F5F5F5F5F5F5F5F5F5F5F5F5F5F5F5F5F5F5F5F5F5F5F5F5F5F5F5F5F5F5F5F5F5F5F5F5F5F5F5F5F5F5F5F5F5F5F5F5F5F5F5F5F5F5F5F5F5F5F5F5F5F5F5F5F5F5F5F5F5F5F5F5F5F5F5F5F5F5F5F5F5F5F5F5F5F5F5F5F5F5
310
F5F5F5F5F5F5F5F5F5F5F5F5F5F5F5F5F5F5F5F5F5F5F5F5F5F5F5F5F5F5F5F5F5F5F5F5F5F5F5F5F5F5F5F5F5F5F5F5F5F5F5F5F5F5F5F5F5F5F5F5F5F5F5F5F5F5F5F5F5F5F5F5F5E2F5F5F5E2E2EFF5F5F5E2F5F5F5F5F5F5F5F5F5F5F5F5F5F5F5F5F5F5F5F5F5F5F5F5F5F5F5F5F5F5F5F5F5F5F5F5F5F5F5F5F5F5F5
310
F5F5F5F5F5F5F5F5F5F5F5F5F5F5F5F5F5F5F5F5F5F5F5F5F5F5F5F5F5F5F5F5F5F5F5F5F5F5F5F5F5F5F5F5F5F5F5F5F5F5F5F5F5F5F5F5F5F5F5F5F5F5F5F5F5F5F5F5F5F5F5F5F5F5F5F5F5F5F5F5F5F5F5F5F5F5F5F5F5F5F5F5F5F5F5F5F5F5F5F5F5F5F5F5F5F5F5F5F5F5F5F5F5F5F5F5F5F5F5F5F5F5F5F5F5F5E2
310
F5F5F5E2E2EFF5F5F5E2F5F5F5F5F5F5F5F5F5F5F5F5F5F5F5F5F5F5F5F5F5F5F5F5F5F5F5F5F5F5F5F5F5F5F5F5F5F5F5F5F5F5F5F5F5F5F5F5F5F5F5F5F5F5F5F5F5F5F5F5F5F5F5F5F5F5F5F5F5F5F5F5F5F5F5F5F5F5F5F5F5F5F5F5F5F5F5F5F5F5F5F5F5F5F5F5F5F5F5F5F5F5F5F5F5F5F5F5F5F5F5F5F5F5F5F5F5
310
F5F5F5F5F5F5F5F5F5F5F5F5F5F5F5F5F5F5F5F5F5F5F5F5F5F5F5F5F5F5F5F5F5F5F5F5F5F5F5F5F5F5F5F5F5F5F5F5F5F5F5F5E2F5F5F5E2E2EFF5F5F5E2F5F5F5F5F5F5F5F5F5F5F5F5F5F5F5F5F5F5F5F5F5F5F5F5F5F5F5F5F5F5F5F5F5F5F5F5F5F5F5F5F5F5F5F5F5F5F5F5F5F5F5F5F5F5F5F5F5F5F5F5F5F5F5F5
310
F5F5F5F5F5F5F5F5F5F5F5F5F5F5F5F5F5F5F5F5F5F5F5F5F5F5F5F5F5F5F5F5F5F5F5F5F5F5F5F5F5F5F5F5F5F5F5F5F5F5F5F5F5F5F5F5F5F5F5F5F5F5F5F5F5F5F5F5F5F5F5F5F5F5F5F5F5F5F5F5F5F5F5F5F5F5F5F5F5F5F5F5F5F5F5F5F5F5F5F5F5F5F5F5F5E2F5F5F5E2E2EFF5F5F5E2F5F5F5F5F5F5F5F5F5F5F5
310
F5F5F5F5F5F5F5F5F5F5F5F5F5F5F5F5F5F5F5F5F5F5F5F5F5F5F5F5F5F5F5F5F5F5F5F5F5F5F5F5F5F5F5F5F5F5F5F5F5F5F5F5F5F5F5F5F5F5F5F5F5F5F5F5F5F5F5F5F5F5F5F5F5F5F5F5F5F5F5F5F5F5F5F5F5F5F5F5F5F5F5F5F5F5F5F5F5F5F5F5F5F5F5F5F5F5F5F5F5F5F5F5F5F5F5F5F5F5F5F5F5F5F5F5F5F5F5
310
F5F5F5F5F5F5F5F5F5F5F5F5F5F5F5F5F5F5F5F5F5F5F5F5F5F5F5F5F5F5F5E2F5F5F5E2E2EFF5F5F5E2E2E2E2E2E2E2E2F5F5F5F5F5F5F5F5F5E2E2E2E2E2E2E2E2E2E2E2E2E2E2E2E2F5F5F5F5F5F5F5F5E2E2E2E2E2E2E2E2E2E2E2E2E2E2E2E2F5F5F5F5F5F5F5F5F5E2E2E2E2E2E2E2E2E2E2E2E2E2E2E2F5F5F5F5F5
310
F5F5F5F5E2E2E2E2E2E2E2E2E2E2E2E2E2E2E2F5F5F5F5F5F5F5F5F5E2E2E2E2E2E2E2E2E2E2E2E2E2E2E2E2F5F5F5F5F5F5F5F5E2E2E2E2E2E2E2E2E2E2E2E2E2E2E2E2F5F5F5F5F5F5F5F5F5E2E2E2E2E2E2E2E2F5F5F5E2E2EFF5F5F5F5F5F5F5F5F5F5F5F5F5F5F5F5F5F5F5F5F5F5F5F5F5F5F5F5F5F5F5F5F5F5F5F5
310
F5F5F5F5F5F5F5F5F5F5F5F5F5F5F5F5F5F5F5F5F5F5F5F5F5F5F5F5F5F5F5F5F5F5F5F5F5F5F5F5F5F5F5F5F5F5F5F5F5F5F5F5F5F5F5F5F5F5F5F5F5F5F5F5F5F5F5F5F5F5F5F5F5F5F5F5F5F5F5F5F5F5F5F5F5F5F5F5F5F5F5F5F5F5F5F5F5F5F5F5F5F5F5F5F5F5F5F5F5F5F5F5F5F5F5F5F5F5F5F5F5F5F5F5F5F5F5
310
F5F5F5F5F5F5F5F5F5F5F5F5F5F5E2E2EFF5F5F5F5F5F5F5F5F5F5F5F5F5F5F5F5F5F5F5F5F5F5F5F5F5F5F5F5F5F5F5F5F5F5F5F5F5F5F5F5F5F5F5F5F5F5F5F5F5F5F5F5F5F5F5F5F5F5F5F5F5F5F5F5F5F5F5F5F5F5F5F5F5F5F5F5F5F5F5F5F5F5F5F5F5F5F5F5F5F5F5F5F5F5F5F5F5F5F5F5F5F5F5F5F5F5F5F5F5F5
310
F5F5F5F5F5F5F5F5F5F5F5F5F5F5F5F5F5F5F5F5F5F5F5F5F5F5F5F5F5F5F5F5F5F5F5F5F5F5F5F5F5F5F5F5F5F5F5F5F5F5F5F5F5F5F5F5F5F5F5F5F5F5F5F5F5F5F5E2EFEFF5F5F5F5F5F5F5F5F5F5F5F5F5F5F5F5F5F5F5F5F5F5F5F5F5F5F5F5F5F5F5F5F5F5F5F5F5F5F5F5F5F5F5F5F5F5F5F5F5F5F5F5F5F5F5F5F5
310
F5F5F5F5F5F5F5F5F5F5F5F5F5F5F5F5F5F5F5F5F5F5F5F5F5F5F5F5F5F5F5F5F5F5F5F5F5F5F5F5F5F5F5F5F5F5F5F5F5F5F5F5F5F5F5F5F5F5F5F5F5F5F5F5F5F5F5F5F5F5F5F5F5F5F5F5F5F5F5F5F5F5F5F5F5F5F5F5F5F5F5F5F5F5F5F5F5F5F5F5F5F5F5F5F5F5F5F5F5F5F5F5F5F5F5F5F5F5F5F5E2EFEFE2E2E2E2
310
E2E2E2E2E2E2E2E2E2E2E2E2E2E2E2E2E2E2E2E2E2E2E2E2E2E2E2E2E2E2E2E2E2E2E2E2E2E2E2E2E2E2E2E2E2E2E2E2E2E2E2E2E2E2E2E2E2E2E2E2E2E2E2E2E2E2E2E2E2E2E2E2E2E2E2E2E2E2E2E2E2E2E2E2E2E2E2E2E2E2E2E2E2E2E2E2E2E2E2E2E2E2E2E2E2E2E2E2E2E2E2E2E2E2E2E2E2E2E2E2E2E2E2E2E2E2E2
310
E2E2E2E2E2E2E2E2E2E2E2E2E2E2E2E2E2E2E2E2E2E2E2E2E2E2E2E2E2E2E2E2E2E2E2E2E2E2E2E2E2E2E2E2E2E2E2EFEF
  0
ENDSEC
  0
EOF
