  0
SECTION
  2
HEADER
  9
$ACADVER
  1
AC1018
  9
$ACADMAINTVER
 70
     0
  9
$DWGCODEPAGE
  3
ANSI_1252
  9
$AUTHOR
  1
g6edxjah
  9
$LASTSAVEDBY
  1
g6edxjah
  9
$INSBASE
 10
0.0
 20
0.0
 30
0.0
  9
$EXTMIN
 10
46.509927
 20
-11.029854
 30
0.0
  9
$EXTMAX
 10
57.13399
 20
-2.529177
 30
0.0
  9
$LIMMIN
 10
24.609298
 20
-33.992176
  9
$LIMMAX
 10
79.034618
 20
20.433144
  9
$ORTHOMODE
 70
     0
  9
$REGENMODE
 70
     1
  9
$FILLMODE
 70
     1
  9
$QTEXTMODE
 70
     0
  9
$MIRRTEXT
 70
     0
  9
$LTSCALE
 40
1.0
  9
$ATTMODE
 70
     1
  9
$TEXTSIZE
 40
0.09
  9
$TRACEWID
 40
0.05
  9
$TEXTSTYLE
  7
Standard
  9
$CLAYER
  8
DIM
  9
$CELTYPE
  6
Continuous
  9
$CECOLOR
 62
     7
  9
$CELTSCALE
 40
1.0
  9
$DISPSILH
 70
     0
  9
$DIMSCALE
 40
1.0
  9
$DIMASZ
 40
0.09
  9
$DIMEXO
 40
0.045
  9
$DIMDLI
 40
0.0
  9
$DIMRND
 40
0.0
  9
$DIMDLE
 40
0.0
  9
$DIMEXE
 40
0.045
  9
$DIMTP
 40
0.0
  9
$DIMTM
 40
0.0
  9
$DIMTXT
 40
0.09
  9
$DIMCEN
 40
0.09
  9
$DIMTSZ
 40
0.0
  9
$DIMTOL
 70
     0
  9
$DIMLIM
 70
     0
  9
$DIMTIH
 70
     0
  9
$DIMTOH
 70
     0
  9
$DIMSE1
 70
     0
  9
$DIMSE2
 70
     0
  9
$DIMTAD
 70
     1
  9
$DIMZIN
 70
    11
  9
$DIMBLK
  1
TerminatorOpen_0.5
  9
$DIMASO
 70
     1
  9
$DIMSHO
 70
     1
  9
$DIMPOST
  1

  9
$DIMAPOST
  1

  9
$DIMALT
 70
     0
  9
$DIMALTD
 70
     4
  9
$DIMALTF
 40
25.4
  9
$DIMLFAC
 40
1.0
  9
$DIMTOFL
 70
     0
  9
$DIMTVP
 40
0.0
  9
$DIMTIX
 70
     0
  9
$DIMSOXD
 70
     0
  9
$DIMSAH
 70
     0
  9
$DIMBLK1
  1

  9
$DIMBLK2
  1

  9
$DIMSTYLE
  2
Standard
  9
$DIMCLRD
 70
     0
  9
$DIMCLRE
 70
     0
  9
$DIMCLRT
 70
     0
  9
$DIMTFAC
 40
1.0
  9
$DIMGAP
 40
0.045
  9
$DIMJUST
 70
     0
  9
$DIMSD1
 70
     0
  9
$DIMSD2
 70
     0
  9
$DIMTOLJ
 70
     0
  9
$DIMTZIN
 70
    11
  9
$DIMALTZ
 70
    15
  9
$DIMALTTZ
 70
    15
  9
$DIMUPT
 70
     0
  9
$DIMDEC
 70
     4
  9
$DIMTDEC
 70
     4
  9
$DIMALTU
 70
     2
  9
$DIMALTTD
 70
     4
  9
$DIMTXSTY
  7
Style-Arial
  9
$DIMAUNIT
 70
     0
  9
$DIMADEC
 70
     4
  9
$DIMALTRND
 40
0.0
  9
$DIMAZIN
 70
     3
  9
$DIMDSEP
 70
    46
  9
$DIMATFIT
 70
     1
  9
$DIMFRAC
 70
     0
  9
$DIMLDRBLK
  1
TerminatorOpen_0.5
  9
$DIMLUNIT
 70
     2
  9
$DIMLWD
 70
    -2
  9
$DIMLWE
 70
    -2
  9
$DIMTMOVE
 70
     0
  9
$LUNITS
 70
     2
  9
$LUPREC
 70
     4
  9
$SKETCHINC
 40
0.1
  9
$FILLETRAD
 40
0.0
  9
$AUNITS
 70
     0
  9
$AUPREC
 70
     4
  9
$MENU
  1
.
  9
$ELEVATION
 40
0.0
  9
$PELEVATION
 40
0.0
  9
$THICKNESS
 40
0.0
  9
$LIMCHECK
 70
     0
  9
$CHAMFERA
 40
0.0
  9
$CHAMFERB
 40
0.0
  9
$CHAMFERC
 40
0.0
  9
$CHAMFERD
 40
0.0
  9
$SKPOLY
 70
     0
  9
$TDCREATE
 40
2455363.526692743
  9
$TDUCREATE
 40
2455363.735026076
  9
$TDUPDATE
 40
2455363.526692743
  9
$TDUUPDATE
 40
2455363.735026076
  9
$TDINDWG
 40
0.0
  9
$TDUSRTIMER
 40
0.0006630093
  9
$USRTIMER
 70
     1
  9
$ANGBASE
 50
0.0
  9
$ANGDIR
 70
     0
  9
$PDMODE
 70
     0
  9
$PDSIZE
 40
0.0
  9
$PLINEWID
 40
0.0
  9
$SPLFRAME
 70
     0
  9
$SPLINETYPE
 70
     6
  9
$SPLINESEGS
 70
     8
  9
$HANDSEED
  5
520
  9
$SURFTAB1
 70
     6
  9
$SURFTAB2
 70
     6
  9
$SURFTYPE
 70
     6
  9
$SURFU
 70
     6
  9
$SURFV
 70
     6
  9
$UCSBASE
  2

  9
$UCSNAME
  2

  9
$UCSORG
 10
0.0
 20
0.0
 30
0.0
  9
$UCSXDIR
 10
1.0
 20
0.0
 30
0.0
  9
$UCSYDIR
 10
0.0
 20
1.0
 30
0.0
  9
$UCSORTHOREF
  2

  9
$UCSORTHOVIEW
 70
     0
  9
$UCSORGTOP
 10
0.0
 20
0.0
 30
0.0
  9
$UCSORGBOTTOM
 10
0.0
 20
0.0
 30
0.0
  9
$UCSORGLEFT
 10
0.0
 20
0.0
 30
0.0
  9
$UCSORGRIGHT
 10
0.0
 20
0.0
 30
0.0
  9
$UCSORGFRONT
 10
0.0
 20
0.0
 30
0.0
  9
$UCSORGBACK
 10
0.0
 20
0.0
 30
0.0
  9
$PUCSBASE
  2

  9
$PUCSNAME
  2

  9
$PUCSORG
 10
0.0
 20
0.0
 30
0.0
  9
$PUCSXDIR
 10
1.0
 20
0.0
 30
0.0
  9
$PUCSYDIR
 10
0.0
 20
1.0
 30
0.0
  9
$PUCSORTHOREF
  2

  9
$PUCSORTHOVIEW
 70
     0
  9
$PUCSORGTOP
 10
0.0
 20
0.0
 30
0.0
  9
$PUCSORGBOTTOM
 10
0.0
 20
0.0
 30
0.0
  9
$PUCSORGLEFT
 10
0.0
 20
0.0
 30
0.0
  9
$PUCSORGRIGHT
 10
0.0
 20
0.0
 30
0.0
  9
$PUCSORGFRONT
 10
0.0
 20
0.0
 30
0.0
  9
$PUCSORGBACK
 10
0.0
 20
0.0
 30
0.0
  9
$USERI1
 70
     0
  9
$USERI2
 70
     0
  9
$USERI3
 70
     0
  9
$USERI4
 70
     0
  9
$USERI5
 70
     0
  9
$USERR1
 40
0.0
  9
$USERR2
 40
0.0
  9
$USERR3
 40
0.0
  9
$USERR4
 40
0.0
  9
$USERR5
 40
0.0
  9
$WORLDVIEW
 70
     1
  9
$SHADEDGE
 70
     3
  9
$SHADEDIF
 70
    70
  9
$TILEMODE
 70
     1
  9
$MAXACTVP
 70
    64
  9
$PINSBASE
 10
0.0
 20
0.0
 30
0.0
  9
$PLIMCHECK
 70
     0
  9
$PEXTMIN
 10
1.049744
 20
0.799667
 30
-0.001526
  9
$PEXTMAX
 10
9.450623
 20
7.200577
 30
0.0
  9
$PLIMMIN
 10
-0.25
 20
-0.25
  9
$PLIMMAX
 10
10.75
 20
8.25
  9
$UNITMODE
 70
     0
  9
$VISRETAIN
 70
     1
  9
$PLINEGEN
 70
     0
  9
$PSLTSCALE
 70
     0
  9
$TREEDEPTH
 70
  3020
  9
$CMLSTYLE
  2
Standard
  9
$CMLJUST
 70
     0
  9
$CMLSCALE
 40
1.0
  9
$PROXYGRAPHICS
 70
     1
  9
$MEASUREMENT
 70
     0
  9
$CELWEIGHT
370
    53
  9
$ENDCAPS
280
     0
  9
$JOINSTYLE
280
     0
  9
$LWDISPLAY
290
     1
  9
$INSUNITS
 70
     2
  9
$HYPERLINKBASE
  1

  9
$STYLESHEET
  1

  9
$XEDIT
290
     1
  9
$CEPSNTYPE
380
     0
  9
$PSTYLEMODE
290
     1
  9
$FINGERPRINTGUID
  2
{02C0BBB5-38A7-4FBF-829E-00875EC88963}
  9
$VERSIONGUID
  2
{82C521FC-BF81-46B3-825E-420B6BD93A99}
  9
$EXTNAMES
290
     1
  9
$PSVPSCALE
 40
0.0
  9
$OLESTARTUP
290
     0
  9
$SORTENTS
280
   127
  9
$INDEXCTL
280
     0
  9
$HIDETEXT
280
     1
  9
$XCLIPFRAME
290
     0
  9
$HALOGAP
280
     0
  9
$OBSCOLOR
 70
   257
  9
$OBSLTYPE
280
     0
  9
$INTERSECTIONDISPLAY
280
     0
  9
$INTERSECTIONCOLOR
 70
   257
  9
$DIMASSOC
280
     1
  9
$PROJECTNAME
  1

  0
ENDSEC
  0
SECTION
  2
CLASSES
  0
CLASS
  1
ACDBDICTIONARYWDFLT
  2
AcDbDictionaryWithDefault
  3
ObjectDBX Classes
 90
        0
 91
        3
280
     0
281
     0
  0
CLASS
  1
SORTENTSTABLE
  2
AcDbSortentsTable
  3
ObjectDBX Classes
 90
        0
 91
        3
280
     0
281
     0
  0
ENDSEC
  0
SECTION
  2
TABLES
  0
TABLE
  2
VPORT
  5
505
330
0
100
AcDbSymbolTable
 70
     4
  0
VPORT
  5
49
330
505
100
AcDbSymbolTableRecord
100
AcDbViewportTableRecord
  2
*ACTIVE
 70
     0
 10
0.0
 20
0.0
 11
1.0
 21
1.0
 12
51.821958
 22
-6.779516
 13
0.0
 23
0.0
 14
0.083333
 24
0.083333
 15
0.083333
 25
0.083333
 16
0.0
 26
0.0
 36
1.0
 17
0.0
 27
0.0
 37
0.0
 40
8.840704
 41
1.884937
 42
50.0
 43
0.0
 44
0.0
 50
0.0
 51
0.0
 71
     0
 72
   100
 73
     1
 74
     2
 75
     0
 76
     0
 77
     0
 78
     1
281
     0
 65
     1
110
0.0
120
0.0
130
0.0
111
1.0
121
0.0
131
0.0
112
0.0
122
1.0
132
0.0
 79
     0
146
0.0
  0
ENDTAB
  0
TABLE
  2
LTYPE
  5
4EC
330
0
100
AcDbSymbolTable
 70
     3
  0
LTYPE
  5
4ED
330
4EC
100
AcDbSymbolTableRecord
100
AcDbLinetypeTableRecord
  2
ByBlock
 70
     0
  3

 72
    65
 73
     0
 40
0.0
  0
LTYPE
  5
4EE
330
4EC
100
AcDbSymbolTableRecord
100
AcDbLinetypeTableRecord
  2
ByLayer
 70
     0
  3

 72
    65
 73
     0
 40
0.0
  0
LTYPE
  5
4EB
330
4EC
100
AcDbSymbolTableRecord
100
AcDbLinetypeTableRecord
  2
Continuous
 70
     0
  3
Solid line
 72
    65
 73
     0
 40
0.0
  0
LTYPE
  5
519
330
4EC
100
AcDbSymbolTableRecord
100
AcDbLinetypeTableRecord
  2
DGN Style 7
 70
     0
  3
Dgn Style 7
 72
    65
 73
     4
 40
0.333283
 49
0.149978
 74
     0
 49
-0.066657
 74
     0
 49
0.049993
 74
     0
 49
-0.066657
 74
     0
  0
LTYPE
  5
51A
330
4EC
100
AcDbSymbolTableRecord
100
AcDbLinetypeTableRecord
  2
DGN Style 2
 70
     0
  3
Dgn Style 2
 72
    65
 73
     2
 40
0.166642
 49
0.099985
 74
     0
 49
-0.066657
 74
     0
  0
ENDTAB
  0
TABLE
  2
LAYER
  5
4E5
102
{ACAD_XDICTIONARY
360
4E6
102
}
330
0
100
AcDbSymbolTable
 70
    64
  0
LAYER
  5
4E4
330
4E5
100
AcDbSymbolTableRecord
100
AcDbLayerTableRecord
  2
0
 70
     0
 62
     7
  6
Continuous
370
    -3
390
4E8
  0
LAYER
  5
7
330
4E5
100
AcDbSymbolTableRecord
100
AcDbLayerTableRecord
  2
Level 1
 70
     0
 62
     7
  6
Continuous
370
     0
390
4E8
  0
LAYER
  5
8
330
4E5
100
AcDbSymbolTableRecord
100
AcDbLayerTableRecord
  2
2-30G
 70
     0
 62
     7
  6
Continuous
370
     0
390
4E8
1001
AcAecLayerStandard
1000

1000
2-30G
  0
LAYER
  5
9
330
4E5
100
AcDbSymbolTableRecord
100
AcDbLayerTableRecord
  2
BORDER
 70
     0
 62
     7
  6
Continuous
370
     0
390
4E8
1001
AcAecLayerStandard
1000

1000
BORDER
  0
LAYER
  5
A
330
4E5
100
AcDbSymbolTableRecord
100
AcDbLayerTableRecord
  2
DEFPOINTS
 70
     0
 62
     7
  6
Continuous
290
     0
370
     0
390
4E8
1001
AcAecLayerStandard
1000

1000
DEFPOINTS
  0
LAYER
  5
B
330
4E5
100
AcDbSymbolTableRecord
100
AcDbLayerTableRecord
  2
DIM
 70
     0
 62
     7
  6
Continuous
370
     0
390
4E8
1001
AcAecLayerStandard
1000

1000
DIM
  0
LAYER
  5
C
330
4E5
100
AcDbSymbolTableRecord
100
AcDbLayerTableRecord
  2
HATCH
 70
     0
 62
     7
  6
Continuous
370
     0
390
4E8
1001
AcAecLayerStandard
1000

1000
HATCH
  0
LAYER
  5
D
330
4E5
100
AcDbSymbolTableRecord
100
AcDbLayerTableRecord
  2
LEGEND
 70
     0
 62
     7
  6
Continuous
370
     0
390
4E8
1001
AcAecLayerStandard
1000

1000
LEGEND
  0
LAYER
  5
E
330
4E5
100
AcDbSymbolTableRecord
100
AcDbLayerTableRecord
  2
REF
 70
     0
 62
     7
  6
Continuous
370
     0
390
4E8
1001
AcAecLayerStandard
1000

1000
REF
  0
LAYER
  5
F
330
4E5
100
AcDbSymbolTableRecord
100
AcDbLayerTableRecord
  2
TEXT
 70
     0
 62
     7
  6
Continuous
370
     0
390
4E8
1001
AcAecLayerStandard
1000

1000
TEXT
  0
LAYER
  5
10
330
4E5
100
AcDbSymbolTableRecord
100
AcDbLayerTableRecord
  2
TITLE
 70
     0
 62
     7
  6
Continuous
370
     0
390
4E8
1001
AcAecLayerStandard
1000

1000
TITLE
  0
LAYER
  5
11
330
4E5
100
AcDbSymbolTableRecord
100
AcDbLayerTableRecord
  2
Level 11
 70
     0
 62
     7
  6
Continuous
370
     0
390
4E8
  0
LAYER
  5
12
330
4E5
100
AcDbSymbolTableRecord
100
AcDbLayerTableRecord
  2
Level 12
 70
     0
 62
     7
  6
Continuous
370
     0
390
4E8
  0
LAYER
  5
13
330
4E5
100
AcDbSymbolTableRecord
100
AcDbLayerTableRecord
  2
Level 13
 70
     0
 62
     7
  6
Continuous
370
     0
390
4E8
  0
LAYER
  5
14
330
4E5
100
AcDbSymbolTableRecord
100
AcDbLayerTableRecord
  2
Level 14
 70
     0
 62
     7
  6
Continuous
370
     0
390
4E8
  0
LAYER
  5
15
330
4E5
100
AcDbSymbolTableRecord
100
AcDbLayerTableRecord
  2
Level 15
 70
     0
 62
     7
  6
Continuous
370
     0
390
4E8
  0
LAYER
  5
16
330
4E5
100
AcDbSymbolTableRecord
100
AcDbLayerTableRecord
  2
Level 16
 70
     0
 62
     7
  6
Continuous
370
     0
390
4E8
  0
LAYER
  5
17
330
4E5
100
AcDbSymbolTableRecord
100
AcDbLayerTableRecord
  2
Level 17
 70
     0
 62
     7
  6
Continuous
370
     0
390
4E8
  0
LAYER
  5
18
330
4E5
100
AcDbSymbolTableRecord
100
AcDbLayerTableRecord
  2
Level 18
 70
     0
 62
     7
  6
Continuous
370
     0
390
4E8
  0
LAYER
  5
19
330
4E5
100
AcDbSymbolTableRecord
100
AcDbLayerTableRecord
  2
Level 19
 70
     0
 62
     7
  6
Continuous
370
     0
390
4E8
  0
LAYER
  5
1A
330
4E5
100
AcDbSymbolTableRecord
100
AcDbLayerTableRecord
  2
Level 20
 70
     0
 62
     7
  6
Continuous
370
     0
390
4E8
  0
LAYER
  5
1B
330
4E5
100
AcDbSymbolTableRecord
100
AcDbLayerTableRecord
  2
Level 21
 70
     0
 62
     7
  6
Continuous
370
     0
390
4E8
  0
LAYER
  5
1C
330
4E5
100
AcDbSymbolTableRecord
100
AcDbLayerTableRecord
  2
Level 22
 70
     0
 62
     7
  6
Continuous
370
     0
390
4E8
  0
LAYER
  5
1D
330
4E5
100
AcDbSymbolTableRecord
100
AcDbLayerTableRecord
  2
Level 23
 70
     0
 62
     7
  6
Continuous
370
     0
390
4E8
  0
LAYER
  5
1E
330
4E5
100
AcDbSymbolTableRecord
100
AcDbLayerTableRecord
  2
Level 24
 70
     0
 62
     7
  6
Continuous
370
     0
390
4E8
  0
LAYER
  5
1F
330
4E5
100
AcDbSymbolTableRecord
100
AcDbLayerTableRecord
  2
Level 25
 70
     0
 62
     7
  6
Continuous
370
     0
390
4E8
  0
LAYER
  5
20
330
4E5
100
AcDbSymbolTableRecord
100
AcDbLayerTableRecord
  2
Level 26
 70
     0
 62
     7
  6
Continuous
370
     0
390
4E8
  0
LAYER
  5
21
330
4E5
100
AcDbSymbolTableRecord
100
AcDbLayerTableRecord
  2
Level 27
 70
     0
 62
     7
  6
Continuous
370
     0
390
4E8
  0
LAYER
  5
22
330
4E5
100
AcDbSymbolTableRecord
100
AcDbLayerTableRecord
  2
Level 28
 70
     0
 62
     7
  6
Continuous
370
     0
390
4E8
  0
LAYER
  5
23
330
4E5
100
AcDbSymbolTableRecord
100
AcDbLayerTableRecord
  2
Level 29
 70
     0
 62
     7
  6
Continuous
370
     0
390
4E8
  0
LAYER
  5
24
330
4E5
100
AcDbSymbolTableRecord
100
AcDbLayerTableRecord
  2
Level 30
 70
     0
 62
     7
  6
Continuous
370
     0
390
4E8
  0
LAYER
  5
25
330
4E5
100
AcDbSymbolTableRecord
100
AcDbLayerTableRecord
  2
Level 31
 70
     0
 62
     7
  6
Continuous
370
     0
390
4E8
  0
LAYER
  5
26
330
4E5
100
AcDbSymbolTableRecord
100
AcDbLayerTableRecord
  2
Level 32
 70
     0
 62
     7
  6
Continuous
370
     0
390
4E8
  0
LAYER
  5
27
330
4E5
100
AcDbSymbolTableRecord
100
AcDbLayerTableRecord
  2
Level 33
 70
     0
 62
     7
  6
Continuous
370
     0
390
4E8
  0
LAYER
  5
28
330
4E5
100
AcDbSymbolTableRecord
100
AcDbLayerTableRecord
  2
Level 34
 70
     0
 62
     7
  6
Continuous
370
     0
390
4E8
  0
LAYER
  5
29
330
4E5
100
AcDbSymbolTableRecord
100
AcDbLayerTableRecord
  2
Level 35
 70
     0
 62
     7
  6
Continuous
370
     0
390
4E8
  0
LAYER
  5
2A
330
4E5
100
AcDbSymbolTableRecord
100
AcDbLayerTableRecord
  2
Level 36
 70
     0
 62
     7
  6
Continuous
370
     0
390
4E8
  0
LAYER
  5
2B
330
4E5
100
AcDbSymbolTableRecord
100
AcDbLayerTableRecord
  2
Level 37
 70
     0
 62
     7
  6
Continuous
370
     0
390
4E8
  0
LAYER
  5
2C
330
4E5
100
AcDbSymbolTableRecord
100
AcDbLayerTableRecord
  2
Level 38
 70
     0
 62
     7
  6
Continuous
370
     0
390
4E8
  0
LAYER
  5
2D
330
4E5
100
AcDbSymbolTableRecord
100
AcDbLayerTableRecord
  2
Level 39
 70
     0
 62
     7
  6
Continuous
370
     0
390
4E8
  0
LAYER
  5
2E
330
4E5
100
AcDbSymbolTableRecord
100
AcDbLayerTableRecord
  2
Level 40
 70
     0
 62
     7
  6
Continuous
370
     0
390
4E8
  0
LAYER
  5
2F
330
4E5
100
AcDbSymbolTableRecord
100
AcDbLayerTableRecord
  2
Level 41
 70
     0
 62
     7
  6
Continuous
370
     0
390
4E8
  0
LAYER
  5
30
330
4E5
100
AcDbSymbolTableRecord
100
AcDbLayerTableRecord
  2
Level 42
 70
     0
 62
     7
  6
Continuous
370
     0
390
4E8
  0
LAYER
  5
31
330
4E5
100
AcDbSymbolTableRecord
100
AcDbLayerTableRecord
  2
Level 43
 70
     0
 62
     7
  6
Continuous
370
     0
390
4E8
  0
LAYER
  5
32
330
4E5
100
AcDbSymbolTableRecord
100
AcDbLayerTableRecord
  2
Level 44
 70
     0
 62
     7
  6
Continuous
370
     0
390
4E8
  0
LAYER
  5
33
330
4E5
100
AcDbSymbolTableRecord
100
AcDbLayerTableRecord
  2
Level 45
 70
     0
 62
     7
  6
Continuous
370
     0
390
4E8
  0
LAYER
  5
34
330
4E5
100
AcDbSymbolTableRecord
100
AcDbLayerTableRecord
  2
Level 46
 70
     0
 62
     7
  6
Continuous
370
     0
390
4E8
  0
LAYER
  5
35
330
4E5
100
AcDbSymbolTableRecord
100
AcDbLayerTableRecord
  2
Level 47
 70
     0
 62
     7
  6
Continuous
370
     0
390
4E8
  0
LAYER
  5
36
330
4E5
100
AcDbSymbolTableRecord
100
AcDbLayerTableRecord
  2
Level 48
 70
     0
 62
     7
  6
Continuous
370
     0
390
4E8
  0
LAYER
  5
37
330
4E5
100
AcDbSymbolTableRecord
100
AcDbLayerTableRecord
  2
Level 49
 70
     0
 62
     7
  6
Continuous
370
     0
390
4E8
  0
LAYER
  5
38
330
4E5
100
AcDbSymbolTableRecord
100
AcDbLayerTableRecord
  2
Level 50
 70
     0
 62
     7
  6
Continuous
370
     0
390
4E8
  0
LAYER
  5
39
330
4E5
100
AcDbSymbolTableRecord
100
AcDbLayerTableRecord
  2
Level 51
 70
     0
 62
     7
  6
Continuous
370
     0
390
4E8
  0
LAYER
  5
3A
330
4E5
100
AcDbSymbolTableRecord
100
AcDbLayerTableRecord
  2
Level 52
 70
     0
 62
     7
  6
Continuous
370
     0
390
4E8
  0
LAYER
  5
3B
330
4E5
100
AcDbSymbolTableRecord
100
AcDbLayerTableRecord
  2
Level 53
 70
     0
 62
     7
  6
Continuous
370
     0
390
4E8
  0
LAYER
  5
3C
330
4E5
100
AcDbSymbolTableRecord
100
AcDbLayerTableRecord
  2
Level 54
 70
     0
 62
     7
  6
Continuous
370
     0
390
4E8
  0
LAYER
  5
3D
330
4E5
100
AcDbSymbolTableRecord
100
AcDbLayerTableRecord
  2
Level 55
 70
     0
 62
     7
  6
Continuous
370
     0
390
4E8
  0
LAYER
  5
3E
330
4E5
100
AcDbSymbolTableRecord
100
AcDbLayerTableRecord
  2
Level 56
 70
     0
 62
     7
  6
Continuous
370
     0
390
4E8
  0
LAYER
  5
3F
330
4E5
100
AcDbSymbolTableRecord
100
AcDbLayerTableRecord
  2
Level 57
 70
     0
 62
     7
  6
Continuous
370
     0
390
4E8
  0
LAYER
  5
40
330
4E5
100
AcDbSymbolTableRecord
100
AcDbLayerTableRecord
  2
Level 58
 70
     0
 62
     7
  6
Continuous
370
     0
390
4E8
  0
LAYER
  5
41
330
4E5
100
AcDbSymbolTableRecord
100
AcDbLayerTableRecord
  2
Level 59
 70
     0
 62
     7
  6
Continuous
370
     0
390
4E8
  0
LAYER
  5
42
330
4E5
100
AcDbSymbolTableRecord
100
AcDbLayerTableRecord
  2
Level 60
 70
     0
 62
     7
  6
Continuous
370
     0
390
4E8
  0
LAYER
  5
43
330
4E5
100
AcDbSymbolTableRecord
100
AcDbLayerTableRecord
  2
Level 61
 70
     0
 62
     7
  6
Continuous
370
     0
390
4E8
  0
LAYER
  5
44
330
4E5
100
AcDbSymbolTableRecord
100
AcDbLayerTableRecord
  2
Level 62
 70
     0
 62
     7
  6
Continuous
370
     0
390
4E8
  0
LAYER
  5
45
330
4E5
100
AcDbSymbolTableRecord
100
AcDbLayerTableRecord
  2
_0
 70
     0
 62
     7
  6
Continuous
370
     0
390
4E8
1001
AcAecLayerStandard
1000

1000
0
  0
ENDTAB
  0
TABLE
  2
STYLE
  5
4F0
330
0
100
AcDbSymbolTable
 70
     2
  0
STYLE
  5
4EF
330
4F0
100
AcDbSymbolTableRecord
100
AcDbTextStyleTableRecord
  2
Standard
 70
     0
 40
0.0
 41
1.0
 50
0.0
 71
     0
 42
0.09
  3
txt
  4

  0
STYLE
  5
50F
330
4F0
100
AcDbSymbolTableRecord
100
AcDbTextStyleTableRecord
  2
Style-Arial
 70
     0
 40
0.0
 41
1.0
 50
0.0
 71
     0
 42
0.2
  3

  4

1001
ACAD
1000
Arial
1071
       39
  0
ENDTAB
  0
TABLE
  2
VIEW
  5
503
330
0
100
AcDbSymbolTable
 70
     0
  0
ENDTAB
  0
TABLE
  2
UCS
  5
504
330
0
100
AcDbSymbolTable
 70
     0
  0
ENDTAB
  0
TABLE
  2
APPID
  5
502
330
0
100
AcDbSymbolTable
 70
     3
  0
APPID
  5
50A
330
502
100
AcDbSymbolTableRecord
100
AcDbRegAppTableRecord
  2
ACAD
 70
     0
  0
APPID
  5
501
330
502
100
AcDbSymbolTableRecord
100
AcDbRegAppTableRecord
  2
ACAD_PSEXT
 70
     0
  0
APPID
  5
50C
330
502
100
AcDbSymbolTableRecord
100
AcDbRegAppTableRecord
  2
AcAecLayerStandard
 70
     0
  0
ENDTAB
  0
TABLE
  2
DIMSTYLE
  5
4F2
330
0
100
AcDbSymbolTable
 70
     1
100
AcDbDimStyleTable
  0
DIMSTYLE
105
4F1
330
4F2
100
AcDbSymbolTableRecord
100
AcDbDimStyleTableRecord
  2
Standard
 70
     0
340
4EF
  0
ENDTAB
  0
TABLE
  2
BLOCK_RECORD
  5
4F5
330
0
100
AcDbSymbolTable
 70
     1
  0
BLOCK_RECORD
  5
4F6
102
{ACAD_XDICTIONARY
360
51B
102
}
330
4F5
100
AcDbSymbolTableRecord
100
AcDbBlockTableRecord
  2
*Model_Space
340
4F9
  0
BLOCK_RECORD
  5
4FB
330
4F5
100
AcDbSymbolTableRecord
100
AcDbBlockTableRecord
  2
*Paper_Space
340
4FE
  0
BLOCK_RECORD
  5
510
330
4F5
100
AcDbSymbolTableRecord
100
AcDbBlockTableRecord
  2
TerminatorOpen_0.5
340
0
  0
ENDTAB
  0
ENDSEC
  0
SECTION
  2
BLOCKS
  0
BLOCK
  5
4F7
330
4F6
100
AcDbEntity
  8
0
100
AcDbBlockBegin
  2
*Model_Space
 70
     0
 71
     0
 10
0.0
 20
0.0
 30
0.0
  3
*Model_Space
  1

  0
ENDBLK
  5
4F8
330
4F6
100
AcDbEntity
  8
0
100
AcDbBlockEnd
  0
BLOCK
  5
4FC
330
4FB
100
AcDbEntity
 67
     1
  8
0
100
AcDbBlockBegin
  2
*Paper_Space
 70
     0
 71
     0
 10
0.0
 20
0.0
 30
0.0
  3
*Paper_Space
  1

  0
ENDBLK
  5
4FD
330
4FB
100
AcDbEntity
 67
     1
  8
0
100
AcDbBlockEnd
  0
BLOCK
  5
514
330
510
100
AcDbEntity
  8
0
100
AcDbBlockBegin
  2
TerminatorOpen_0.5
 70
     0
 71
     0
 10
0.0
 20
0.0
 30
0.0
  3
TerminatorOpen_0.5
  1

  0
LINE
  5
511
330
510
100
AcDbEntity
  8
0
  6
ByBlock
 62
     0
370
    -2
100
AcDbLine
 10
0.0
 20
0.0
 30
0.0
 11
-1.0
 21
0.0
 31
0.0
  0
LINE
  5
512
330
510
100
AcDbEntity
  8
0
  6
ByBlock
 62
     0
370
    -2
100
AcDbLine
 10
0.0
 20
0.0
 30
0.0
 11
-1.0
 21
0.25
 31
0.0
  0
LINE
  5
513
330
510
100
AcDbEntity
  8
0
  6
ByBlock
 62
     0
370
    -2
100
AcDbLine
 10
0.0
 20
0.0
 30
0.0
 11
-1.0
 21
-0.25
 31
0.0
  0
ENDBLK
  5
515
330
510
100
AcDbEntity
  8
0
100
AcDbBlockEnd
  0
ENDSEC
  0
SECTION
  2
ENTITIES
  0
LINE
  5
5B
330
4F6
100
AcDbEntity
  8
_0
  6
Continuous
 62
     7
370
    13
100
AcDbLine
 10
46.71649
 20
-11.029854
 30
0.0
 11
46.509927
 21
-11.029854
 31
0.0
  0
LINE
  5
5C
330
4F6
100
AcDbEntity
  8
_0
  6
Continuous
 62
     7
370
    13
100
AcDbLine
 10
46.71649
 20
-2.529177
 30
0.0
 11
46.509927
 21
-2.529177
 31
0.0
  0
LINE
  5
5D
330
4F6
100
AcDbEntity
  8
_0
  6
Continuous
 62
     7
370
    13
100
AcDbLine
 10
46.71649
 20
-11.029854
 30
0.0
 11
46.71649
 21
-10.823302
 31
0.0
  0
LINE
  5
5E
330
4F6
100
AcDbEntity
  8
_0
  6
Continuous
 62
     7
370
    13
100
AcDbLine
 10
46.71649
 20
-2.73574
 30
0.0
 11
46.71649
 21
-2.529177
 31
0.0
  0
LINE
  5
5F
330
4F6
100
AcDbEntity
  8
_0
  6
Continuous
 62
     7
370
    13
100
AcDbLine
 10
57.13399
 20
-11.029854
 30
0.0
 11
56.927427
 21
-11.029854
 31
0.0
  0
POINT
  5
60
330
4F6
100
AcDbEntity
  8
_0
  6
Continuous
 62
     7
370
    13
100
AcDbPoint
 10
47.120094
 20
-3.154229
 30
0.0
  0
LINE
  5
61
330
4F6
100
AcDbEntity
  8
_0
  6
Continuous
 62
     7
370
    13
100
AcDbLine
 10
57.13399
 20
-2.529177
 30
0.0
 11
56.927427
 21
-2.529177
 31
0.0
  0
LINE
  5
62
330
4F6
100
AcDbEntity
  8
_0
  6
Continuous
 62
     7
370
    13
100
AcDbLine
 10
57.13399
 20
-11.029854
 30
0.0
 11
57.13399
 21
-10.823302
 31
0.0
  0
LINE
  5
63
330
4F6
100
AcDbEntity
  8
_0
  6
Continuous
 62
     7
370
    13
100
AcDbLine
 10
57.13399
 20
-2.73574
 30
0.0
 11
57.13399
 21
-2.529177
 31
0.0
  0
LINE
  5
64
330
4F6
100
AcDbEntity
  8
BORDER
  6
Continuous
 62
     7
370
    13
100
AcDbLine
 10
47.120094
 20
-10.404813
 30
0.0
 11
47.120094
 21
-3.154229
 31
0.0
  0
LINE
  5
65
330
4F6
100
AcDbEntity
  8
DIM
  6
Continuous
 62
     7
370
    13
100
AcDbLine
 10
55.174657
 20
-5.628854
 30
0.0
 11
55.186813
 21
-5.64101
 31
0.0
  0
LINE
  5
66
330
4F6
100
AcDbEntity
  8
DIM
  6
Continuous
 62
     7
370
    13
100
AcDbLine
 10
55.351438
 20
-5.628854
 30
0.0
 11
55.363605
 21
-5.64101
 31
0.0
  0
LINE
  5
67
330
4F6
100
AcDbEntity
  8
DIM
  6
Continuous
 62
     7
370
    13
100
AcDbLine
 10
54.467501
 20
-5.628854
 30
0.0
 11
54.479647
 21
-5.64101
 31
0.0
  0
LINE
  5
68
330
4F6
100
AcDbEntity
  8
DIM
  6
Continuous
 62
     7
370
    13
100
AcDbLine
 10
54.290699
 20
-5.628854
 30
0.0
 11
54.302855
 21
-5.64101
 31
0.0
  0
LINE
  5
69
330
4F6
100
AcDbEntity
  8
DIM
  6
Continuous
 62
     7
370
    13
100
AcDbLine
 10
54.113907
 20
-5.628854
 30
0.0
 11
54.126063
 21
-5.64101
 31
0.0
  0
LINE
  5
6A
330
4F6
100
AcDbEntity
  8
DIM
  6
Continuous
 62
     7
370
    13
100
AcDbLine
 10
55.207803
 20
-5.595708
 30
0.0
 11
55.253115
 21
-5.64101
 31
0.0
  0
LINE
  5
6B
330
4F6
100
AcDbEntity
  8
DIM
  6
Continuous
 62
     7
370
    13
100
AcDbLine
 10
55.384595
 20
-5.595708
 30
0.0
 11
55.429897
 21
-5.64101
 31
0.0
  0
LINE
  5
6C
330
4F6
100
AcDbEntity
  8
DIM
  6
Continuous
 62
     7
370
    13
100
AcDbLine
 10
54.677428
 20
-5.595708
 30
0.0
 11
54.682449
 21
-5.600729
 31
0.0
  0
LINE
  5
6D
330
4F6
100
AcDbEntity
  8
DIM
  6
Continuous
 62
     7
370
    13
100
AcDbLine
 10
54.500636
 20
-5.595708
 30
0.0
 11
54.545949
 21
-5.64101
 31
0.0
  0
LINE
  5
6E
330
4F6
100
AcDbEntity
  8
DIM
  6
Continuous
 62
     7
370
    13
100
AcDbLine
 10
54.323855
 20
-5.595708
 30
0.0
 11
54.369157
 21
-5.64101
 31
0.0
  0
LINE
  5
6F
330
4F6
100
AcDbEntity
  8
DIM
  6
Continuous
 62
     7
370
    13
100
AcDbLine
 10
54.147053
 20
-5.595708
 30
0.0
 11
54.192365
 21
-5.64101
 31
0.0
  0
LINE
  5
70
330
4F6
100
AcDbEntity
  8
DIM
  6
Continuous
 62
     7
370
    13
100
AcDbLine
 10
55.064157
 20
-5.562562
 30
0.0
 11
55.142615
 21
-5.64101
 31
0.0
  0
LINE
  5
71
330
4F6
100
AcDbEntity
  8
DIM
  6
Continuous
 62
     7
370
    13
100
AcDbLine
 10
55.240959
 20
-5.562562
 30
0.0
 11
55.319407
 21
-5.64101
 31
0.0
  0
LINE
  5
72
330
4F6
100
AcDbEntity
  8
DIM
  6
Continuous
 62
     7
370
    13
100
AcDbLine
 10
55.41774
 20
-5.562562
 30
0.0
 11
55.469251
 21
-5.614052
 31
0.0
  0
LINE
  5
73
330
4F6
100
AcDbEntity
  8
DIM
  6
Continuous
 62
     7
370
    13
100
AcDbLine
 10
54.710584
 20
-5.562562
 30
0.0
 11
54.725834
 21
-5.577812
 31
0.0
  0
LINE
  5
74
330
4F6
100
AcDbEntity
  8
DIM
  6
Continuous
 62
     7
370
    13
100
AcDbLine
 10
54.533782
 20
-5.562562
 30
0.0
 11
54.610168
 21
-5.638937
 31
0.0
  0
LINE
  5
75
330
4F6
100
AcDbEntity
  8
DIM
  6
Continuous
 62
     7
370
    13
100
AcDbLine
 10
54.357001
 20
-5.562562
 30
0.0
 11
54.435449
 21
-5.64101
 31
0.0
  0
LINE
  5
76
330
4F6
100
AcDbEntity
  8
DIM
  6
Continuous
 62
     7
370
    13
100
AcDbLine
 10
54.180199
 20
-5.562562
 30
0.0
 11
54.258657
 21
-5.64101
 31
0.0
  0
LINE
  5
77
330
4F6
100
AcDbEntity
  8
DIM
  6
Continuous
 62
     7
370
    13
100
AcDbLine
 10
54.732678
 20
-5.562562
 30
0.0
 11
54.733459
 21
-5.561781
 31
0.0
  0
LINE
  5
78
330
4F6
100
AcDbEntity
  8
DIM
  6
Continuous
 62
     7
370
    13
100
AcDbLine
 10
54.555897
 20
-5.562562
 30
0.0
 11
54.556657
 21
-5.561781
 31
0.0
  0
LINE
  5
79
330
4F6
100
AcDbEntity
  8
DIM
  6
Continuous
 62
     7
370
    13
100
AcDbLine
 10
54.379095
 20
-5.562562
 30
0.0
 11
54.379876
 21
-5.561781
 31
0.0
  0
LINE
  5
7A
330
4F6
100
AcDbEntity
  8
DIM
  6
Continuous
 62
     7
370
    13
100
AcDbLine
 10
54.202313
 20
-5.562562
 30
0.0
 11
54.203084
 21
-5.561781
 31
0.0
  0
LINE
  5
7B
330
4F6
100
AcDbEntity
  8
DIM
  6
Continuous
 62
     7
370
    13
100
AcDbLine
 10
55.086251
 20
-5.562562
 30
0.0
 11
55.087032
 21
-5.561781
 31
0.0
  0
LINE
  5
7C
330
4F6
100
AcDbEntity
  8
DIM
  6
Continuous
 62
     7
370
    13
100
AcDbLine
 10
55.263053
 20
-5.562562
 30
0.0
 11
55.263834
 21
-5.561781
 31
0.0
  0
LINE
  5
7D
330
4F6
100
AcDbEntity
  8
DIM
  6
Continuous
 62
     7
370
    13
100
AcDbLine
 10
55.439845
 20
-5.562562
 30
0.0
 11
55.440615
 21
-5.561781
 31
0.0
  0
LINE
  5
7E
330
4F6
100
AcDbEntity
  8
DIM
  6
Continuous
 62
     7
370
    13
100
AcDbLine
 10
54.589032
 20
-5.595708
 30
0.0
 11
54.622959
 21
-5.561781
 31
0.0
  0
LINE
  5
7F
330
4F6
100
AcDbEntity
  8
DIM
  6
Continuous
 62
     7
370
    13
100
AcDbLine
 10
54.41224
 20
-5.595708
 30
0.0
 11
54.446178
 21
-5.561781
 31
0.0
  0
LINE
  5
80
330
4F6
100
AcDbEntity
  8
DIM
  6
Continuous
 62
     7
370
    13
100
AcDbLine
 10
54.235459
 20
-5.595708
 30
0.0
 11
54.269376
 21
-5.561781
 31
0.0
  0
LINE
  5
81
330
4F6
100
AcDbEntity
  8
DIM
  6
Continuous
 62
     7
370
    13
100
AcDbLine
 10
55.119407
 20
-5.595708
 30
0.0
 11
55.153334
 21
-5.561781
 31
0.0
  0
LINE
  5
82
330
4F6
100
AcDbEntity
  8
DIM
  6
Continuous
 62
     7
370
    13
100
AcDbLine
 10
55.296199
 20
-5.595708
 30
0.0
 11
55.330126
 21
-5.561781
 31
0.0
  0
LINE
  5
83
330
4F6
100
AcDbEntity
  8
DIM
  6
Continuous
 62
     7
370
    13
100
AcDbLine
 10
54.622188
 20
-5.628854
 30
0.0
 11
54.689251
 21
-5.561781
 31
0.0
  0
LINE
  5
84
330
4F6
100
AcDbEntity
  8
DIM
  6
Continuous
 62
     7
370
    13
100
AcDbLine
 10
54.445397
 20
-5.628854
 30
0.0
 11
54.51247
 21
-5.561781
 31
0.0
  0
LINE
  5
85
330
4F6
100
AcDbEntity
  8
DIM
  6
Continuous
 62
     7
370
    13
100
AcDbLine
 10
54.268605
 20
-5.628854
 30
0.0
 11
54.335678
 21
-5.561781
 31
0.0
  0
LINE
  5
86
330
4F6
100
AcDbEntity
  8
DIM
  6
Continuous
 62
     7
370
    13
100
AcDbLine
 10
54.111709
 20
-5.608958
 30
0.0
 11
54.158886
 21
-5.561781
 31
0.0
  0
LINE
  5
87
330
4F6
100
AcDbEntity
  8
DIM
  6
Continuous
 62
     7
370
    13
100
AcDbLine
 10
55.036824
 20
-5.567802
 30
0.0
 11
55.042834
 21
-5.561781
 31
0.0
  0
LINE
  5
88
330
4F6
100
AcDbEntity
  8
DIM
  6
Continuous
 62
     7
370
    13
100
AcDbLine
 10
55.152553
 20
-5.628854
 30
0.0
 11
55.219626
 21
-5.561781
 31
0.0
  0
LINE
  5
89
330
4F6
100
AcDbEntity
  8
DIM
  6
Continuous
 62
     7
370
    13
100
AcDbLine
 10
55.329345
 20
-5.628854
 30
0.0
 11
55.396428
 21
-5.561781
 31
0.0
  0
LINE
  5
8A
330
4F6
100
AcDbEntity
  8
DIM
  6
Continuous
 62
     7
370
    13
100
AcDbLine
 10
52.543417
 20
-5.628854
 30
0.0
 11
52.555573
 21
-5.64101
 31
0.0
  0
LINE
  5
8B
330
4F6
100
AcDbEntity
  8
DIM
  6
Continuous
 62
     7
370
    13
100
AcDbLine
 10
52.720208
 20
-5.628854
 30
0.0
 11
52.732365
 21
-5.64101
 31
0.0
  0
LINE
  5
8C
330
4F6
100
AcDbEntity
  8
DIM
  6
Continuous
 62
     7
370
    13
100
AcDbLine
 10
51.83626
 20
-5.628854
 30
0.0
 11
51.848406
 21
-5.64101
 31
0.0
  0
LINE
  5
8D
330
4F6
100
AcDbEntity
  8
DIM
  6
Continuous
 62
     7
370
    13
100
AcDbLine
 10
51.659469
 20
-5.628854
 30
0.0
 11
51.671615
 21
-5.64101
 31
0.0
  0
LINE
  5
8E
330
4F6
100
AcDbEntity
  8
DIM
  6
Continuous
 62
     7
370
    13
100
AcDbLine
 10
51.482667
 20
-5.628854
 30
0.0
 11
51.494823
 21
-5.64101
 31
0.0
  0
LINE
  5
8F
330
4F6
100
AcDbEntity
  8
DIM
  6
Continuous
 62
     7
370
    13
100
AcDbLine
 10
52.576573
 20
-5.595708
 30
0.0
 11
52.621875
 21
-5.64101
 31
0.0
  0
LINE
  5
90
330
4F6
100
AcDbEntity
  8
DIM
  6
Continuous
 62
     7
370
    13
100
AcDbLine
 10
52.753354
 20
-5.595708
 30
0.0
 11
52.798656
 21
-5.64101
 31
0.0
  0
LINE
  5
91
330
4F6
100
AcDbEntity
  8
DIM
  6
Continuous
 62
     7
370
    13
100
AcDbLine
 10
52.046187
 20
-5.595708
 30
0.0
 11
52.051219
 21
-5.600729
 31
0.0
  0
LINE
  5
92
330
4F6
100
AcDbEntity
  8
DIM
  6
Continuous
 62
     7
370
    13
100
AcDbLine
 10
51.869396
 20
-5.595708
 30
0.0
 11
51.914698
 21
-5.64101
 31
0.0
  0
LINE
  5
93
330
4F6
100
AcDbEntity
  8
DIM
  6
Continuous
 62
     7
370
    13
100
AcDbLine
 10
51.692604
 20
-5.595708
 30
0.0
 11
51.737917
 21
-5.64101
 31
0.0
  0
LINE
  5
94
330
4F6
100
AcDbEntity
  8
DIM
  6
Continuous
 62
     7
370
    13
100
AcDbLine
 10
51.515812
 20
-5.595708
 30
0.0
 11
51.561125
 21
-5.64101
 31
0.0
  0
LINE
  5
95
330
4F6
100
AcDbEntity
  8
DIM
  6
Continuous
 62
     7
370
    13
100
AcDbLine
 10
52.432917
 20
-5.562552
 30
0.0
 11
52.511375
 21
-5.64101
 31
0.0
  0
LINE
  5
96
330
4F6
100
AcDbEntity
  8
DIM
  6
Continuous
 62
     7
370
    13
100
AcDbLine
 10
52.609708
 20
-5.562552
 30
0.0
 11
52.688167
 21
-5.64101
 31
0.0
  0
LINE
  5
97
330
4F6
100
AcDbEntity
  8
DIM
  6
Continuous
 62
     7
370
    13
100
AcDbLine
 10
52.7865
 20
-5.562552
 30
0.0
 11
52.838
 21
-5.614052
 31
0.0
  0
LINE
  5
98
330
4F6
100
AcDbEntity
  8
DIM
  6
Continuous
 62
     7
370
    13
100
AcDbLine
 10
52.079344
 20
-5.562552
 30
0.0
 11
52.094594
 21
-5.577812
 31
0.0
  0
LINE
  5
99
330
4F6
100
AcDbEntity
  8
DIM
  6
Continuous
 62
     7
370
    13
100
AcDbLine
 10
51.902542
 20
-5.562552
 30
0.0
 11
51.978927
 21
-5.638937
 31
0.0
  0
LINE
  5
9A
330
4F6
100
AcDbEntity
  8
DIM
  6
Continuous
 62
     7
370
    13
100
AcDbLine
 10
51.72576
 20
-5.562552
 30
0.0
 11
51.804219
 21
-5.64101
 31
0.0
  0
LINE
  5
9B
330
4F6
100
AcDbEntity
  8
DIM
  6
Continuous
 62
     7
370
    13
100
AcDbLine
 10
51.548969
 20
-5.562552
 30
0.0
 11
51.627417
 21
-5.64101
 31
0.0
  0
LINE
  5
9C
330
4F6
100
AcDbEntity
  8
DIM
  6
Continuous
 62
     7
370
    13
100
AcDbLine
 10
52.101437
 20
-5.562552
 30
0.0
 11
52.102219
 21
-5.561771
 31
0.0
  0
LINE
  5
9D
330
4F6
100
AcDbEntity
  8
DIM
  6
Continuous
 62
     7
370
    13
100
AcDbLine
 10
51.924646
 20
-5.562552
 30
0.0
 11
51.925427
 21
-5.561771
 31
0.0
  0
LINE
  5
9E
330
4F6
100
AcDbEntity
  8
DIM
  6
Continuous
 62
     7
370
    13
100
AcDbLine
 10
51.747854
 20
-5.562552
 30
0.0
 11
51.748635
 21
-5.561771
 31
0.0
  0
LINE
  5
9F
330
4F6
100
AcDbEntity
  8
DIM
  6
Continuous
 62
     7
370
    13
100
AcDbLine
 10
51.571073
 20
-5.562552
 30
0.0
 11
51.571844
 21
-5.561771
 31
0.0
  0
LINE
  5
A0
330
4F6
100
AcDbEntity
  8
DIM
  6
Continuous
 62
     7
370
    13
100
AcDbLine
 10
52.45501
 20
-5.562552
 30
0.0
 11
52.455792
 21
-5.561771
 31
0.0
  0
LINE
  5
A1
330
4F6
100
AcDbEntity
  8
DIM
  6
Continuous
 62
     7
370
    13
100
AcDbLine
 10
52.631812
 20
-5.562552
 30
0.0
 11
52.632594
 21
-5.561771
 31
0.0
  0
LINE
  5
A2
330
4F6
100
AcDbEntity
  8
DIM
  6
Continuous
 62
     7
370
    13
100
AcDbLine
 10
52.808604
 20
-5.562552
 30
0.0
 11
52.809375
 21
-5.561771
 31
0.0
  0
LINE
  5
A3
330
4F6
100
AcDbEntity
  8
DIM
  6
Continuous
 62
     7
370
    13
100
AcDbLine
 10
51.957802
 20
-5.595708
 30
0.0
 11
51.991719
 21
-5.561771
 31
0.0
  0
LINE
  5
A4
330
4F6
100
AcDbEntity
  8
DIM
  6
Continuous
 62
     7
370
    13
100
AcDbLine
 10
51.781
 20
-5.595708
 30
0.0
 11
51.814927
 21
-5.561771
 31
0.0
  0
LINE
  5
A5
330
4F6
100
AcDbEntity
  8
DIM
  6
Continuous
 62
     7
370
    13
100
AcDbLine
 10
51.604219
 20
-5.595708
 30
0.0
 11
51.638135
 21
-5.561771
 31
0.0
  0
LINE
  5
A6
330
4F6
100
AcDbEntity
  8
DIM
  6
Continuous
 62
     7
370
    13
100
AcDbLine
 10
52.488167
 20
-5.595708
 30
0.0
 11
52.522094
 21
-5.561771
 31
0.0
  0
LINE
  5
A7
330
4F6
100
AcDbEntity
  8
DIM
  6
Continuous
 62
     7
370
    13
100
AcDbLine
 10
52.664958
 20
-5.595708
 30
0.0
 11
52.698885
 21
-5.561771
 31
0.0
  0
LINE
  5
A8
330
4F6
100
AcDbEntity
  8
DIM
  6
Continuous
 62
     7
370
    13
100
AcDbLine
 10
51.990948
 20
-5.628854
 30
0.0
 11
52.058021
 21
-5.561771
 31
0.0
  0
LINE
  5
A9
330
4F6
100
AcDbEntity
  8
DIM
  6
Continuous
 62
     7
370
    13
100
AcDbLine
 10
51.814146
 20
-5.628854
 30
0.0
 11
51.881229
 21
-5.561771
 31
0.0
  0
LINE
  5
AA
330
4F6
100
AcDbEntity
  8
DIM
  6
Continuous
 62
     7
370
    13
100
AcDbLine
 10
51.637365
 20
-5.628854
 30
0.0
 11
51.704437
 21
-5.561771
 31
0.0
  0
LINE
  5
AB
330
4F6
100
AcDbEntity
  8
DIM
  6
Continuous
 62
     7
370
    13
100
AcDbLine
 10
51.480469
 20
-5.608958
 30
0.0
 11
51.527646
 21
-5.561771
 31
0.0
  0
LINE
  5
AC
330
4F6
100
AcDbEntity
  8
DIM
  6
Continuous
 62
     7
370
    13
100
AcDbLine
 10
52.405583
 20
-5.567792
 30
0.0
 11
52.411594
 21
-5.561771
 31
0.0
  0
LINE
  5
AD
330
4F6
100
AcDbEntity
  8
DIM
  6
Continuous
 62
     7
370
    13
100
AcDbLine
 10
52.521313
 20
-5.628854
 30
0.0
 11
52.588396
 21
-5.561771
 31
0.0
  0
LINE
  5
AE
330
4F6
100
AcDbEntity
  8
DIM
  6
Continuous
 62
     7
370
    13
100
AcDbLine
 10
52.698104
 20
-5.628854
 30
0.0
 11
52.765187
 21
-5.561771
 31
0.0
  0
LINE
  5
AF
330
4F6
100
AcDbEntity
  8
DIM
  6
Continuous
 62
     7
370
    13
100
AcDbLine
 10
48.966645
 20
-5.629302
 30
0.0
 11
48.978801
 21
-5.641458
 31
0.0
  0
LINE
  5
B0
330
4F6
100
AcDbEntity
  8
DIM
  6
Continuous
 62
     7
370
    13
100
AcDbLine
 10
49.143426
 20
-5.629302
 30
0.0
 11
49.155582
 21
-5.641458
 31
0.0
  0
LINE
  5
B1
330
4F6
100
AcDbEntity
  8
DIM
  6
Continuous
 62
     7
370
    13
100
AcDbLine
 10
48.259489
 20
-5.629302
 30
0.0
 11
48.271624
 21
-5.641458
 31
0.0
  0
LINE
  5
B2
330
4F6
100
AcDbEntity
  8
DIM
  6
Continuous
 62
     7
370
    13
100
AcDbLine
 10
48.082687
 20
-5.629302
 30
0.0
 11
48.094843
 21
-5.641458
 31
0.0
  0
LINE
  5
B3
330
4F6
100
AcDbEntity
  8
DIM
  6
Continuous
 62
     7
370
    13
100
AcDbLine
 10
47.905895
 20
-5.629302
 30
0.0
 11
47.918051
 21
-5.641458
 31
0.0
  0
LINE
  5
B4
330
4F6
100
AcDbEntity
  8
DIM
  6
Continuous
 62
     7
370
    13
100
AcDbLine
 10
48.999791
 20
-5.596156
 30
0.0
 11
49.045093
 21
-5.641458
 31
0.0
  0
LINE
  5
B5
330
4F6
100
AcDbEntity
  8
DIM
  6
Continuous
 62
     7
370
    13
100
AcDbLine
 10
49.176572
 20
-5.596156
 30
0.0
 11
49.221885
 21
-5.641458
 31
0.0
  0
LINE
  5
B6
330
4F6
100
AcDbEntity
  8
DIM
  6
Continuous
 62
     7
370
    13
100
AcDbLine
 10
48.469416
 20
-5.596156
 30
0.0
 11
48.474437
 21
-5.601177
 31
0.0
  0
LINE
  5
B7
330
4F6
100
AcDbEntity
  8
DIM
  6
Continuous
 62
     7
370
    13
100
AcDbLine
 10
48.292624
 20
-5.596156
 30
0.0
 11
48.337926
 21
-5.641458
 31
0.0
  0
LINE
  5
B8
330
4F6
100
AcDbEntity
  8
DIM
  6
Continuous
 62
     7
370
    13
100
AcDbLine
 10
48.115832
 20
-5.596156
 30
0.0
 11
48.161145
 21
-5.641458
 31
0.0
  0
LINE
  5
B9
330
4F6
100
AcDbEntity
  8
DIM
  6
Continuous
 62
     7
370
    13
100
AcDbLine
 10
47.939041
 20
-5.596156
 30
0.0
 11
47.984343
 21
-5.641458
 31
0.0
  0
LINE
  5
BA
330
4F6
100
AcDbEntity
  8
DIM
  6
Continuous
 62
     7
370
    13
100
AcDbLine
 10
48.856145
 20
-5.56301
 30
0.0
 11
48.934603
 21
-5.641458
 31
0.0
  0
LINE
  5
BB
330
4F6
100
AcDbEntity
  8
DIM
  6
Continuous
 62
     7
370
    13
100
AcDbLine
 10
49.032937
 20
-5.56301
 30
0.0
 11
49.111395
 21
-5.641458
 31
0.0
  0
LINE
  5
BC
330
4F6
100
AcDbEntity
  8
DIM
  6
Continuous
 62
     7
370
    13
100
AcDbLine
 10
49.209728
 20
-5.56301
 30
0.0
 11
49.261228
 21
-5.6145
 31
0.0
  0
LINE
  5
BD
330
4F6
100
AcDbEntity
  8
DIM
  6
Continuous
 62
     7
370
    13
100
AcDbLine
 10
48.502562
 20
-5.56301
 30
0.0
 11
48.517812
 21
-5.57826
 31
0.0
  0
LINE
  5
BE
330
4F6
100
AcDbEntity
  8
DIM
  6
Continuous
 62
     7
370
    13
100
AcDbLine
 10
48.32577
 20
-5.56301
 30
0.0
 11
48.402155
 21
-5.639385
 31
0.0
  0
LINE
  5
BF
330
4F6
100
AcDbEntity
  8
DIM
  6
Continuous
 62
     7
370
    13
100
AcDbLine
 10
48.148989
 20
-5.56301
 30
0.0
 11
48.227437
 21
-5.641458
 31
0.0
  0
LINE
  5
C0
330
4F6
100
AcDbEntity
  8
DIM
  6
Continuous
 62
     7
370
    13
100
AcDbLine
 10
47.972187
 20
-5.56301
 30
0.0
 11
48.050645
 21
-5.641458
 31
0.0
  0
LINE
  5
C1
330
4F6
100
AcDbEntity
  8
DIM
  6
Continuous
 62
     7
370
    13
100
AcDbLine
 10
48.524666
 20
-5.56301
 30
0.0
 11
48.525447
 21
-5.562229
 31
0.0
  0
LINE
  5
C2
330
4F6
100
AcDbEntity
  8
DIM
  6
Continuous
 62
     7
370
    13
100
AcDbLine
 10
48.347874
 20
-5.56301
 30
0.0
 11
48.348645
 21
-5.562229
 31
0.0
  0
LINE
  5
C3
330
4F6
100
AcDbEntity
  8
DIM
  6
Continuous
 62
     7
370
    13
100
AcDbLine
 10
48.171082
 20
-5.56301
 30
0.0
 11
48.171864
 21
-5.562229
 31
0.0
  0
LINE
  5
C4
330
4F6
100
AcDbEntity
  8
DIM
  6
Continuous
 62
     7
370
    13
100
AcDbLine
 10
47.994291
 20
-5.56301
 30
0.0
 11
47.995062
 21
-5.562229
 31
0.0
  0
LINE
  5
C5
330
4F6
100
AcDbEntity
  8
DIM
  6
Continuous
 62
     7
370
    13
100
AcDbLine
 10
48.878239
 20
-5.56301
 30
0.0
 11
48.87902
 21
-5.562229
 31
0.0
  0
LINE
  5
C6
330
4F6
100
AcDbEntity
  8
DIM
  6
Continuous
 62
     7
370
    13
100
AcDbLine
 10
49.055041
 20
-5.56301
 30
0.0
 11
49.055822
 21
-5.562229
 31
0.0
  0
LINE
  5
C7
330
4F6
100
AcDbEntity
  8
DIM
  6
Continuous
 62
     7
370
    13
100
AcDbLine
 10
49.231832
 20
-5.56301
 30
0.0
 11
49.232603
 21
-5.562229
 31
0.0
  0
LINE
  5
C8
330
4F6
100
AcDbEntity
  8
DIM
  6
Continuous
 62
     7
370
    13
100
AcDbLine
 10
48.38103
 20
-5.596156
 30
0.0
 11
48.414947
 21
-5.562229
 31
0.0
  0
LINE
  5
C9
330
4F6
100
AcDbEntity
  8
DIM
  6
Continuous
 62
     7
370
    13
100
AcDbLine
 10
48.204228
 20
-5.596156
 30
0.0
 11
48.238155
 21
-5.562229
 31
0.0
  0
LINE
  5
CA
330
4F6
100
AcDbEntity
  8
DIM
  6
Continuous
 62
     7
370
    13
100
AcDbLine
 10
48.027447
 20
-5.596156
 30
0.0
 11
48.061364
 21
-5.562229
 31
0.0
  0
LINE
  5
CB
330
4F6
100
AcDbEntity
  8
DIM
  6
Continuous
 62
     7
370
    13
100
AcDbLine
 10
48.911385
 20
-5.596156
 30
0.0
 11
48.945322
 21
-5.562229
 31
0.0
  0
LINE
  5
CC
330
4F6
100
AcDbEntity
  8
DIM
  6
Continuous
 62
     7
370
    13
100
AcDbLine
 10
49.088187
 20
-5.596156
 30
0.0
 11
49.122114
 21
-5.562229
 31
0.0
  0
LINE
  5
CD
330
4F6
100
AcDbEntity
  8
DIM
  6
Continuous
 62
     7
370
    13
100
AcDbLine
 10
48.414166
 20
-5.629302
 30
0.0
 11
48.481239
 21
-5.562229
 31
0.0
  0
LINE
  5
CE
330
4F6
100
AcDbEntity
  8
DIM
  6
Continuous
 62
     7
370
    13
100
AcDbLine
 10
48.237374
 20
-5.629302
 30
0.0
 11
48.304457
 21
-5.562229
 31
0.0
  0
LINE
  5
CF
330
4F6
100
AcDbEntity
  8
DIM
  6
Continuous
 62
     7
370
    13
100
AcDbLine
 10
48.060593
 20
-5.629302
 30
0.0
 11
48.127655
 21
-5.562229
 31
0.0
  0
LINE
  5
D0
330
4F6
100
AcDbEntity
  8
DIM
  6
Continuous
 62
     7
370
    13
100
AcDbLine
 10
47.903697
 20
-5.609406
 30
0.0
 11
47.950874
 21
-5.562229
 31
0.0
  0
LINE
  5
D1
330
4F6
100
AcDbEntity
  8
DIM
  6
Continuous
 62
     7
370
    13
100
AcDbLine
 10
48.828812
 20
-5.56825
 30
0.0
 11
48.834822
 21
-5.562229
 31
0.0
  0
LINE
  5
D2
330
4F6
100
AcDbEntity
  8
DIM
  6
Continuous
 62
     7
370
    13
100
AcDbLine
 10
48.944541
 20
-5.629302
 30
0.0
 11
49.011614
 21
-5.562229
 31
0.0
  0
LINE
  5
D3
330
4F6
100
AcDbEntity
  8
DIM
  6
Continuous
 62
     7
370
    13
100
AcDbLine
 10
49.121332
 20
-5.629302
 30
0.0
 11
49.188416
 21
-5.562229
 31
0.0
  0
SOLID
  5
D5
330
4F6
100
AcDbEntity
  8
REF
  6
Continuous
 62
     7
370
    13
100
AcDbTrace
 10
-54.607147
 20
-4.931792
 30
0.0
 11
-54.622522
 21
-4.925365
 31
0.0
 12
-54.595574
 22
-4.882427
 32
0.0
 13
-54.595574
 23
-4.882427
 33
0.0
210
0.0
220
0.0
230
-1.0
  0
LINE
  5
D6
330
4F6
100
AcDbEntity
  8
REF
  6
Continuous
 62
     7
370
    13
100
AcDbLine
 10
54.614834
 20
-4.928573
 30
0.0
 11
54.70023
 21
-5.133219
 31
0.0
  0
LINE
  5
D7
330
4F6
100
AcDbEntity
  8
REF
  6
Continuous
 62
     7
370
    13
100
AcDbLine
 10
54.70023
 20
-5.133219
 30
0.0
 11
54.672636
 21
-5.131656
 31
0.0
  0
LINE
  5
DE
330
4F6
100
AcDbEntity
  8
REF
  6
Continuous
 62
     7
370
    13
100
AcDbLine
 10
48.490468
 20
-5.133219
 30
0.0
 11
48.462885
 21
-5.131656
 31
0.0
  0
SOLID
  5
DF
330
4F6
100
AcDbEntity
  8
REF
  6
Continuous
 62
     7
370
    13
100
AcDbTrace
 10
-48.397385
 20
-4.931792
 30
0.0
 11
-48.41276
 21
-4.925365
 31
0.0
 12
-48.385822
 22
-4.882427
 32
0.0
 13
-48.385822
 23
-4.882427
 33
0.0
210
0.0
220
0.0
230
-1.0
  0
LINE
  5
E0
330
4F6
100
AcDbEntity
  8
REF
  6
Continuous
 62
     7
370
    13
100
AcDbLine
 10
48.405072
 20
-4.928573
 30
0.0
 11
48.490468
 21
-5.133219
 31
0.0
  0
LINE
  5
102
330
4F6
100
AcDbEntity
  8
DEFPOINTS
  6
Continuous
 62
     7
370
    13
100
AcDbLine
 10
53.287208
 20
-5.614365
 30
0.0
 11
53.287208
 21
-6.311708
 31
0.0
  0
LINE
  5
103
330
4F6
100
AcDbEntity
  8
REF
  6
Continuous
 62
     7
370
    13
100
AcDbLine
 10
52.00174
 20
-5.847656
 30
0.0
 11
51.921542
 21
-5.847656
 31
0.0
  0
LINE
  5
104
330
4F6
100
AcDbEntity
  8
REF
  6
Continuous
 62
     7
370
    13
100
AcDbLine
 10
52.181031
 20
-5.741844
 30
0.0
 11
52.00174
 21
-5.847656
 31
0.0
  0
SOLID
  5
105
330
4F6
100
AcDbEntity
  8
REF
  6
Continuous
 62
     7
370
    13
100
AcDbTrace
 10
-52.176792
 20
-5.734656
 30
0.0
 11
-52.18526
 21
-5.749021
 31
0.0
 12
-52.224094
 22
-5.716427
 32
0.0
 13
-52.224094
 23
-5.716427
 33
0.0
210
0.0
220
0.0
230
-1.0
  0
LINE
  5
106
330
4F6
100
AcDbEntity
  8
REF
  6
Continuous
 62
     7
370
    13
100
AcDbLine
 10
52.203344
 20
-4.9485
 30
0.0
 11
52.417281
 21
-5.001979
 31
0.0
  0
SOLID
  5
107
330
4F6
100
AcDbEntity
  8
REF
  6
Continuous
 62
     7
370
    13
100
AcDbTrace
 10
-52.201323
 20
-4.956583
 30
0.0
 11
-52.205365
 21
-4.940417
 31
0.0
 12
-52.154833
 22
-4.936375
 32
0.0
 13
-52.154833
 23
-4.936375
 33
0.0
210
0.0
220
0.0
230
-1.0
  0
LINE
  5
108
330
4F6
100
AcDbEntity
  8
REF
  6
Continuous
 62
     7
370
    13
100
AcDbLine
 10
52.417281
 20
-5.001979
 30
0.0
 11
52.471969
 21
-5.001979
 31
0.0
  0
LINE
  5
109
330
4F6
100
AcDbEntity
  8
REF
  6
Continuous
 62
     7
370
    13
100
AcDbLine
 10
52.188208
 20
-4.69226
 30
0.0
 11
52.417281
 21
-5.001979
 31
0.0
  0
SOLID
  5
10A
330
4F6
100
AcDbEntity
  8
REF
  6
Continuous
 62
     7
370
    13
100
AcDbTrace
 10
-52.18151
 20
-4.697208
 30
0.0
 11
-52.194917
 21
-4.687302
 31
0.0
 12
-52.158479
 22
-4.652052
 32
0.0
 13
-52.158479
 23
-4.652052
 33
0.0
210
0.0
220
0.0
230
-1.0
  0
LINE
  5
10B
330
4F6
100
AcDbEntity
  8
REF
  6
Continuous
 62
     7
370
    13
100
AcDbLine
 10
51.885094
 20
-6.080938
 30
0.0
 11
51.841354
 21
-6.080938
 31
0.0
  0
LINE
  5
10C
330
4F6
100
AcDbEntity
  8
REF
  6
Continuous
 62
     7
370
    13
100
AcDbLine
 10
52.133354
 20
-6.223687
 30
0.0
 11
51.885094
 21
-6.080938
 31
0.0
  0
SOLID
  5
10D
330
4F6
100
AcDbEntity
  8
REF
  6
Continuous
 62
     7
370
    13
100
AcDbTrace
 10
52.13751
 20
-6.216458
 30
0.0
 11
52.129198
 21
-6.230917
 31
0.0
 12
52.176708
 22
-6.248615
 32
0.0
 13
52.176708
 23
-6.248615
 33
0.0
  0
CIRCLE
  5
10E
330
4F6
100
AcDbEntity
  8
2-30G
  6
Continuous
 62
     7
370
    13
100
AcDbCircle
 10
52.212261
 20
-6.242664
 30
0.0
 40
0.025001999999997
  0
LINE
  5
10F
330
4F6
100
AcDbEntity
  8
DEFPOINTS
  6
Continuous
 62
     7
370
    13
100
AcDbLine
 10
50.797896
 20
-4.691958
 30
0.0
 11
50.797896
 21
-4.735885
 31
0.0
  0
SOLID
  5
110
330
4F6
100
AcDbEntity
  8
DEFPOINTS
  6
Continuous
 62
     7
370
    13
100
AcDbTrace
 10
50.806229
 20
-4.691958
 30
0.0
 11
50.789562
 21
-4.691958
 31
0.0
 12
50.797896
 22
-4.641948
 32
0.0
 13
50.797896
 23
-4.641948
 33
0.0
  0
LINE
  5
111
330
4F6
100
AcDbEntity
  8
DEFPOINTS
  6
Continuous
 62
     7
370
    13
100
AcDbLine
 10
50.605635
 20
-4.641344
 30
0.0
 11
50.888615
 21
-4.641344
 31
0.0
  0
LINE
  5
113
330
4F6
100
AcDbEntity
  8
DEFPOINTS
  6
Continuous
 62
     7
370
    13
100
AcDbLine
 10
50.797896
 20
-4.456948
 30
0.0
 11
50.797896
 21
-4.514052
 31
0.0
  0
SOLID
  5
114
330
4F6
100
AcDbEntity
  8
DEFPOINTS
  6
Continuous
 62
     7
370
    13
100
AcDbTrace
 10
50.806229
 20
-4.514052
 30
0.0
 11
50.789562
 21
-4.514052
 31
0.0
 12
50.797896
 22
-4.564052
 32
0.0
 13
50.797896
 23
-4.564052
 33
0.0
  0
LINE
  5
115
330
4F6
100
AcDbEntity
  8
DEFPOINTS
  6
Continuous
 62
     7
370
    13
100
AcDbLine
 10
50.605635
 20
-4.794437
 30
0.0
 11
50.888615
 21
-4.794437
 31
0.0
  0
SOLID
  5
116
330
4F6
100
AcDbEntity
  8
DEFPOINTS
  6
Continuous
 62
     7
370
    13
100
AcDbTrace
 10
50.682302
 20
-4.61176
 30
0.0
 11
50.665625
 21
-4.61176
 31
0.0
 12
50.673969
 22
-4.56176
 32
0.0
 13
50.673969
 23
-4.56176
 33
0.0
  0
LINE
  5
117
330
4F6
100
AcDbEntity
  8
DEFPOINTS
  6
Continuous
 62
     7
370
    13
100
AcDbLine
 10
50.673969
 20
-4.294646
 30
0.0
 11
50.673969
 21
-4.747333
 31
0.0
  0
SOLID
  5
118
330
4F6
100
AcDbEntity
  8
DEFPOINTS
  6
Continuous
 62
     7
370
    13
100
AcDbTrace
 10
50.682302
 20
-4.747333
 30
0.0
 11
50.665625
 21
-4.747333
 31
0.0
 12
50.673969
 22
-4.797344
 32
0.0
 13
50.673969
 23
-4.797344
 33
0.0
  0
LINE
  5
11A
330
4F6
100
AcDbEntity
  8
DEFPOINTS
  6
Continuous
 62
     7
370
    13
100
AcDbLine
 10
50.490604
 20
-4.932948
 30
0.0
 11
50.888615
 21
-4.932948
 31
0.0
  0
SOLID
  5
11C
330
4F6
100
AcDbEntity
  8
DEFPOINTS
  6
Continuous
 62
     7
370
    13
100
AcDbTrace
 10
50.56201
 20
-4.8895
 30
0.0
 11
50.545333
 21
-4.8895
 31
0.0
 12
50.553677
 22
-4.9395
 32
0.0
 13
50.553677
 23
-4.9395
 33
0.0
  0
LINE
  5
11D
330
4F6
100
AcDbEntity
  8
DEFPOINTS
  6
Continuous
 62
     7
370
    13
100
AcDbLine
 10
50.553677
 20
-4.61176
 30
0.0
 11
50.553677
 21
-4.8895
 31
0.0
  0
SOLID
  5
11E
330
4F6
100
AcDbEntity
  8
DEFPOINTS
  6
Continuous
 62
     7
370
    13
100
AcDbTrace
 10
50.56201
 20
-4.61176
 30
0.0
 11
50.545333
 21
-4.61176
 31
0.0
 12
50.553677
 22
-4.56176
 32
0.0
 13
50.553677
 23
-4.56176
 33
0.0
  0
SOLID
  5
122
330
4F6
100
AcDbEntity
  8
DEFPOINTS
  6
Continuous
 62
     7
370
    13
100
AcDbTrace
 10
52.678135
 20
-4.692042
 30
0.0
 11
52.661469
 21
-4.692042
 31
0.0
 12
52.669802
 22
-4.642042
 32
0.0
 13
52.669802
 23
-4.642042
 33
0.0
  0
SOLID
  5
123
330
4F6
100
AcDbEntity
  8
DEFPOINTS
  6
Continuous
 62
     7
370
    13
100
AcDbTrace
 10
52.678135
 20
-4.514427
 30
0.0
 11
52.661469
 21
-4.514427
 31
0.0
 12
52.669802
 22
-4.564437
 32
0.0
 13
52.669802
 23
-4.564437
 33
0.0
  0
LINE
  5
124
330
4F6
100
AcDbEntity
  8
DEFPOINTS
  6
Continuous
 62
     7
370
    13
100
AcDbLine
 10
52.669802
 20
-4.464427
 30
0.0
 11
52.669802
 21
-4.414417
 31
0.0
  0
LINE
  5
125
330
4F6
100
AcDbEntity
  8
DEFPOINTS
  6
Continuous
 62
     7
370
    13
100
AcDbLine
 10
52.669802
 20
-4.692042
 30
0.0
 11
52.669802
 21
-4.742052
 31
0.0
  0
LINE
  5
126
330
4F6
100
AcDbEntity
  8
DEFPOINTS
  6
Continuous
 62
     7
370
    13
100
AcDbLine
 10
52.669802
 20
-4.514427
 30
0.0
 11
52.669802
 21
-4.464427
 31
0.0
  0
LINE
  5
127
330
4F6
100
AcDbEntity
  8
DEFPOINTS
  6
Continuous
 62
     7
370
    13
100
AcDbLine
 10
52.360656
 20
-4.564437
 30
0.0
 11
52.719802
 21
-4.564437
 31
0.0
  0
LINE
  5
128
330
4F6
100
AcDbEntity
  8
DEFPOINTS
  6
Continuous
 62
     7
370
    13
100
AcDbLine
 10
52.203833
 20
-4.642042
 30
0.0
 11
52.719802
 21
-4.642042
 31
0.0
  0
SOLID
  5
12A
330
4F6
100
AcDbEntity
  8
DEFPOINTS
  6
Continuous
 62
     7
370
    13
100
AcDbTrace
 10
52.678135
 20
-4.692042
 30
0.0
 11
52.661469
 21
-4.692042
 31
0.0
 12
52.669802
 22
-4.642042
 32
0.0
 13
52.669802
 23
-4.642042
 33
0.0
  0
SOLID
  5
12B
330
4F6
100
AcDbEntity
  8
DEFPOINTS
  6
Continuous
 62
     7
370
    13
100
AcDbTrace
 10
52.678135
 20
-4.882948
 30
0.0
 11
52.661469
 21
-4.882948
 31
0.0
 12
52.669802
 22
-4.932948
 32
0.0
 13
52.669802
 23
-4.932948
 33
0.0
  0
LINE
  5
12C
330
4F6
100
AcDbEntity
  8
DEFPOINTS
  6
Continuous
 62
     7
370
    13
100
AcDbLine
 10
52.669802
 20
-4.882948
 30
0.0
 11
52.669802
 21
-4.692042
 31
0.0
  0
LINE
  5
12D
330
4F6
100
AcDbEntity
  8
DEFPOINTS
  6
Continuous
 62
     7
370
    13
100
AcDbLine
 10
52.203833
 20
-4.642042
 30
0.0
 11
52.719802
 21
-4.642042
 31
0.0
  0
LINE
  5
12E
330
4F6
100
AcDbEntity
  8
DEFPOINTS
  6
Continuous
 62
     7
370
    13
100
AcDbLine
 10
52.203833
 20
-4.932948
 30
0.0
 11
52.719802
 21
-4.932948
 31
0.0
  0
LINE
  5
12F
330
4F6
100
AcDbEntity
  8
2-30G
  6
Continuous
 62
     7
370
    13
100
AcDbLine
 10
50.916917
 20
-5.009406
 30
0.0
 11
51.066927
 21
-5.009406
 31
0.0
  0
LINE
  5
130
330
4F6
100
AcDbEntity
  8
DEFPOINTS
  6
Continuous
 62
     7
370
    13
100
AcDbLine
 10
50.888615
 20
-4.56176
 30
0.0
 11
50.365146
 21
-4.56176
 31
0.0
  0
SOLID
  5
131
330
4F6
100
AcDbEntity
  8
DEFPOINTS
  6
Continuous
 62
     7
370
    13
100
AcDbTrace
 10
50.42349
 20
-4.61176
 30
0.0
 11
50.406823
 21
-4.61176
 31
0.0
 12
50.415156
 22
-4.56176
 32
0.0
 13
50.415156
 23
-4.56176
 33
0.0
  0
LINE
  5
133
330
4F6
100
AcDbEntity
  8
DEFPOINTS
  6
Continuous
 62
     7
370
    13
100
AcDbLine
 10
50.415156
 20
-4.61176
 30
0.0
 11
50.415156
 21
-4.95876
 31
0.0
  0
SOLID
  5
134
330
4F6
100
AcDbEntity
  8
DEFPOINTS
  6
Continuous
 62
     7
370
    13
100
AcDbTrace
 10
50.42349
 20
-4.95876
 30
0.0
 11
50.406823
 21
-4.95876
 31
0.0
 12
50.415156
 22
-5.00876
 32
0.0
 13
50.415156
 23
-5.00876
 33
0.0
  0
LINE
  5
135
330
4F6
100
AcDbEntity
  8
DEFPOINTS
  6
Continuous
 62
     7
370
    13
100
AcDbLine
 10
50.888615
 20
-5.00876
 30
0.0
 11
50.365146
 21
-5.00876
 31
0.0
  0
LINE
  5
136
330
4F6
100
AcDbEntity
  8
REF
  6
Continuous
 62
     7
370
    13
100
AcDbLine
 10
51.173812
 20
-4.325229
 30
0.0
 11
51.215125
 21
-4.325229
 31
0.0
  0
LINE
  5
137
330
4F6
100
AcDbEntity
  8
REF
  6
Continuous
 62
     7
370
    13
100
AcDbLine
 10
50.992781
 20
-4.583115
 30
0.0
 11
51.173812
 21
-4.325229
 31
0.0
  0
SOLID
  5
138
330
4F6
100
AcDbEntity
  8
REF
  6
Continuous
 62
     7
370
    13
100
AcDbTrace
 10
50.998146
 20
-4.58949
 30
0.0
 11
50.987427
 21
-4.576729
 31
0.0
 12
50.95451
 22
-4.615292
 32
0.0
 13
50.95451
 23
-4.615292
 33
0.0
  0
LINE
  5
139
330
4F6
100
AcDbEntity
  8
REF
  6
Continuous
 62
     7
370
    13
100
AcDbLine
 10
51.055635
 20
-4.72775
 30
0.0
 11
51.173812
 21
-4.325229
 31
0.0
  0
SOLID
  5
13A
330
4F6
100
AcDbEntity
  8
REF
  6
Continuous
 62
     7
370
    13
100
AcDbTrace
 10
-51.063385
 20
-4.730833
 30
0.0
 11
-51.047896
 21
-4.724667
 31
0.0
 12
-51.037146
 22
-4.774208
 32
0.0
 13
-51.037146
 23
-4.774208
 33
0.0
210
0.0
220
0.0
230
-1.0
  0
LINE
  5
13B
330
4F6
100
AcDbEntity
  8
REF
  6
Continuous
 62
     7
370
    13
100
AcDbLine
 10
51.053635
 20
-4.865854
 30
0.0
 11
51.173812
 21
-4.325229
 31
0.0
  0
SOLID
  5
13C
330
4F6
100
AcDbEntity
  8
REF
  6
Continuous
 62
     7
370
    13
100
AcDbTrace
 10
-51.061677
 20
-4.868073
 30
0.0
 11
-51.045604
 21
-4.863646
 31
0.0
 12
-51.040323
 22
-4.914052
 32
0.0
 13
-51.040323
 23
-4.914052
 33
0.0
210
0.0
220
0.0
230
-1.0
  0
CIRCLE
  5
13D
330
4F6
100
AcDbEntity
  8
2-30G
  6
Continuous
 62
     7
370
    13
100
AcDbCircle
 10
50.94588
 20
-4.638005
 30
0.0
 40
0.015001199999997
  0
CIRCLE
  5
13E
330
4F6
100
AcDbEntity
  8
2-30G
  6
Continuous
 62
     7
370
    13
100
AcDbCircle
 10
51.034872
 20
-4.93042
 30
0.0
 40
0.015001199999997
  0
LINE
  5
13F
330
4F6
100
AcDbEntity
  8
2-30G
  6
Continuous
 62
     7
370
    13
100
AcDbLine
 10
52.111635
 20
-5.212823
 30
0.0
 11
52.111635
 21
-4.562146
 31
0.0
  0
LINE
  5
140
330
4F6
100
AcDbEntity
  8
2-30G
  6
Continuous
 62
     7
370
    13
100
AcDbLine
 10
52.121635
 20
-5.212823
 30
0.0
 11
52.121635
 21
-4.562146
 31
0.0
  0
LINE
  5
141
330
4F6
100
AcDbEntity
  8
REF
  6
Continuous
 62
     7
370
    13
100
AcDbLine
 10
51.538323
 20
-5.088875
 30
0.0
 11
51.60825
 21
-5.088875
 31
0.0
  0
LINE
  5
142
330
4F6
100
AcDbEntity
  8
REF
  6
Continuous
 62
     7
370
    13
100
AcDbLine
 10
51.769802
 20
-4.815542
 30
0.0
 11
51.538323
 21
-5.088875
 31
0.0
  0
SOLID
  5
143
330
4F6
100
AcDbEntity
  8
REF
  6
Continuous
 62
     7
370
    13
100
AcDbTrace
 10
51.763448
 20
-4.810156
 30
0.0
 11
51.776167
 21
-4.820927
 31
0.0
 12
51.802125
 22
-4.777385
 32
0.0
 13
51.802125
 23
-4.777385
 33
0.0
  0
LINE
  5
145
330
4F6
100
AcDbEntity
  8
DEFPOINTS
  6
Continuous
 62
     7
370
    13
100
AcDbLine
 10
52.589125
 20
-3.541365
 30
0.0
 11
52.589125
 21
-3.62276
 31
0.0
  0
SOLID
  5
146
330
4F6
100
AcDbEntity
  8
DEFPOINTS
  6
Continuous
 62
     7
370
    13
100
AcDbTrace
 10
52.597458
 20
-3.62276
 30
0.0
 11
52.580792
 21
-3.62276
 31
0.0
 12
52.589125
 22
-3.67276
 32
0.0
 13
52.589125
 23
-3.67276
 33
0.0
  0
LINE
  5
147
330
4F6
100
AcDbEntity
  8
2-30G
  6
Continuous
 62
     7
370
    13
100
AcDbLine
 10
52.734646
 20
-3.67276
 30
0.0
 11
52.574354
 21
-3.67276
 31
0.0
  0
SOLID
  5
149
330
4F6
100
AcDbEntity
  8
DEFPOINTS
  6
Continuous
 62
     7
370
    13
100
AcDbTrace
 10
52.597458
 20
-3.953833
 30
0.0
 11
52.580792
 21
-3.953833
 31
0.0
 12
52.589125
 22
-4.003844
 32
0.0
 13
52.589125
 23
-4.003844
 33
0.0
  0
SOLID
  5
14A
330
4F6
100
AcDbEntity
  8
DEFPOINTS
  6
Continuous
 62
     7
370
    13
100
AcDbTrace
 10
52.597458
 20
-3.762396
 30
0.0
 11
52.580792
 21
-3.762396
 31
0.0
 12
52.589125
 22
-3.712385
 32
0.0
 13
52.589125
 23
-3.712385
 33
0.0
  0
LINE
  5
14B
330
4F6
100
AcDbEntity
  8
DEFPOINTS
  6
Continuous
 62
     7
370
    13
100
AcDbLine
 10
52.589125
 20
-3.762396
 30
0.0
 11
52.589125
 21
-3.953833
 31
0.0
  0
LINE
  5
14C
330
4F6
100
AcDbEntity
  8
DEFPOINTS
  6
Continuous
 62
     7
370
    13
100
AcDbLine
 10
52.734646
 20
-4.003844
 30
0.0
 11
52.574354
 21
-4.003844
 31
0.0
  0
LINE
  5
14D
330
4F6
100
AcDbEntity
  8
DEFPOINTS
  6
Continuous
 62
     7
370
    13
100
AcDbLine
 10
52.657135
 20
-3.712385
 30
0.0
 11
52.574354
 21
-3.712385
 31
0.0
  0
SOLID
  5
14F
330
4F6
100
AcDbEntity
  8
DEFPOINTS
  6
Continuous
 62
     7
370
    13
100
AcDbTrace
 10
53.308656
 20
-3.890323
 30
0.0
 11
53.29199
 21
-3.890323
 31
0.0
 12
53.300323
 22
-3.940323
 32
0.0
 13
53.300323
 23
-3.940323
 33
0.0
  0
SOLID
  5
150
330
4F6
100
AcDbEntity
  8
DEFPOINTS
  6
Continuous
 62
     7
370
    13
100
AcDbTrace
 10
53.308656
 20
-3.794427
 30
0.0
 11
53.29199
 21
-3.794427
 31
0.0
 12
53.300323
 22
-3.744427
 32
0.0
 13
53.300323
 23
-3.744427
 33
0.0
  0
LINE
  5
151
330
4F6
100
AcDbEntity
  8
DEFPOINTS
  6
Continuous
 62
     7
370
    13
100
AcDbLine
 10
53.300323
 20
-3.794427
 30
0.0
 11
53.300323
 21
-3.890323
 31
0.0
  0
LINE
  5
152
330
4F6
100
AcDbEntity
  8
DEFPOINTS
  6
Continuous
 62
     7
370
    13
100
AcDbLine
 10
53.243792
 20
-3.940323
 30
0.0
 11
53.321406
 21
-3.940323
 31
0.0
  0
LINE
  5
153
330
4F6
100
AcDbEntity
  8
DEFPOINTS
  6
Continuous
 62
     7
370
    13
100
AcDbLine
 10
53.24426
 20
-3.744427
 30
0.0
 11
53.321406
 21
-3.744427
 31
0.0
  0
LINE
  5
154
330
4F6
100
AcDbEntity
  8
2-30G
  6
DGN Style 7
 62
     7
370
    13
100
AcDbLine
 10
52.696521
 20
-3.730563
 30
0.0
 11
52.696521
 21
-3.692479
 31
0.0
  0
LINE
  5
155
330
4F6
100
AcDbEntity
  8
2-30G
  6
DGN Style 7
 62
     7
370
    13
100
AcDbLine
 10
52.677479
 20
-3.711521
 30
0.0
 11
52.715573
 21
-3.711521
 31
0.0
  0
LINE
  5
156
330
4F6
100
AcDbEntity
  8
2-30G
  6
DGN Style 7
 62
     7
370
    13
100
AcDbLine
 10
52.880917
 20
-3.764677
 30
0.0
 11
52.880917
 21
-3.726594
 31
0.0
  0
LINE
  5
157
330
4F6
100
AcDbEntity
  8
2-30G
  6
DGN Style 7
 62
     7
370
    13
100
AcDbLine
 10
52.861865
 20
-3.745635
 30
0.0
 11
52.899958
 21
-3.745635
 31
0.0
  0
LINE
  5
158
330
4F6
100
AcDbEntity
  8
2-30G
  6
DGN Style 7
 62
     7
370
    13
100
AcDbLine
 10
52.775271
 20
-4.02251
 30
0.0
 11
52.775271
 21
-3.984427
 31
0.0
  0
LINE
  5
159
330
4F6
100
AcDbEntity
  8
2-30G
  6
DGN Style 7
 62
     7
370
    13
100
AcDbLine
 10
52.756229
 20
-4.003469
 30
0.0
 11
52.794323
 21
-4.003469
 31
0.0
  0
LINE
  5
15A
330
4F6
100
AcDbEntity
  8
2-30G
  6
DGN Style 7
 62
     7
370
    13
100
AcDbLine
 10
53.179646
 20
-3.94026
 30
0.0
 11
53.217729
 21
-3.94026
 31
0.0
  0
LINE
  5
15B
330
4F6
100
AcDbEntity
  8
2-30G
  6
DGN Style 7
 62
     7
370
    13
100
AcDbLine
 10
53.198687
 20
-3.959302
 30
0.0
 11
53.198687
 21
-3.921208
 31
0.0
  0
LINE
  5
15C
330
4F6
100
AcDbEntity
  8
2-30G
  6
DGN Style 7
 62
     7
370
    13
100
AcDbLine
 10
52.849146
 20
-3.73976
 30
0.0
 11
52.684229
 21
-3.70924
 31
0.0
  0
LINE
  5
15D
330
4F6
100
AcDbEntity
  8
2-30G
  6
DGN Style 7
 62
     7
370
    13
100
AcDbLine
 10
52.66475
 20
-3.705635
 30
0.0
 11
52.628406
 21
-3.698917
 31
0.0
  0
LINE
  5
15E
330
4F6
100
AcDbEntity
  8
2-30G
  6
DGN Style 7
 62
     7
370
    13
100
AcDbLine
 10
52.953677
 20
-3.759104
 30
0.0
 11
52.868625
 21
-3.743365
 31
0.0
  0
CIRCLE
  5
15F
330
4F6
100
AcDbEntity
  8
2-30G
  6
Continuous
 62
     7
370
    13
100
AcDbCircle
 10
52.775276
 20
-4.003473
 30
0.0
 40
0.012501
  0
CIRCLE
  5
160
330
4F6
100
AcDbEntity
  8
2-30G
  6
Continuous
 62
     7
370
    13
100
AcDbCircle
 10
52.880914
 20
-3.745637
 30
0.0
 40
0.012501
  0
CIRCLE
  5
161
330
4F6
100
AcDbEntity
  8
2-30G
  6
Continuous
 62
     7
370
    13
100
AcDbCircle
 10
52.696523
 20
-3.711518
 30
0.0
 40
0.012501
  0
CIRCLE
  5
162
330
4F6
100
AcDbEntity
  8
2-30G
  6
Continuous
 62
     7
370
    13
100
AcDbCircle
 10
53.198686
 20
-3.940256
 30
0.0
 40
0.012501
  0
LINE
  5
163
330
4F6
100
AcDbEntity
  8
2-30G
  6
Continuous
 62
     7
370
    13
100
AcDbLine
 10
52.425729
 20
-3.63575
 30
0.0
 11
52.425729
 21
-4.206552
 31
0.0
  0
LINE
  5
164
330
4F6
100
AcDbEntity
  8
2-30G
  6
Continuous
 62
     7
370
    13
100
AcDbLine
 10
52.49974
 20
-3.637312
 30
0.0
 11
52.49974
 21
-4.202896
 31
0.0
  0
LINE
  5
165
330
4F6
100
AcDbEntity
  8
2-30G
  6
Continuous
 62
     7
370
    13
100
AcDbLine
 10
52.79976
 20
-3.673563
 30
0.0
 11
52.79976
 21
-4.219208
 31
0.0
  0
LINE
  5
166
330
4F6
100
AcDbEntity
  8
2-30G
  6
Continuous
 62
     7
370
    13
100
AcDbLine
 10
52.67475
 20
-3.673563
 30
0.0
 11
52.67475
 21
-4.219208
 31
0.0
  0
LINE
  5
167
330
4F6
100
AcDbEntity
  8
2-30G
  6
Continuous
 62
     7
370
    13
100
AcDbLine
 10
52.66475
 20
-3.673563
 30
0.0
 11
52.66475
 21
-4.217646
 31
0.0
  0
LINE
  5
168
330
4F6
100
AcDbEntity
  8
2-30G
  6
Continuous
 62
     7
370
    13
100
AcDbLine
 10
52.435729
 20
-3.637312
 30
0.0
 11
52.435729
 21
-4.208115
 31
0.0
  0
LINE
  5
169
330
4F6
100
AcDbEntity
  8
2-30G
  6
Continuous
 62
     7
370
    13
100
AcDbLine
 10
52.67475
 20
-3.673563
 30
0.0
 11
52.79976
 21
-3.673563
 31
0.0
  0
LINE
  5
16A
330
4F6
100
AcDbEntity
  8
2-30G
  6
Continuous
 62
     7
370
    13
100
AcDbLine
 10
52.49824
 20
-4.202667
 30
0.0
 11
52.66475
 21
-4.207906
 31
0.0
  0
LINE
  5
16B
330
4F6
100
AcDbEntity
  8
2-30G
  6
Continuous
 62
     7
370
    13
100
AcDbLine
 10
52.67475
 20
-4.219208
 30
0.0
 11
52.79976
 21
-4.219208
 31
0.0
  0
LINE
  5
16C
330
4F6
100
AcDbEntity
  8
2-30G
  6
Continuous
 62
     7
370
    13
100
AcDbLine
 10
52.66475
 20
-4.217646
 30
0.0
 11
52.67475
 21
-4.219208
 31
0.0
  0
LINE
  5
16D
330
4F6
100
AcDbEntity
  8
2-30G
  6
Continuous
 62
     7
370
    13
100
AcDbLine
 10
52.425729
 20
-4.206552
 30
0.0
 11
52.435729
 21
-4.208115
 31
0.0
  0
LINE
  5
16E
330
4F6
100
AcDbEntity
  8
2-30G
  6
Continuous
 62
     7
370
    13
100
AcDbLine
 10
52.435729
 20
-4.208115
 30
0.0
 11
52.49824
 21
-4.202667
 31
0.0
  0
LINE
  5
16F
330
4F6
100
AcDbEntity
  8
2-30G
  6
Continuous
 62
     7
370
    13
100
AcDbLine
 10
52.56725
 20
-3.637312
 30
0.0
 11
52.56725
 21
-3.647417
 31
0.0
  0
LINE
  5
170
330
4F6
100
AcDbEntity
  8
2-30G
  6
Continuous
 62
     7
370
    13
100
AcDbLine
 10
52.435729
 20
-3.637312
 30
0.0
 11
52.56725
 21
-3.637312
 31
0.0
  0
LINE
  5
171
330
4F6
100
AcDbEntity
  8
2-30G
  6
Continuous
 62
     7
370
    13
100
AcDbLine
 10
52.425729
 20
-3.63575
 30
0.0
 11
52.435729
 21
-3.637312
 31
0.0
  0
LINE
  5
172
330
4F6
100
AcDbEntity
  8
2-30G
  6
Continuous
 62
     7
370
    13
100
AcDbLine
 10
52.425729
 20
-3.63575
 30
0.0
 11
52.55724
 21
-3.63575
 31
0.0
  0
LINE
  5
173
330
4F6
100
AcDbEntity
  8
2-30G
  6
Continuous
 62
     7
370
    13
100
AcDbLine
 10
52.753708
 20
-3.673563
 30
0.0
 11
52.517948
 21
-3.637312
 31
0.0
  0
LINE
  5
174
330
4F6
100
AcDbEntity
  8
2-30G
  6
Continuous
 62
     7
370
    13
100
AcDbLine
 10
52.720802
 20
-3.673563
 30
0.0
 11
52.485031
 21
-3.637312
 31
0.0
  0
LINE
  5
175
330
4F6
100
AcDbEntity
  8
2-30G
  6
Continuous
 62
     7
370
    13
100
AcDbLine
 10
52.66475
 20
-3.672
 30
0.0
 11
52.79626
 21
-3.672
 31
0.0
  0
LINE
  5
176
330
4F6
100
AcDbEntity
  8
2-30G
  6
Continuous
 62
     7
370
    13
100
AcDbLine
 10
52.66475
 20
-3.672
 30
0.0
 11
52.67475
 21
-3.673563
 31
0.0
  0
LINE
  5
177
330
4F6
100
AcDbEntity
  8
2-30G
  6
Continuous
 62
     7
370
    13
100
AcDbLine
 10
52.66475
 20
-3.672
 30
0.0
 11
52.66475
 21
-4.216635
 31
0.0
  0
LINE
  5
178
330
4F6
100
AcDbEntity
  8
2-30G
  6
Continuous
 62
     7
370
    13
100
AcDbLine
 10
53.088167
 20
-3.742865
 30
0.0
 11
53.088167
 21
-4.13775
 31
0.0
  0
LINE
  5
179
330
4F6
100
AcDbEntity
  8
2-30G
  6
Continuous
 62
     7
370
    13
100
AcDbLine
 10
53.088167
 20
-3.742865
 30
0.0
 11
53.098167
 21
-3.744427
 31
0.0
  0
LINE
  5
17A
330
4F6
100
AcDbEntity
  8
2-30G
  6
Continuous
 62
     7
370
    13
100
AcDbLine
 10
53.088167
 20
-3.742865
 30
0.0
 11
53.219667
 21
-3.742865
 31
0.0
  0
LINE
  5
17B
330
4F6
100
AcDbEntity
  8
2-30G
  6
Continuous
 62
     7
370
    13
100
AcDbLine
 10
53.144219
 20
-3.744427
 30
0.0
 11
52.908448
 21
-3.708187
 31
0.0
  0
LINE
  5
17C
330
4F6
100
AcDbEntity
  8
2-30G
  6
Continuous
 62
     7
370
    13
100
AcDbLine
 10
53.177125
 20
-3.744427
 30
0.0
 11
52.941354
 21
-3.708187
 31
0.0
  0
LINE
  5
17D
330
4F6
100
AcDbEntity
  8
2-30G
  6
Continuous
 62
     7
370
    13
100
AcDbLine
 10
52.849146
 20
-3.706625
 30
0.0
 11
52.980656
 21
-3.706625
 31
0.0
  0
LINE
  5
17E
330
4F6
100
AcDbEntity
  8
2-30G
  6
Continuous
 62
     7
370
    13
100
AcDbLine
 10
52.849146
 20
-3.706625
 30
0.0
 11
52.859146
 21
-3.708187
 31
0.0
  0
LINE
  5
17F
330
4F6
100
AcDbEntity
  8
2-30G
  6
Continuous
 62
     7
370
    13
100
AcDbLine
 10
52.859146
 20
-3.708187
 30
0.0
 11
52.990656
 21
-3.708187
 31
0.0
  0
LINE
  5
180
330
4F6
100
AcDbEntity
  8
2-30G
  6
Continuous
 62
     7
370
    13
100
AcDbLine
 10
52.990656
 20
-3.708187
 30
0.0
 11
52.990656
 21
-3.718292
 31
0.0
  0
LINE
  5
181
330
4F6
100
AcDbEntity
  8
2-30G
  6
Continuous
 62
     7
370
    13
100
AcDbLine
 10
52.859146
 20
-4.103073
 30
0.0
 11
52.921646
 21
-4.103073
 31
0.0
  0
LINE
  5
182
330
4F6
100
AcDbEntity
  8
2-30G
  6
Continuous
 62
     7
370
    13
100
AcDbLine
 10
52.849146
 20
-4.10151
 30
0.0
 11
52.859146
 21
-4.103073
 31
0.0
  0
LINE
  5
183
330
4F6
100
AcDbEntity
  8
2-30G
  6
Continuous
 62
     7
370
    13
100
AcDbLine
 10
53.088167
 20
-4.138771
 30
0.0
 11
53.098167
 21
-4.140323
 31
0.0
  0
LINE
  5
184
330
4F6
100
AcDbEntity
  8
2-30G
  6
Continuous
 62
     7
370
    13
100
AcDbLine
 10
53.098167
 20
-4.140323
 30
0.0
 11
53.223177
 21
-4.140323
 31
0.0
  0
LINE
  5
185
330
4F6
100
AcDbEntity
  8
2-30G
  6
Continuous
 62
     7
370
    13
100
AcDbLine
 10
52.921646
 20
-4.103073
 30
0.0
 11
53.088167
 21
-4.129021
 31
0.0
  0
LINE
  5
186
330
4F6
100
AcDbEntity
  8
2-30G
  6
Continuous
 62
     7
370
    13
100
AcDbLine
 10
53.098167
 20
-3.744427
 30
0.0
 11
53.223177
 21
-3.744427
 31
0.0
  0
LINE
  5
187
330
4F6
100
AcDbEntity
  8
2-30G
  6
Continuous
 62
     7
370
    13
100
AcDbLine
 10
52.859146
 20
-3.708187
 30
0.0
 11
52.859146
 21
-4.103073
 31
0.0
  0
LINE
  5
188
330
4F6
100
AcDbEntity
  8
2-30G
  6
Continuous
 62
     7
370
    13
100
AcDbLine
 10
53.088167
 20
-3.744427
 30
0.0
 11
53.088167
 21
-4.138771
 31
0.0
  0
LINE
  5
189
330
4F6
100
AcDbEntity
  8
2-30G
  6
Continuous
 62
     7
370
    13
100
AcDbLine
 10
53.098167
 20
-3.744427
 30
0.0
 11
53.098167
 21
-4.140323
 31
0.0
  0
LINE
  5
18A
330
4F6
100
AcDbEntity
  8
2-30G
  6
Continuous
 62
     7
370
    13
100
AcDbLine
 10
53.223177
 20
-3.744427
 30
0.0
 11
53.223177
 21
-4.140323
 31
0.0
  0
LINE
  5
18B
330
4F6
100
AcDbEntity
  8
2-30G
  6
Continuous
 62
     7
370
    13
100
AcDbLine
 10
52.923146
 20
-3.708187
 30
0.0
 11
52.923146
 21
-4.103302
 31
0.0
  0
LINE
  5
18C
330
4F6
100
AcDbEntity
  8
2-30G
  6
Continuous
 62
     7
370
    13
100
AcDbLine
 10
52.849146
 20
-3.706625
 30
0.0
 11
52.849146
 21
-4.10151
 31
0.0
  0
LINE
  5
18E
330
4F6
100
AcDbEntity
  8
2-30G
  6
Continuous
 62
     7
370
    13
100
AcDbLine
 10
51.878771
 20
-4.808281
 30
0.0
 11
51.878771
 21
-4.758271
 31
0.0
  0
LINE
  5
18F
330
4F6
100
AcDbEntity
  8
2-30G
  6
Continuous
 62
     7
370
    13
100
AcDbLine
 10
51.878771
 20
-4.808281
 30
0.0
 11
51.858771
 21
-4.808281
 31
0.0
  0
LINE
  5
190
330
4F6
100
AcDbEntity
  8
2-30G
  6
Continuous
 62
     7
370
    13
100
AcDbLine
 10
51.878771
 20
-4.758271
 30
0.0
 11
51.858771
 21
-4.758271
 31
0.0
  0
LINE
  5
191
330
4F6
100
AcDbEntity
  8
2-30G
  6
Continuous
 62
     7
370
    13
100
AcDbLine
 10
51.858771
 20
-4.818281
 30
0.0
 11
51.858771
 21
-4.748271
 31
0.0
  0
LINE
  5
192
330
4F6
100
AcDbEntity
  8
2-30G
  6
Continuous
 62
     7
370
    13
100
AcDbLine
 10
51.858771
 20
-4.818281
 30
0.0
 11
51.846583
 21
-4.818281
 31
0.0
  0
LINE
  5
193
330
4F6
100
AcDbEntity
  8
2-30G
  6
Continuous
 62
     7
370
    13
100
AcDbLine
 10
51.858771
 20
-4.748271
 30
0.0
 11
51.846583
 21
-4.748271
 31
0.0
  0
LINE
  5
194
330
4F6
100
AcDbEntity
  8
2-30G
  6
Continuous
 62
     7
370
    13
100
AcDbLine
 10
52.153823
 20
-4.667042
 30
0.0
 11
52.153823
 21
-4.617042
 31
0.0
  0
LINE
  5
195
330
4F6
100
AcDbEntity
  8
2-30G
  6
Continuous
 62
     7
370
    13
100
AcDbLine
 10
52.153823
 20
-4.667042
 30
0.0
 11
52.133823
 21
-4.667042
 31
0.0
  0
LINE
  5
196
330
4F6
100
AcDbEntity
  8
2-30G
  6
Continuous
 62
     7
370
    13
100
AcDbLine
 10
52.153823
 20
-4.617042
 30
0.0
 11
52.133823
 21
-4.617042
 31
0.0
  0
LINE
  5
197
330
4F6
100
AcDbEntity
  8
2-30G
  6
Continuous
 62
     7
370
    13
100
AcDbLine
 10
52.133823
 20
-4.677042
 30
0.0
 11
52.133823
 21
-4.607031
 31
0.0
  0
LINE
  5
198
330
4F6
100
AcDbEntity
  8
2-30G
  6
Continuous
 62
     7
370
    13
100
AcDbLine
 10
52.133823
 20
-4.677042
 30
0.0
 11
52.121635
 21
-4.677042
 31
0.0
  0
LINE
  5
199
330
4F6
100
AcDbEntity
  8
2-30G
  6
Continuous
 62
     7
370
    13
100
AcDbLine
 10
52.133823
 20
-4.607031
 30
0.0
 11
52.121635
 21
-4.607031
 31
0.0
  0
LINE
  5
19A
330
4F6
100
AcDbEntity
  8
2-30G
  6
Continuous
 62
     7
370
    13
100
AcDbLine
 10
52.133823
 20
-4.897948
 30
0.0
 11
52.121635
 21
-4.897948
 31
0.0
  0
LINE
  5
19B
330
4F6
100
AcDbEntity
  8
2-30G
  6
Continuous
 62
     7
370
    13
100
AcDbLine
 10
52.133823
 20
-4.967958
 30
0.0
 11
52.121635
 21
-4.967958
 31
0.0
  0
LINE
  5
19C
330
4F6
100
AcDbEntity
  8
2-30G
  6
Continuous
 62
     7
370
    13
100
AcDbLine
 10
52.133823
 20
-4.967958
 30
0.0
 11
52.133823
 21
-4.897948
 31
0.0
  0
LINE
  5
19D
330
4F6
100
AcDbEntity
  8
2-30G
  6
Continuous
 62
     7
370
    13
100
AcDbLine
 10
52.153823
 20
-4.907948
 30
0.0
 11
52.133823
 21
-4.907948
 31
0.0
  0
LINE
  5
19E
330
4F6
100
AcDbEntity
  8
2-30G
  6
Continuous
 62
     7
370
    13
100
AcDbLine
 10
52.153823
 20
-4.957958
 30
0.0
 11
52.133823
 21
-4.957958
 31
0.0
  0
LINE
  5
19F
330
4F6
100
AcDbEntity
  8
2-30G
  6
Continuous
 62
     7
370
    13
100
AcDbLine
 10
52.153823
 20
-4.957958
 30
0.0
 11
52.153823
 21
-4.907948
 31
0.0
  0
LINE
  5
1A0
330
4F6
100
AcDbEntity
  8
2-30G
  6
Continuous
 62
     7
370
    13
100
AcDbLine
 10
52.074146
 20
-4.967958
 30
0.0
 11
52.074146
 21
-4.897948
 31
0.0
  0
LINE
  5
1A1
330
4F6
100
AcDbEntity
  8
2-30G
  6
Continuous
 62
     7
370
    13
100
AcDbLine
 10
52.074146
 20
-4.677042
 30
0.0
 11
52.074146
 21
-4.607031
 31
0.0
  0
LINE
  5
1A2
330
4F6
100
AcDbEntity
  8
2-30G
  6
Continuous
 62
     7
370
    13
100
AcDbLine
 10
52.101635
 20
-4.607031
 30
0.0
 11
52.074146
 21
-4.607031
 31
0.0
  0
LINE
  5
1A3
330
4F6
100
AcDbEntity
  8
2-30G
  6
Continuous
 62
     7
370
    13
100
AcDbLine
 10
52.101635
 20
-4.677042
 30
0.0
 11
52.074146
 21
-4.677042
 31
0.0
  0
LINE
  5
1A4
330
4F6
100
AcDbEntity
  8
2-30G
  6
Continuous
 62
     7
370
    13
100
AcDbLine
 10
52.101635
 20
-4.897948
 30
0.0
 11
52.074146
 21
-4.897948
 31
0.0
  0
LINE
  5
1A5
330
4F6
100
AcDbEntity
  8
2-30G
  6
Continuous
 62
     7
370
    13
100
AcDbLine
 10
52.101635
 20
-4.967958
 30
0.0
 11
52.074146
 21
-4.967958
 31
0.0
  0
LINE
  5
1A6
330
4F6
100
AcDbEntity
  8
2-30G
  6
Continuous
 62
     7
370
    13
100
AcDbLine
 10
52.101635
 20
-4.6505
 30
0.0
 11
52.074146
 21
-4.6505
 31
0.0
  0
LINE
  5
1A7
330
4F6
100
AcDbEntity
  8
2-30G
  6
Continuous
 62
     7
370
    13
100
AcDbLine
 10
52.101635
 20
-4.611729
 30
0.0
 11
52.074146
 21
-4.611729
 31
0.0
  0
LINE
  5
1A8
330
4F6
100
AcDbEntity
  8
2-30G
  6
Continuous
 62
     7
370
    13
100
AcDbLine
 10
52.101635
 20
-4.904198
 30
0.0
 11
52.074146
 21
-4.904198
 31
0.0
  0
LINE
  5
1A9
330
4F6
100
AcDbEntity
  8
2-30G
  6
Continuous
 62
     7
370
    13
100
AcDbLine
 10
52.101635
 20
-4.949219
 30
0.0
 11
52.074146
 21
-4.949219
 31
0.0
  0
LINE
  5
1AA
330
4F6
100
AcDbEntity
  8
2-30G
  6
Continuous
 62
     7
370
    13
100
AcDbLine
 10
52.121635
 20
-6.362292
 30
0.0
 11
52.121635
 21
-6.110885
 31
0.0
  0
LINE
  5
1AB
330
4F6
100
AcDbEntity
  8
2-30G
  6
Continuous
 62
     7
370
    13
100
AcDbLine
 10
52.301646
 20
-6.362292
 30
0.0
 11
52.301646
 21
-6.110885
 31
0.0
  0
LINE
  5
1AC
330
4F6
100
AcDbEntity
  8
2-30G
  6
Continuous
 62
     7
370
    13
100
AcDbLine
 10
51.846615
 20
-5.00876
 30
0.0
 11
51.846615
 21
-4.562146
 31
0.0
  0
LINE
  5
1AD
330
4F6
100
AcDbEntity
  8
2-30G
  6
Continuous
 62
     7
370
    13
100
AcDbLine
 10
52.101635
 20
-5.00876
 30
0.0
 11
52.101635
 21
-4.562146
 31
0.0
  0
LINE
  5
1AE
330
4F6
100
AcDbEntity
  8
2-30G
  6
Continuous
 62
     7
370
    13
100
AcDbLine
 10
52.121635
 20
-5.957521
 30
0.0
 11
52.121635
 21
-5.320896
 31
0.0
  0
LINE
  5
1AF
330
4F6
100
AcDbEntity
  8
2-30G
  6
Continuous
 62
     7
370
    13
100
AcDbLine
 10
52.301646
 20
-5.957521
 30
0.0
 11
52.301646
 21
-4.562146
 31
0.0
  0
LINE
  5
1B0
330
4F6
100
AcDbEntity
  8
2-30G
  6
Continuous
 62
     7
370
    13
100
AcDbLine
 10
52.101635
 20
-4.281438
 30
0.0
 11
52.074146
 21
-4.281438
 31
0.0
  0
LINE
  5
1B1
330
4F6
100
AcDbEntity
  8
2-30G
  6
Continuous
 62
     7
370
    13
100
AcDbLine
 10
52.101635
 20
-4.236417
 30
0.0
 11
52.074146
 21
-4.236417
 31
0.0
  0
LINE
  5
1B2
330
4F6
100
AcDbEntity
  8
2-30G
  6
Continuous
 62
     7
370
    13
100
AcDbLine
 10
52.101635
 20
-4.130208
 30
0.0
 11
52.074146
 21
-4.130208
 31
0.0
  0
LINE
  5
1B3
330
4F6
100
AcDbEntity
  8
2-30G
  6
Continuous
 62
     7
370
    13
100
AcDbLine
 10
52.101635
 20
-4.16899
 30
0.0
 11
52.074146
 21
-4.16899
 31
0.0
  0
LINE
  5
1B4
330
4F6
100
AcDbEntity
  8
2-30G
  6
Continuous
 62
     7
370
    13
100
AcDbLine
 10
52.101635
 20
-4.300177
 30
0.0
 11
52.074146
 21
-4.300177
 31
0.0
  0
LINE
  5
1B5
330
4F6
100
AcDbEntity
  8
2-30G
  6
Continuous
 62
     7
370
    13
100
AcDbLine
 10
52.101635
 20
-4.230177
 30
0.0
 11
52.074146
 21
-4.230177
 31
0.0
  0
LINE
  5
1B6
330
4F6
100
AcDbEntity
  8
2-30G
  6
Continuous
 62
     7
370
    13
100
AcDbLine
 10
52.101635
 20
-4.195531
 30
0.0
 11
52.074146
 21
-4.195531
 31
0.0
  0
LINE
  5
1B7
330
4F6
100
AcDbEntity
  8
2-30G
  6
Continuous
 62
     7
370
    13
100
AcDbLine
 10
52.101635
 20
-4.125531
 30
0.0
 11
52.074146
 21
-4.125531
 31
0.0
  0
LINE
  5
1B8
330
4F6
100
AcDbEntity
  8
2-30G
  6
Continuous
 62
     7
370
    13
100
AcDbLine
 10
52.074146
 20
-4.195531
 30
0.0
 11
52.074146
 21
-4.125531
 31
0.0
  0
LINE
  5
1B9
330
4F6
100
AcDbEntity
  8
2-30G
  6
Continuous
 62
     7
370
    13
100
AcDbLine
 10
52.074146
 20
-4.300177
 30
0.0
 11
52.074146
 21
-4.230177
 31
0.0
  0
LINE
  5
1BA
330
4F6
100
AcDbEntity
  8
2-30G
  6
Continuous
 62
     7
370
    13
100
AcDbLine
 10
52.153823
 20
-4.290177
 30
0.0
 11
52.153823
 21
-4.240177
 31
0.0
  0
LINE
  5
1BB
330
4F6
100
AcDbEntity
  8
2-30G
  6
Continuous
 62
     7
370
    13
100
AcDbLine
 10
52.153823
 20
-4.290177
 30
0.0
 11
52.133823
 21
-4.290177
 31
0.0
  0
LINE
  5
1BC
330
4F6
100
AcDbEntity
  8
2-30G
  6
Continuous
 62
     7
370
    13
100
AcDbLine
 10
52.153823
 20
-4.240177
 30
0.0
 11
52.133823
 21
-4.240177
 31
0.0
  0
LINE
  5
1BD
330
4F6
100
AcDbEntity
  8
2-30G
  6
Continuous
 62
     7
370
    13
100
AcDbLine
 10
52.133823
 20
-4.300177
 30
0.0
 11
52.133823
 21
-4.230177
 31
0.0
  0
LINE
  5
1BE
330
4F6
100
AcDbEntity
  8
2-30G
  6
Continuous
 62
     7
370
    13
100
AcDbLine
 10
52.133823
 20
-4.300177
 30
0.0
 11
52.121635
 21
-4.300177
 31
0.0
  0
LINE
  5
1BF
330
4F6
100
AcDbEntity
  8
2-30G
  6
Continuous
 62
     7
370
    13
100
AcDbLine
 10
52.133823
 20
-4.230177
 30
0.0
 11
52.121635
 21
-4.230177
 31
0.0
  0
LINE
  5
1C0
330
4F6
100
AcDbEntity
  8
2-30G
  6
Continuous
 62
     7
370
    13
100
AcDbLine
 10
52.101635
 20
-4.112115
 30
0.0
 11
52.121635
 21
-4.112115
 31
0.0
  0
LINE
  5
1C1
330
4F6
100
AcDbEntity
  8
2-30G
  6
Continuous
 62
     7
370
    13
100
AcDbLine
 10
52.101635
 20
-4.312125
 30
0.0
 11
52.121635
 21
-4.312125
 31
0.0
  0
LINE
  5
1C2
330
4F6
100
AcDbEntity
  8
2-30G
  6
Continuous
 62
     7
370
    13
100
AcDbLine
 10
51.846615
 20
-4.206823
 30
0.0
 11
51.846615
 21
-4.112115
 31
0.0
  0
LINE
  5
1C3
330
4F6
100
AcDbEntity
  8
2-30G
  6
Continuous
 62
     7
370
    13
100
AcDbLine
 10
51.846615
 20
-4.312125
 30
0.0
 11
51.846615
 21
-4.216823
 31
0.0
  0
LINE
  5
1C4
330
4F6
100
AcDbEntity
  8
2-30G
  6
Continuous
 62
     7
370
    13
100
AcDbLine
 10
52.301646
 20
-4.112115
 30
0.0
 11
52.311646
 21
-4.112115
 31
0.0
  0
LINE
  5
1C5
330
4F6
100
AcDbEntity
  8
2-30G
  6
Continuous
 62
     7
370
    13
100
AcDbLine
 10
52.301646
 20
-4.312125
 30
0.0
 11
52.311646
 21
-4.312125
 31
0.0
  0
LINE
  5
1C6
330
4F6
100
AcDbEntity
  8
2-30G
  6
Continuous
 62
     7
370
    13
100
AcDbLine
 10
52.101635
 20
-4.206823
 30
0.0
 11
52.101635
 21
-4.112115
 31
0.0
  0
LINE
  5
1C7
330
4F6
100
AcDbEntity
  8
2-30G
  6
Continuous
 62
     7
370
    13
100
AcDbLine
 10
52.301646
 20
-4.206823
 30
0.0
 11
52.301646
 21
-4.111531
 31
0.0
  0
LINE
  5
1C8
330
4F6
100
AcDbEntity
  8
2-30G
  6
Continuous
 62
     7
370
    13
100
AcDbLine
 10
52.121635
 20
-4.206823
 30
0.0
 11
52.121635
 21
-4.112115
 31
0.0
  0
LINE
  5
1C9
330
4F6
100
AcDbEntity
  8
2-30G
  6
Continuous
 62
     7
370
    13
100
AcDbLine
 10
52.121635
 20
-4.206823
 30
0.0
 11
52.301646
 21
-4.206823
 31
0.0
  0
LINE
  5
1CA
330
4F6
100
AcDbEntity
  8
2-30G
  6
Continuous
 62
     7
370
    13
100
AcDbLine
 10
52.121635
 20
-4.216823
 30
0.0
 11
52.301646
 21
-4.216823
 31
0.0
  0
LINE
  5
1CB
330
4F6
100
AcDbEntity
  8
2-30G
  6
Continuous
 62
     7
370
    13
100
AcDbLine
 10
52.101635
 20
-4.312125
 30
0.0
 11
52.101635
 21
-4.216823
 31
0.0
  0
LINE
  5
1CC
330
4F6
100
AcDbEntity
  8
2-30G
  6
Continuous
 62
     7
370
    13
100
AcDbLine
 10
52.121635
 20
-4.312125
 30
0.0
 11
52.121635
 21
-4.216823
 31
0.0
  0
LINE
  5
1CD
330
4F6
100
AcDbEntity
  8
2-30G
  6
Continuous
 62
     7
370
    13
100
AcDbLine
 10
51.846615
 20
-4.216823
 30
0.0
 11
52.101635
 21
-4.216823
 31
0.0
  0
LINE
  5
1CE
330
4F6
100
AcDbEntity
  8
2-30G
  6
Continuous
 62
     7
370
    13
100
AcDbLine
 10
51.846615
 20
-4.206823
 30
0.0
 11
52.101635
 21
-4.206823
 31
0.0
  0
LINE
  5
1CF
330
4F6
100
AcDbEntity
  8
2-30G
  6
Continuous
 62
     7
370
    13
100
AcDbLine
 10
52.301646
 20
-4.312125
 30
0.0
 11
52.301646
 21
-4.216823
 31
0.0
  0
LWPOLYLINE
  5
1D0
330
4F6
100
AcDbEntity
  8
2-30G
  6
Continuous
 62
     7
370
     0
100
AcDbPolyline
 90
       53
 70
   128
 43
0.0
 10
52.111635
 20
-5.956354
 10
52.120417
 20
-5.953969
 10
52.128292
 20
-5.952604
 10
52.135375
 20
-5.952083
 10
52.14175
 20
-5.952167
 10
52.14751
 20
-5.952677
 10
52.152771
 20
-5.953385
 10
52.157604
 20
-5.954083
 10
52.162135
 20
-5.954594
 10
52.166427
 20
-5.954729
 10
52.170562
 20
-5.954562
 10
52.174583
 20
-5.954177
 10
52.178552
 20
-5.953688
 10
52.182521
 20
-5.953177
 10
52.186542
 20
-5.95276
 10
52.190677
 20
-5.952542
 10
52.194979
 20
-5.952604
 10
52.199479
 20
-5.953042
 10
52.204135
 20
-5.953771
 10
52.208896
 20
-5.954708
 10
52.213698
 20
-5.955771
 10
52.218479
 20
-5.956865
 10
52.223198
 20
-5.957906
 10
52.227771
 20
-5.958792
 10
52.232156
 20
-5.959427
 10
52.236292
 20
-5.959771
 10
52.240208
 20
-5.959823
 10
52.243938
 20
-5.959635
 10
52.24751
 20
-5.95924
 10
52.250958
 20
-5.958698
 10
52.254312
 20
-5.958042
 10
52.257594
 20
-5.957323
 10
52.260844
 20
-5.956573
 10
52.264094
 20
-5.955844
 10
52.267312
 20
-5.955156
 10
52.27049
 20
-5.954552
 10
52.273615
 20
-5.954042
 10
52.276646
 20
-5.953656
 10
52.279573
 20
-5.953417
 10
52.282375
 20
-5.953354
 10
52.285031
 20
-5.95349
 10
52.287521
 20
-5.953844
 10
52.289875
 20
-5.954365
 10
52.292125
 20
-5.95499
 10
52.294302
 20
-5.955667
 10
52.296437
 20
-5.956323
 10
52.298552
 20
-5.956927
 10
52.300698
 20
-5.957396
 10
52.302896
 20
-5.957677
 10
52.305167
 20
-5.957729
 10
52.30751
 20
-5.957594
 10
52.309917
 20
-5.957344
 10
52.311646
 20
-5.957125
  0
LWPOLYLINE
  5
1D1
330
4F6
100
AcDbEntity
  8
2-30G
  6
Continuous
 62
     7
370
     0
100
AcDbPolyline
 90
       53
 70
   128
 43
0.0
 10
52.111635
 20
-6.110885
 10
52.120417
 20
-6.1085
 10
52.128292
 20
-6.107146
 10
52.135375
 20
-6.106615
 10
52.14175
 20
-6.106698
 10
52.14751
 20
-6.107208
 10
52.152771
 20
-6.107906
 10
52.157604
 20
-6.108615
 10
52.162135
 20
-6.109125
 10
52.166427
 20
-6.10926
 10
52.170562
 20
-6.109094
 10
52.174583
 20
-6.108708
 10
52.178552
 20
-6.108219
 10
52.182521
 20
-6.107708
 10
52.186542
 20
-6.107292
 10
52.190677
 20
-6.107073
 10
52.194979
 20
-6.107146
 10
52.199479
 20
-6.107573
 10
52.204135
 20
-6.108302
 10
52.208896
 20
-6.10924
 10
52.213698
 20
-6.110313
 10
52.218479
 20
-6.111406
 10
52.223198
 20
-6.112437
 10
52.227771
 20
-6.113323
 10
52.232156
 20
-6.113969
 10
52.236292
 20
-6.114302
 10
52.240208
 20
-6.114354
 10
52.243938
 20
-6.114167
 10
52.24751
 20
-6.113771
 10
52.250958
 20
-6.113229
 10
52.254312
 20
-6.112573
 10
52.257594
 20
-6.111844
 10
52.260844
 20
-6.111104
 10
52.264094
 20
-6.110375
 10
52.267312
 20
-6.109698
 10
52.27049
 20
-6.109083
 10
52.273615
 20
-6.108573
 10
52.276646
 20
-6.108187
 10
52.279573
 20
-6.107948
 10
52.282375
 20
-6.107885
 10
52.285031
 20
-6.108021
 10
52.287521
 20
-6.108375
 10
52.289875
 20
-6.108896
 10
52.292125
 20
-6.109521
 10
52.294302
 20
-6.110198
 10
52.296437
 20
-6.110865
 10
52.298552
 20
-6.111458
 10
52.300698
 20
-6.111927
 10
52.302896
 20
-6.112208
 10
52.305167
 20
-6.11226
 10
52.30751
 20
-6.112125
 10
52.309917
 20
-6.111875
 10
52.311646
 20
-6.111667
  0
LINE
  5
1D2
330
4F6
100
AcDbEntity
  8
2-30G
  6
Continuous
 62
     7
370
    13
100
AcDbLine
 10
52.311646
 20
-6.362292
 30
0.0
 11
52.311646
 21
-6.110885
 31
0.0
  0
LINE
  5
1D3
330
4F6
100
AcDbEntity
  8
2-30G
  6
Continuous
 62
     7
370
    13
100
AcDbLine
 10
52.311646
 20
-5.957521
 30
0.0
 11
52.311646
 21
-4.562146
 31
0.0
  0
LWPOLYLINE
  5
1D4
330
4F6
100
AcDbEntity
  8
2-30G
  6
Continuous
 62
     7
370
     0
100
AcDbPolyline
 90
       41
 70
   128
 43
0.0
 10
50.979354
 20
-6.096552
 10
50.982156
 20
-6.09749
 10
50.985177
 20
-6.098667
 10
50.988312
 20
-6.099979
 10
50.9915
 20
-6.101323
 10
50.994667
 20
-6.102594
 10
50.997708
 20
-6.103667
 10
51.000563
 20
-6.104458
 10
51.003146
 20
-6.104854
 10
51.005406
 20
-6.104771
 10
51.007354
 20
-6.104271
 10
51.009083
 20
-6.103458
 10
51.010615
 20
-6.102417
 10
51.012031
 20
-6.10124
 10
51.013375
 20
-6.10001
 10
51.014698
 20
-6.098833
 10
51.016062
 20
-6.097802
 10
51.01751
 20
-6.096979
 10
51.019052
 20
-6.096354
 10
51.020677
 20
-6.095896
 10
51.022385
 20
-6.095562
 10
51.024177
 20
-6.095344
 10
51.026042
 20
-6.095167
 10
51.02799
 20
-6.095042
 10
51.02999
 20
-6.094896
 10
51.032052
 20
-6.094719
 10
51.034146
 20
-6.0945
 10
51.036219
 20
-6.094229
 10
51.03826
 20
-6.093906
 10
51.040198
 20
-6.093531
 10
51.04201
 20
-6.093083
 10
51.043667
 20
-6.092573
 10
51.045115
 20
-6.09199
 10
51.046375
 20
-6.091354
 10
51.047604
 20
-6.090802
 10
51.049042
 20
-6.0905
 10
51.050896
 20
-6.090594
 10
51.053396
 20
-6.09126
 10
51.05675
 20
-6.092656
 10
51.061198
 20
-6.094937
 10
51.066927
 20
-6.098271
  0
LWPOLYLINE
  5
1D5
330
4F6
100
AcDbEntity
  8
2-30G
  6
Continuous
 62
     7
370
     0
100
AcDbPolyline
 90
       24
 70
   128
 43
0.0
 10
50.916917
 20
-6.104729
 10
50.92476
 20
-6.100854
 10
50.931385
 20
-6.098063
 10
50.936927
 20
-6.096177
 10
50.941521
 20
-6.095063
 10
50.945302
 20
-6.094552
 10
50.948417
 20
-6.09449
 10
50.951
 20
-6.094729
 10
50.953187
 20
-6.095104
 10
50.955104
 20
-6.095479
 10
50.956812
 20
-6.095823
 10
50.958333
 20
-6.096125
 10
50.959729
 20
-6.096375
 10
50.961031
 20
-6.096552
 10
50.96226
 20
-6.096646
 10
50.96349
 20
-6.096656
 10
50.96474
 20
-6.096552
 10
50.966052
 20
-6.096344
 10
50.967458
 20
-6.096083
 10
50.968979
 20
-6.095823
 10
50.970646
 20
-6.095615
 10
50.97249
 20
-6.095531
 10
50.974542
 20
-6.095615
 10
50.976823
 20
-6.095937
  0
LINE
  5
1D6
330
4F6
100
AcDbEntity
  8
DEFPOINTS
  6
Continuous
 62
     7
370
    13
100
AcDbLine
 10
52.341646
 20
-4.561562
 30
0.0
 11
53.337219
 21
-4.561562
 31
0.0
  0
LINE
  5
1D7
330
4F6
100
AcDbEntity
  8
DEFPOINTS
  6
Continuous
 62
     7
370
    13
100
AcDbLine
 10
52.355792
 20
-6.361708
 30
0.0
 11
53.337219
 21
-6.361708
 31
0.0
  0
LINE
  5
1D8
330
4F6
100
AcDbEntity
  8
DEFPOINTS
  6
Continuous
 62
     7
370
    13
100
AcDbLine
 10
53.287208
 20
-4.611573
 30
0.0
 11
53.287208
 21
-5.614365
 31
0.0
  0
SOLID
  5
1D9
330
4F6
100
AcDbEntity
  8
DEFPOINTS
  6
Continuous
 62
     7
370
    13
100
AcDbTrace
 10
53.295542
 20
-4.611573
 30
0.0
 11
53.278875
 21
-4.611573
 31
0.0
 12
53.287208
 22
-4.561562
 32
0.0
 13
53.287208
 23
-4.561562
 33
0.0
  0
SOLID
  5
1DA
330
4F6
100
AcDbEntity
  8
DEFPOINTS
  6
Continuous
 62
     7
370
    13
100
AcDbTrace
 10
53.295542
 20
-6.311708
 30
0.0
 11
53.278875
 21
-6.311708
 31
0.0
 12
53.287208
 22
-6.361708
 32
0.0
 13
53.287208
 23
-6.361708
 33
0.0
  0
LWPOLYLINE
  5
1DC
330
4F6
100
AcDbEntity
  8
2-30G
  6
Continuous
 62
     7
370
    53
100
AcDbPolyline
 90
       10
 70
   128
 43
0.0
 10
51.836604
 20
-4.568812
 10
51.746604
 20
-4.658812
 10
51.746604
 20
-4.681312
 10
51.828615
 20
-4.763333
 10
51.828618
 20
-4.763331
 42
0.573574
 10
51.826913
 20
-4.799916
 10
51.826917
 20
-4.799917
 10
51.746604
 20
-4.880229
 10
51.746604
 20
-4.903833
 10
51.836604
 20
-4.993844
  0
LINE
  5
1E0
330
4F6
100
AcDbEntity
  8
2-30G
  6
Continuous
 62
     7
370
    13
100
AcDbLine
 10
52.111635
 20
-6.362292
 30
0.0
 11
52.111635
 21
-6.110885
 31
0.0
  0
LINE
  5
1E1
330
4F6
100
AcDbEntity
  8
2-30G
  6
Continuous
 62
     7
370
    13
100
AcDbLine
 10
52.111635
 20
-6.361708
 30
0.0
 11
52.311646
 21
-6.361708
 31
0.0
  0
LINE
  5
1E2
330
4F6
100
AcDbEntity
  8
2-30G
  6
Continuous
 62
     7
370
    13
100
AcDbLine
 10
51.836604
 20
-4.562146
 30
0.0
 11
52.311646
 21
-4.562146
 31
0.0
  0
LINE
  5
1E3
330
4F6
100
AcDbEntity
  8
2-30G
  6
Continuous
 62
     7
370
    13
100
AcDbLine
 10
52.111635
 20
-6.362292
 30
0.0
 11
52.111844
 21
-6.105562
 31
0.0
  0
LINE
  5
1E4
330
4F6
100
AcDbEntity
  8
2-30G
  6
Continuous
 62
     7
370
    13
100
AcDbLine
 10
52.311646
 20
-6.361708
 30
0.0
 11
52.311646
 21
-6.117552
 31
0.0
  0
LINE
  5
1E5
330
4F6
100
AcDbEntity
  8
2-30G
  6
Continuous
 62
     7
370
    13
100
AcDbLine
 10
51.836604
 20
-5.00876
 30
0.0
 11
51.836604
 21
-4.562146
 31
0.0
  0
LINE
  5
1E6
330
4F6
100
AcDbEntity
  8
2-30G
  6
Continuous
 62
     7
370
    13
100
AcDbLine
 10
51.836604
 20
-5.00876
 30
0.0
 11
52.111635
 21
-5.00876
 31
0.0
  0
LINE
  5
1E7
330
4F6
100
AcDbEntity
  8
DEFPOINTS
  6
Continuous
 62
     7
370
    13
100
AcDbLine
 10
52.361656
 20
-4.561562
 30
0.0
 11
52.578802
 21
-4.561562
 31
0.0
  0
LINE
  5
1E8
330
4F6
100
AcDbEntity
  8
2-30G
  6
Continuous
 62
     7
370
    13
100
AcDbLine
 10
52.111635
 20
-6.362292
 30
0.0
 11
52.311646
 21
-6.362292
 31
0.0
  0
LINE
  5
1E9
330
4F6
100
AcDbEntity
  8
2-30G
  6
Continuous
 62
     7
370
    13
100
AcDbLine
 10
51.323187
 20
-5.562229
 30
0.0
 11
52.111635
 21
-5.562229
 31
0.0
  0
LINE
  5
1EA
330
4F6
100
AcDbEntity
  8
2-30G
  6
Continuous
 62
     7
370
    13
100
AcDbLine
 10
52.111635
 20
-5.957521
 30
0.0
 11
52.111635
 21
-5.320896
 31
0.0
  0
LINE
  5
1EB
330
4F6
100
AcDbEntity
  8
2-30G
  6
Continuous
 62
     7
370
    13
100
AcDbLine
 10
52.311646
 20
-5.964719
 30
0.0
 11
52.311646
 21
-4.561562
 31
0.0
  0
LINE
  5
1EC
330
4F6
100
AcDbEntity
  8
2-30G
  6
Continuous
 62
     7
370
    13
100
AcDbLine
 10
51.836604
 20
-4.312125
 30
0.0
 11
51.846615
 21
-4.312125
 31
0.0
  0
LINE
  5
1ED
330
4F6
100
AcDbEntity
  8
2-30G
  6
Continuous
 62
     7
370
    13
100
AcDbLine
 10
51.836604
 20
-4.112115
 30
0.0
 11
51.846615
 21
-4.112115
 31
0.0
  0
LINE
  5
1EE
330
4F6
100
AcDbEntity
  8
2-30G
  6
Continuous
 62
     7
370
    13
100
AcDbLine
 10
51.740448
 20
-4.345708
 30
0.0
 11
51.740448
 21
-4.081177
 31
0.0
  0
LINE
  5
1EF
330
4F6
100
AcDbEntity
  8
2-30G
  6
Continuous
 62
     7
370
    13
100
AcDbLine
 10
51.836604
 20
-4.345708
 30
0.0
 11
51.836604
 21
-4.081177
 31
0.0
  0
LINE
  5
1F0
330
4F6
100
AcDbEntity
  8
2-30G
  6
Continuous
 62
     7
370
    13
100
AcDbLine
 10
52.111635
 20
-4.312125
 30
0.0
 11
52.111635
 21
-4.112115
 31
0.0
  0
LINE
  5
1F1
330
4F6
100
AcDbEntity
  8
2-30G
  6
Continuous
 62
     7
370
    13
100
AcDbLine
 10
52.311646
 20
-4.312125
 30
0.0
 11
52.311646
 21
-4.111531
 31
0.0
  0
LINE
  5
1F2
330
4F6
100
AcDbEntity
  8
2-30G
  6
Continuous
 62
     7
370
    13
100
AcDbLine
 10
52.133823
 20
-4.125531
 30
0.0
 11
52.121635
 21
-4.125531
 31
0.0
  0
LINE
  5
1F3
330
4F6
100
AcDbEntity
  8
2-30G
  6
Continuous
 62
     7
370
    13
100
AcDbLine
 10
52.133823
 20
-4.195531
 30
0.0
 11
52.121635
 21
-4.195531
 31
0.0
  0
LINE
  5
1F4
330
4F6
100
AcDbEntity
  8
2-30G
  6
Continuous
 62
     7
370
    13
100
AcDbLine
 10
52.133823
 20
-4.195531
 30
0.0
 11
52.133823
 21
-4.125531
 31
0.0
  0
LINE
  5
1F5
330
4F6
100
AcDbEntity
  8
2-30G
  6
Continuous
 62
     7
370
    13
100
AcDbLine
 10
52.153823
 20
-4.135531
 30
0.0
 11
52.133823
 21
-4.135531
 31
0.0
  0
LINE
  5
1F6
330
4F6
100
AcDbEntity
  8
2-30G
  6
Continuous
 62
     7
370
    13
100
AcDbLine
 10
52.153823
 20
-4.185531
 30
0.0
 11
52.133823
 21
-4.185531
 31
0.0
  0
LINE
  5
1F7
330
4F6
100
AcDbEntity
  8
2-30G
  6
Continuous
 62
     7
370
    13
100
AcDbLine
 10
52.153823
 20
-4.185531
 30
0.0
 11
52.153823
 21
-4.135531
 31
0.0
  0
LWPOLYLINE
  5
1F8
330
4F6
100
AcDbEntity
  8
2-30G
  6
DGN Style 2
 62
     7
370
    53
100
AcDbPolyline
 90
        2
 70
   128
 43
0.0
 10
51.828437
 20
-4.345708
 10
51.828437
 20
-4.081177
  0
LINE
  5
1F9
330
4F6
100
AcDbEntity
  8
DEFPOINTS
  6
Continuous
 62
     7
370
    13
100
AcDbLine
 10
52.311646
 20
-4.37624
 30
0.0
 11
52.311646
 21
-4.499281
 31
0.0
  0
LINE
  5
1FA
330
4F6
100
AcDbEntity
  8
DEFPOINTS
  6
Continuous
 62
     7
370
    13
100
AcDbLine
 10
52.111635
 20
-4.376823
 30
0.0
 11
52.111635
 21
-4.499865
 31
0.0
  0
LINE
  5
1FB
330
4F6
100
AcDbEntity
  8
DEFPOINTS
  6
Continuous
 62
     7
370
    13
100
AcDbLine
 10
52.264729
 20
-4.449854
 30
0.0
 11
52.161635
 21
-4.449854
 31
0.0
  0
SOLID
  5
1FC
330
4F6
100
AcDbEntity
  8
DEFPOINTS
  6
Continuous
 62
     7
370
    13
100
AcDbTrace
 10
52.261646
 20
-4.457615
 30
0.0
 11
52.261646
 21
-4.440937
 31
0.0
 12
52.311646
 22
-4.449281
 32
0.0
 13
52.311646
 23
-4.449281
 33
0.0
  0
SOLID
  5
1FD
330
4F6
100
AcDbEntity
  8
DEFPOINTS
  6
Continuous
 62
     7
370
    13
100
AcDbTrace
 10
52.161635
 20
-4.458188
 30
0.0
 11
52.161635
 21
-4.441521
 31
0.0
 12
52.111635
 22
-4.449854
 32
0.0
 13
52.111635
 23
-4.449854
 33
0.0
  0
SOLID
  5
200
330
4F6
100
AcDbEntity
  8
DEFPOINTS
  6
Continuous
 62
     7
370
    13
100
AcDbTrace
 10
52.062
 20
-4.458188
 30
0.0
 11
52.062
 21
-4.441521
 31
0.0
 12
52.112
 22
-4.449854
 32
0.0
 13
52.112
 23
-4.449854
 33
0.0
  0
LINE
  5
201
330
4F6
100
AcDbEntity
  8
DEFPOINTS
  6
Continuous
 62
     7
370
    13
100
AcDbLine
 10
52.062
 20
-4.449854
 30
0.0
 11
51.886979
 21
-4.449854
 31
0.0
  0
SOLID
  5
202
330
4F6
100
AcDbEntity
  8
DEFPOINTS
  6
Continuous
 62
     7
370
    13
100
AcDbTrace
 10
51.886979
 20
-4.458188
 30
0.0
 11
51.886979
 21
-4.441521
 31
0.0
 12
51.836979
 22
-4.449854
 32
0.0
 13
51.836979
 23
-4.449854
 33
0.0
  0
LINE
  5
203
330
4F6
100
AcDbEntity
  8
DEFPOINTS
  6
Continuous
 62
     7
370
    13
100
AcDbLine
 10
51.836979
 20
-4.376823
 30
0.0
 11
51.836979
 21
-4.499865
 31
0.0
  0
SOLID
  5
204
330
4F6
100
AcDbEntity
  8
DEFPOINTS
  6
Continuous
 62
     7
370
    13
100
AcDbTrace
 10
51.691917
 20
-4.458188
 30
0.0
 11
51.691917
 21
-4.441521
 31
0.0
 12
51.741917
 22
-4.449854
 32
0.0
 13
51.741917
 23
-4.449854
 33
0.0
  0
LINE
  5
205
330
4F6
100
AcDbEntity
  8
DEFPOINTS
  6
Continuous
 62
     7
370
    13
100
AcDbLine
 10
51.741552
 20
-4.376823
 30
0.0
 11
51.741552
 21
-4.499865
 31
0.0
  0
LINE
  5
206
330
4F6
100
AcDbEntity
  8
DEFPOINTS
  6
Continuous
 62
     7
370
    13
100
AcDbLine
 10
51.691917
 20
-4.449854
 30
0.0
 11
51.6415
 21
-4.449854
 31
0.0
  0
LINE
  5
208
330
4F6
100
AcDbEntity
  8
2-30G
  6
Continuous
 62
     7
370
    13
100
AcDbLine
 10
51.786604
 20
-4.56176
 30
0.0
 11
51.558406
 21
-4.56176
 31
0.0
  0
LINE
  5
209
330
4F6
100
AcDbEntity
  8
DEFPOINTS
  6
Continuous
 62
     7
370
    13
100
AcDbLine
 10
51.786604
 20
-5.00876
 30
0.0
 11
51.558406
 21
-5.00876
 31
0.0
  0
LINE
  5
20A
330
4F6
100
AcDbEntity
  8
DEFPOINTS
  6
Continuous
 62
     7
370
    13
100
AcDbLine
 10
51.608406
 20
-4.61176
 30
0.0
 11
51.608406
 21
-4.95876
 31
0.0
  0
SOLID
  5
20B
330
4F6
100
AcDbEntity
  8
DEFPOINTS
  6
Continuous
 62
     7
370
    13
100
AcDbTrace
 10
51.61674
 20
-4.61176
 30
0.0
 11
51.600073
 21
-4.61176
 31
0.0
 12
51.608406
 22
-4.56176
 32
0.0
 13
51.608406
 23
-4.56176
 33
0.0
  0
SOLID
  5
20C
330
4F6
100
AcDbEntity
  8
DEFPOINTS
  6
Continuous
 62
     7
370
    13
100
AcDbTrace
 10
51.61674
 20
-4.95876
 30
0.0
 11
51.600073
 21
-4.95876
 31
0.0
 12
51.608406
 22
-5.00876
 32
0.0
 13
51.608406
 23
-5.00876
 33
0.0
  0
LINE
  5
20E
330
4F6
100
AcDbEntity
  8
DEFPOINTS
  6
Continuous
 62
     7
370
    13
100
AcDbLine
 10
51.777802
 20
-4.576073
 30
0.0
 11
51.364979
 21
-4.576073
 31
0.0
  0
LINE
  5
20F
330
4F6
100
AcDbEntity
  8
DEFPOINTS
  6
Continuous
 62
     7
370
    13
100
AcDbLine
 10
51.41499
 20
-4.626073
 30
0.0
 11
51.41499
 21
-5.512604
 31
0.0
  0
SOLID
  5
210
330
4F6
100
AcDbEntity
  8
DEFPOINTS
  6
Continuous
 62
     7
370
    13
100
AcDbTrace
 10
51.423323
 20
-4.626073
 30
0.0
 11
51.406656
 21
-4.626073
 31
0.0
 12
51.41499
 22
-4.576073
 32
0.0
 13
51.41499
 23
-4.576073
 33
0.0
  0
SOLID
  5
211
330
4F6
100
AcDbEntity
  8
DEFPOINTS
  6
Continuous
 62
     7
370
    13
100
AcDbTrace
 10
51.423323
 20
-5.512604
 30
0.0
 11
51.406656
 21
-5.512604
 31
0.0
 12
51.41499
 22
-5.562604
 32
0.0
 13
51.41499
 23
-5.562604
 33
0.0
  0
LINE
  5
213
330
4F6
100
AcDbEntity
  8
2-30G
  6
Continuous
 62
     7
370
    13
100
AcDbLine
 10
51.740448
 20
-4.345708
 30
0.0
 11
51.836604
 21
-4.345708
 31
0.0
  0
LINE
  5
214
330
4F6
100
AcDbEntity
  8
2-30G
  6
Continuous
 62
     7
370
    13
100
AcDbLine
 10
51.740448
 20
-4.081177
 30
0.0
 11
51.836604
 21
-4.081177
 31
0.0
  0
LINE
  5
215
330
4F6
100
AcDbEntity
  8
2-30G
  6
Continuous
 62
     7
370
    13
100
AcDbLine
 10
52.311646
 20
-5.561646
 30
0.0
 11
52.905146
 21
-5.561646
 31
0.0
  0
LINE
  5
216
330
4F6
100
AcDbEntity
  8
2-30G
  6
Continuous
 62
     7
370
    13
100
AcDbLine
 10
50.916917
 20
-6.361708
 30
0.0
 11
51.066927
 21
-6.361708
 31
0.0
  0
LINE
  5
218
330
4F6
100
AcDbEntity
  8
REF
  6
Continuous
 62
     7
370
    13
100
AcDbLine
 10
48.284832
 20
-5.707021
 30
0.0
 11
48.218614
 21
-5.707021
 31
0.0
  0
LINE
  5
219
330
4F6
100
AcDbEntity
  8
REF
  6
Continuous
 62
     7
370
    13
100
AcDbLine
 10
48.493593
 20
-5.620938
 30
0.0
 11
48.284832
 21
-5.707021
 31
0.0
  0
SOLID
  5
21A
330
4F6
100
AcDbEntity
  8
REF
  6
Continuous
 62
     7
370
    13
100
AcDbTrace
 10
-48.490416
 20
-5.613229
 30
0.0
 11
-48.49677
 21
-5.628646
 31
0.0
 12
-48.539822
 22
-5.601875
 32
0.0
 13
-48.539822
 23
-5.601875
 33
0.0
210
0.0
220
0.0
230
-1.0
  0
LINE
  5
21B
330
4F6
100
AcDbEntity
  8
REF
  6
Continuous
 62
     7
370
    13
100
AcDbLine
 10
48.894228
 20
-4.975021
 30
0.0
 11
48.933978
 21
-4.975021
 31
0.0
  0
LINE
  5
21C
330
4F6
100
AcDbEntity
  8
REF
  6
Continuous
 62
     7
370
    13
100
AcDbLine
 10
48.817666
 20
-5.080188
 30
0.0
 11
48.894228
 21
-4.975021
 31
0.0
  0
SOLID
  5
21D
330
4F6
100
AcDbEntity
  8
REF
  6
Continuous
 62
     7
370
    13
100
AcDbTrace
 10
-48.824405
 20
-5.085094
 30
0.0
 11
-48.810926
 21
-5.075281
 31
0.0
 12
-48.788239
 22
-5.120615
 32
0.0
 13
-48.788239
 23
-5.120615
 33
0.0
210
0.0
220
0.0
230
-1.0
  0
LINE
  5
21E
330
4F6
100
AcDbEntity
  8
REF
  6
Continuous
 62
     7
370
    13
100
AcDbLine
 10
48.904166
 20
-5.702979
 30
0.0
 11
48.927353
 21
-5.702979
 31
0.0
  0
LINE
  5
21F
330
4F6
100
AcDbEntity
  8
REF
  6
Continuous
 62
     7
370
    13
100
AcDbLine
 10
48.790114
 20
-5.84224
 30
0.0
 11
48.904166
 21
-5.702979
 31
0.0
  0
SOLID
  5
220
330
4F6
100
AcDbEntity
  8
REF
  6
Continuous
 62
     7
370
    13
100
AcDbTrace
 10
-48.796562
 20
-5.847521
 30
0.0
 11
-48.783666
 21
-5.836958
 31
0.0
 12
-48.758426
 22
-5.880927
 32
0.0
 13
-48.758426
 23
-5.880927
 33
0.0
210
0.0
220
0.0
230
-1.0
  0
LINE
  5
221
330
4F6
100
AcDbEntity
  8
REF
  6
Continuous
 62
     7
370
    13
100
AcDbLine
 10
48.728489
 20
-5.567677
 30
0.0
 11
48.904166
 21
-5.702979
 31
0.0
  0
SOLID
  5
222
330
4F6
100
AcDbEntity
  8
REF
  6
Continuous
 62
     7
370
    13
100
AcDbTrace
 10
-48.723405
 20
-5.574281
 30
0.0
 11
-48.733572
 21
-5.561073
 31
0.0
 12
-48.688874
 22
-5.537167
 32
0.0
 13
-48.688874
 23
-5.537167
 33
0.0
210
0.0
220
0.0
230
-1.0
  0
LWPOLYLINE
  5
223
330
4F6
100
AcDbEntity
  8
2-30G
  6
Continuous
 62
     7
370
     0
100
AcDbPolyline
 90
       80
 70
   128
 43
0.0
 10
48.548135
 20
-5.968042
 10
48.563051
 20
-5.963917
 10
48.575593
 20
-5.961458
 10
48.586072
 20
-5.960365
 10
48.59478
 20
-5.960323
 10
48.602051
 20
-5.961
 10
48.608166
 20
-5.962104
 10
48.613447
 20
-5.963312
 10
48.618187
 20
-5.964323
 10
48.622645
 20
-5.964875
 10
48.626895
 20
-5.965031
 10
48.630916
 20
-5.964896
 10
48.634739
 20
-5.964583
 10
48.638374
 20
-5.964219
 10
48.641812
 20
-5.963906
 10
48.645082
 20
-5.96375
 10
48.648166
 20
-5.963896
 10
48.651103
 20
-5.964406
 10
48.653895
 20
-5.96526
 10
48.656562
 20
-5.966406
 10
48.659155
 20
-5.967781
 10
48.661676
 20
-5.969333
 10
48.664155
 20
-5.971021
 10
48.666614
 20
-5.972771
 10
48.669082
 20
-5.974531
 10
48.671593
 20
-5.97626
 10
48.674135
 20
-5.977927
 10
48.676739
 20
-5.9795
 10
48.679416
 20
-5.980969
 10
48.682176
 20
-5.982292
 10
48.68502
 20
-5.983448
 10
48.687978
 20
-5.984417
 10
48.691051
 20
-5.985167
 10
48.694249
 20
-5.985688
 10
48.697562
 20
-5.986
 10
48.700968
 20
-5.986115
 10
48.704437
 20
-5.986073
 10
48.707957
 20
-5.985885
 10
48.711499
 20
-5.985583
 10
48.715051
 20
-5.985198
 10
48.718593
 20
-5.98474
 10
48.722103
 20
-5.98424
 10
48.725582
 20
-5.983708
 10
48.72901
 20
-5.983125
 10
48.732364
 20
-5.98251
 10
48.735666
 20
-5.981854
 10
48.738895
 20
-5.981156
 10
48.742041
 20
-5.980417
 10
48.745093
 20
-5.979635
 10
48.748051
 20
-5.978823
 10
48.750905
 20
-5.977969
 10
48.753655
 20
-5.977083
 10
48.756291
 20
-5.976177
 10
48.758822
 20
-5.97525
 10
48.761228
 20
-5.974312
 10
48.76351
 20
-5.973365
 10
48.765666
 20
-5.972406
 10
48.767697
 20
-5.971448
 10
48.769624
 20
-5.970531
 10
48.771499
 20
-5.969667
 10
48.773332
 20
-5.968896
 10
48.775176
 20
-5.96824
 10
48.777041
 20
-5.96774
 10
48.778978
 20
-5.967417
 10
48.78101
 20
-5.967302
 10
48.783155
 20
-5.967406
 10
48.785405
 20
-5.967667
 10
48.787718
 20
-5.968
 10
48.790072
 20
-5.968333
 10
48.792416
 20
-5.968573
 10
48.794739
 20
-5.968646
 10
48.796978
 20
-5.968458
 10
48.799135
 20
-5.967937
 10
48.801187
 20
-5.967052
 10
48.803239
 20
-5.965969
 10
48.805426
 20
-5.964917
 10
48.807895
 20
-5.964125
 10
48.81076
 20
-5.963812
 10
48.814176
 20
-5.964219
 10
48.81826
 20
-5.965552
  0
CIRCLE
  5
224
330
4F6
100
AcDbEntity
  8
2-30G
  6
Continuous
 62
     7
370
    13
100
AcDbCircle
 10
48.793034
 20
-4.142113
 30
0.0
 40
0.0100008
  0
CIRCLE
  5
225
330
4F6
100
AcDbEntity
  8
2-30G
  6
Continuous
 62
     7
370
    13
100
AcDbCircle
 10
48.793034
 20
-4.282329
 30
0.0
 40
0.0100008
  0
CIRCLE
  5
226
330
4F6
100
AcDbEntity
  8
2-30G
  6
Continuous
 62
     7
370
    13
100
AcDbCircle
 10
48.57814
 20
-4.282329
 30
0.0
 40
0.0100008
  0
CIRCLE
  5
227
330
4F6
100
AcDbEntity
  8
2-30G
  6
Continuous
 62
     7
370
    13
100
AcDbCircle
 10
48.57814
 20
-4.142113
 30
0.0
 40
0.0100008
  0
LINE
  5
228
330
4F6
100
AcDbEntity
  8
2-30G
  6
Continuous
 62
     7
370
    13
100
AcDbLine
 10
48.568135
 20
-4.312125
 30
0.0
 11
48.803155
 21
-4.312125
 31
0.0
  0
LINE
  5
229
330
4F6
100
AcDbEntity
  8
2-30G
  6
Continuous
 62
     7
370
    13
100
AcDbLine
 10
48.568135
 20
-4.562146
 30
0.0
 11
48.803155
 21
-4.562146
 31
0.0
  0
LINE
  5
22B
330
4F6
100
AcDbEntity
  8
DEFPOINTS
  6
Continuous
 62
     7
370
    13
100
AcDbLine
 10
49.314739
 20
-4.562146
 30
0.0
 11
49.844874
 21
-4.562146
 31
0.0
  0
LINE
  5
22C
330
4F6
100
AcDbEntity
  8
2-30G
  6
Continuous
 62
     7
370
    13
100
AcDbLine
 10
48.803155
 20
-4.562146
 30
0.0
 11
48.823155
 21
-4.582146
 31
0.0
  0
LINE
  5
22D
330
4F6
100
AcDbEntity
  8
2-30G
  6
Continuous
 62
     7
370
    13
100
AcDbLine
 10
48.568135
 20
-4.562146
 30
0.0
 11
48.548135
 21
-4.582146
 31
0.0
  0
SPLINE
  5
22E
330
4F6
100
AcDbEntity
  8
2-30G
  6
Continuous
 62
     7
370
     0
100
AcDbSpline
210
0.0
220
0.0
230
1.0
 70
     8
 71
     3
 72
    17
 73
    13
 74
     0
 42
0.0000000001
 43
0.00000001
 40
0.0
 40
0.0
 40
0.0
 40
0.0
 40
0.1
 40
0.2
 40
0.3
 40
0.4
 40
0.5
 40
0.6
 40
0.7
 40
0.7999999999999999
 40
0.8999999999999999
 40
1.0
 40
1.0
 40
1.0
 40
1.0
 10
48.54813455864014
 20
-6.11609375
 30
0.0
 10
48.59133247530681
 20
-6.102583333333333
 30
0.0
 10
48.62062414197347
 20
-6.117895833333333
 30
0.0
 10
48.64990539197347
 20
-6.1076875
 30
0.0
 10
48.6687387253068
 20
-6.123
 30
0.0
 10
48.68965539197347
 20
-6.135760416666667
 30
0.0
 10
48.71894705864014
 20
-6.133208333333333
 30
0.0
 10
48.74614497530681
 20
-6.128104166666667
 30
0.0
 10
48.76706164197347
 20
-6.120447916666667
 30
0.0
 10
48.7796137253068
 20
-6.112791666666666
 30
0.0
 10
48.80053039197347
 20
-6.120447916666667
 30
0.0
 10
48.80889497530681
 20
-6.1076875
 30
0.0
 10
48.82315539197347
 20
-6.11609375
 30
0.0
  0
LINE
  5
230
330
4F6
100
AcDbEntity
  8
2-30G
  6
Continuous
 62
     7
370
    13
100
AcDbLine
 10
48.548124
 20
-5.818031
 30
0.0
 11
48.568135
 21
-5.798021
 31
0.0
  0
LINE
  5
231
330
4F6
100
AcDbEntity
  8
2-30G
  6
DGN Style 2
 62
     7
370
    13
100
AcDbLine
 10
48.788155
 20
-5.708021
 30
0.0
 11
48.583135
 21
-5.708021
 31
0.0
  0
LINE
  5
232
330
4F6
100
AcDbEntity
  8
2-30G
  6
DGN Style 2
 62
     7
370
    13
100
AcDbLine
 10
48.788155
 20
-5.53301
 30
0.0
 11
48.583135
 21
-5.53301
 31
0.0
  0
LINE
  5
233
330
4F6
100
AcDbEntity
  8
2-30G
  6
DGN Style 2
 62
     7
370
    13
100
AcDbLine
 10
48.788155
 20
-5.35799
 30
0.0
 11
48.583135
 21
-5.35799
 31
0.0
  0
LINE
  5
234
330
4F6
100
AcDbEntity
  8
2-30G
  6
DGN Style 2
 62
     7
370
    13
100
AcDbLine
 10
48.788155
 20
-5.182979
 30
0.0
 11
48.583135
 21
-5.182979
 31
0.0
  0
LINE
  5
235
330
4F6
100
AcDbEntity
  8
2-30G
  6
DGN Style 2
 62
     7
370
    13
100
AcDbLine
 10
48.788155
 20
-5.007969
 30
0.0
 11
48.583135
 21
-5.007969
 31
0.0
  0
LINE
  5
236
330
4F6
100
AcDbEntity
  8
2-30G
  6
Continuous
 62
     7
370
    13
100
AcDbLine
 10
48.548135
 20
-4.582146
 30
0.0
 11
48.823155
 21
-4.582146
 31
0.0
  0
LINE
  5
237
330
4F6
100
AcDbEntity
  8
2-30G
  6
DGN Style 2
 62
     7
370
    13
100
AcDbLine
 10
48.583135
 20
-4.642937
 30
0.0
 11
48.788155
 21
-4.642937
 31
0.0
  0
LINE
  5
238
330
4F6
100
AcDbEntity
  8
2-30G
  6
Continuous
 62
     7
370
    13
100
AcDbLine
 10
48.823155
 20
-5.817146
 30
0.0
 11
48.803155
 21
-5.797146
 31
0.0
  0
LINE
  5
239
330
4F6
100
AcDbEntity
  8
2-30G
  6
Continuous
 62
     7
370
    13
100
AcDbLine
 10
48.803155
 20
-5.797146
 30
0.0
 11
48.803155
 21
-4.562146
 31
0.0
  0
LINE
  5
23A
330
4F6
100
AcDbEntity
  8
2-30G
  6
DGN Style 2
 62
     7
370
    13
100
AcDbLine
 10
48.788155
 20
-5.968062
 30
0.0
 11
48.788155
 21
-4.642937
 31
0.0
  0
LINE
  5
23B
330
4F6
100
AcDbEntity
  8
2-30G
  6
Continuous
 62
     7
370
    13
100
AcDbLine
 10
48.568135
 20
-5.798021
 30
0.0
 11
48.568135
 21
-4.562146
 31
0.0
  0
LINE
  5
23C
330
4F6
100
AcDbEntity
  8
2-30G
  6
DGN Style 2
 62
     7
370
    13
100
AcDbLine
 10
48.583135
 20
-5.960677
 30
0.0
 11
48.583135
 21
-4.642937
 31
0.0
  0
LINE
  5
23D
330
4F6
100
AcDbEntity
  8
2-30G
  6
DGN Style 2
 62
     7
370
    13
100
AcDbLine
 10
48.788155
 20
-5.883042
 30
0.0
 11
48.583135
 21
-5.883042
 31
0.0
  0
LINE
  5
23E
330
4F6
100
AcDbEntity
  8
2-30G
  6
DGN Style 2
 62
     7
370
    13
100
AcDbLine
 10
48.788155
 20
-6.262281
 30
0.0
 11
48.788155
 21
-6.115917
 31
0.0
  0
LINE
  5
23F
330
4F6
100
AcDbEntity
  8
2-30G
  6
DGN Style 2
 62
     7
370
    13
100
AcDbLine
 10
48.583135
 20
-6.262281
 30
0.0
 11
48.788155
 21
-6.262281
 31
0.0
  0
LINE
  5
240
330
4F6
100
AcDbEntity
  8
2-30G
  6
DGN Style 2
 62
     7
370
    13
100
AcDbLine
 10
48.583135
 20
-6.262281
 30
0.0
 11
48.583135
 21
-6.105146
 31
0.0
  0
LINE
  5
241
330
4F6
100
AcDbEntity
  8
DEFPOINTS
  6
Continuous
 62
     7
370
    13
100
AcDbLine
 10
48.823155
 20
-4.312125
 30
0.0
 11
49.048155
 21
-4.312125
 31
0.0
  0
LINE
  5
242
330
4F6
100
AcDbEntity
  8
DEFPOINTS
  6
Continuous
 62
     7
370
    13
100
AcDbLine
 10
48.823155
 20
-4.112115
 30
0.0
 11
49.048155
 21
-4.112115
 31
0.0
  0
LINE
  5
243
330
4F6
100
AcDbEntity
  8
DEFPOINTS
  6
Continuous
 62
     7
370
    13
100
AcDbLine
 10
48.853155
 20
-4.562146
 30
0.0
 11
49.201166
 21
-4.562146
 31
0.0
  0
LINE
  5
244
330
4F6
100
AcDbEntity
  8
DEFPOINTS
  6
Continuous
 62
     7
370
    13
100
AcDbLine
 10
48.867301
 20
-6.362292
 30
0.0
 11
49.803353
 21
-6.362292
 31
0.0
  0
LINE
  5
245
330
4F6
100
AcDbEntity
  8
DEFPOINTS
  6
Continuous
 62
     7
370
    13
100
AcDbLine
 10
49.736749
 20
-4.612146
 30
0.0
 11
49.736749
 21
-6.312281
 31
0.0
  0
SOLID
  5
246
330
4F6
100
AcDbEntity
  8
DEFPOINTS
  6
Continuous
 62
     7
370
    13
100
AcDbTrace
 10
49.745082
 20
-4.612146
 30
0.0
 11
49.728416
 21
-4.612146
 31
0.0
 12
49.736749
 22
-4.562146
 32
0.0
 13
49.736749
 23
-4.562146
 33
0.0
  0
SOLID
  5
247
330
4F6
100
AcDbEntity
  8
DEFPOINTS
  6
Continuous
 62
     7
370
    13
100
AcDbTrace
 10
49.745082
 20
-6.312281
 30
0.0
 11
49.728416
 21
-6.312281
 31
0.0
 12
49.736749
 22
-6.362292
 32
0.0
 13
49.736749
 23
-6.362292
 33
0.0
  0
LINE
  5
24B
330
4F6
100
AcDbEntity
  8
2-30G
  6
Continuous
 62
     7
370
    13
100
AcDbLine
 10
48.853155
 20
-4.809979
 30
0.0
 11
48.853155
 21
-4.759979
 31
0.0
  0
LINE
  5
24C
330
4F6
100
AcDbEntity
  8
2-30G
  6
Continuous
 62
     7
370
    13
100
AcDbLine
 10
48.853155
 20
-4.809979
 30
0.0
 11
48.833155
 21
-4.809979
 31
0.0
  0
LINE
  5
24D
330
4F6
100
AcDbEntity
  8
2-30G
  6
Continuous
 62
     7
370
    13
100
AcDbLine
 10
48.853155
 20
-4.759979
 30
0.0
 11
48.833155
 21
-4.759979
 31
0.0
  0
LINE
  5
24E
330
4F6
100
AcDbEntity
  8
2-30G
  6
Continuous
 62
     7
370
    13
100
AcDbLine
 10
48.833155
 20
-4.819979
 30
0.0
 11
48.833155
 21
-4.749979
 31
0.0
  0
LINE
  5
24F
330
4F6
100
AcDbEntity
  8
2-30G
  6
Continuous
 62
     7
370
    13
100
AcDbLine
 10
48.833155
 20
-4.819979
 30
0.0
 11
48.823155
 21
-4.819979
 31
0.0
  0
LINE
  5
250
330
4F6
100
AcDbEntity
  8
2-30G
  6
Continuous
 62
     7
370
    13
100
AcDbLine
 10
48.833155
 20
-4.749979
 30
0.0
 11
48.823155
 21
-4.749979
 31
0.0
  0
LINE
  5
251
330
4F6
100
AcDbEntity
  8
2-30G
  6
Continuous
 62
     7
370
    13
100
AcDbLine
 10
48.898166
 20
-4.799979
 30
0.0
 11
48.853155
 21
-4.799979
 31
0.0
  0
LINE
  5
252
330
4F6
100
AcDbEntity
  8
DEFPOINTS
  6
Continuous
 62
     7
370
    13
100
AcDbLine
 10
48.898166
 20
-4.769979
 30
0.0
 11
48.853155
 21
-4.769979
 31
0.0
  0
LINE
  5
253
330
4F6
100
AcDbEntity
  8
2-30G
  6
Continuous
 62
     7
370
    13
100
AcDbLine
 10
48.898166
 20
-4.799979
 30
0.0
 11
48.898166
 21
-4.769979
 31
0.0
  0
LWPOLYLINE
  5
254
330
4F6
100
AcDbEntity
  8
2-30G
  6
Continuous
 62
     7
370
    53
100
AcDbPolyline
 90
       10
 70
   128
 43
0.0
 10
48.273114
 20
-4.568812
 10
48.183103
 20
-4.658812
 10
48.183103
 20
-4.681312
 10
48.265124
 20
-4.763333
 10
48.265122
 20
-4.763331
 42
0.573574
 10
48.263417
 20
-4.799916
 10
48.263416
 20
-4.799917
 10
48.183103
 20
-4.880229
 10
48.183103
 20
-4.903833
 10
48.273114
 20
-4.993844
  0
LINE
  5
258
330
4F6
100
AcDbEntity
  8
2-30G
  6
DGN Style 2
 62
     7
370
    13
100
AcDbLine
 10
48.823155
 20
-4.769979
 30
0.0
 11
48.257572
 21
-4.769979
 31
0.0
  0
LINE
  5
259
330
4F6
100
AcDbEntity
  8
2-30G
  6
DGN Style 2
 62
     7
370
    13
100
AcDbLine
 10
48.823155
 20
-4.799979
 30
0.0
 11
48.263353
 21
-4.799979
 31
0.0
  0
LINE
  5
25A
330
4F6
100
AcDbEntity
  8
2-30G
  6
Continuous
 62
     7
370
    13
100
AcDbLine
 10
48.548135
 20
-6.362292
 30
0.0
 11
48.548135
 21
-6.110885
 31
0.0
  0
LINE
  5
25B
330
4F6
100
AcDbEntity
  8
2-30G
  6
Continuous
 62
     7
370
    13
100
AcDbLine
 10
48.548135
 20
-6.361708
 30
0.0
 11
48.748155
 21
-6.361708
 31
0.0
  0
LINE
  5
25C
330
4F6
100
AcDbEntity
  8
2-30G
  6
Continuous
 62
     7
370
    13
100
AcDbLine
 10
48.273114
 20
-4.562146
 30
0.0
 11
48.548135
 21
-4.562146
 31
0.0
  0
LINE
  5
25D
330
4F6
100
AcDbEntity
  8
2-30G
  6
Continuous
 62
     7
370
    13
100
AcDbLine
 10
48.548135
 20
-6.362292
 30
0.0
 11
48.548343
 21
-6.105562
 31
0.0
  0
LINE
  5
25E
330
4F6
100
AcDbEntity
  8
2-30G
  6
Continuous
 62
     7
370
    13
100
AcDbLine
 10
48.823155
 20
-6.362292
 30
0.0
 11
48.823155
 21
-6.118125
 31
0.0
  0
LINE
  5
25F
330
4F6
100
AcDbEntity
  8
2-30G
  6
Continuous
 62
     7
370
    13
100
AcDbLine
 10
48.273114
 20
-5.00876
 30
0.0
 11
48.273114
 21
-4.562146
 31
0.0
  0
LINE
  5
260
330
4F6
100
AcDbEntity
  8
2-30G
  6
Continuous
 62
     7
370
    13
100
AcDbLine
 10
48.273114
 20
-5.00876
 30
0.0
 11
48.548135
 21
-5.00876
 31
0.0
  0
LINE
  5
261
330
4F6
100
AcDbEntity
  8
DEFPOINTS
  6
Continuous
 62
     7
370
    13
100
AcDbLine
 10
48.948166
 20
-4.784979
 30
0.0
 11
49.201166
 21
-4.784979
 31
0.0
  0
LINE
  5
262
330
4F6
100
AcDbEntity
  8
DEFPOINTS
  6
Continuous
 62
     7
370
    13
100
AcDbLine
 10
49.193635
 20
-4.612146
 30
0.0
 11
49.193635
 21
-4.734979
 31
0.0
  0
SOLID
  5
263
330
4F6
100
AcDbEntity
  8
DEFPOINTS
  6
Continuous
 62
     7
370
    13
100
AcDbTrace
 10
49.201968
 20
-4.612146
 30
0.0
 11
49.185301
 21
-4.612146
 31
0.0
 12
49.193635
 22
-4.562146
 32
0.0
 13
49.193635
 23
-4.562146
 33
0.0
  0
SOLID
  5
264
330
4F6
100
AcDbEntity
  8
DEFPOINTS
  6
Continuous
 62
     7
370
    13
100
AcDbTrace
 10
49.201968
 20
-4.734979
 30
0.0
 11
49.185301
 21
-4.734979
 31
0.0
 12
49.193635
 22
-4.784979
 32
0.0
 13
49.193635
 23
-4.784979
 33
0.0
  0
LINE
  5
265
330
4F6
100
AcDbEntity
  8
2-30G
  6
Continuous
 62
     7
370
    13
100
AcDbLine
 10
48.548135
 20
-6.362292
 30
0.0
 11
48.823155
 21
-6.362292
 31
0.0
  0
LINE
  5
266
330
4F6
100
AcDbEntity
  8
2-30G
  6
Continuous
 62
     7
370
    13
100
AcDbLine
 10
47.335562
 20
-5.562229
 30
0.0
 11
48.548135
 21
-5.562229
 31
0.0
  0
LINE
  5
267
330
4F6
100
AcDbEntity
  8
2-30G
  6
Continuous
 62
     7
370
    13
100
AcDbLine
 10
48.548135
 20
-5.968042
 30
0.0
 11
48.548135
 21
-4.562146
 31
0.0
  0
LINE
  5
268
330
4F6
100
AcDbEntity
  8
2-30G
  6
Continuous
 62
     7
370
    13
100
AcDbLine
 10
48.823155
 20
-5.965312
 30
0.0
 11
48.823155
 21
-4.582146
 31
0.0
  0
LINE
  5
269
330
4F6
100
AcDbEntity
  8
2-30G
  6
Continuous
 62
     7
370
    13
100
AcDbLine
 10
48.273114
 20
-4.312125
 30
0.0
 11
48.548135
 21
-4.312125
 31
0.0
  0
LINE
  5
26A
330
4F6
100
AcDbEntity
  8
2-30G
  6
Continuous
 62
     7
370
    13
100
AcDbLine
 10
48.273114
 20
-4.112115
 30
0.0
 11
48.803155
 21
-4.112115
 31
0.0
  0
LINE
  5
26B
330
4F6
100
AcDbEntity
  8
2-30G
  6
Continuous
 62
     7
370
    13
100
AcDbLine
 10
48.176947
 20
-4.345708
 30
0.0
 11
48.176947
 21
-4.081177
 31
0.0
  0
LINE
  5
26C
330
4F6
100
AcDbEntity
  8
2-30G
  6
Continuous
 62
     7
370
    13
100
AcDbLine
 10
48.273114
 20
-4.345708
 30
0.0
 11
48.273114
 21
-4.081177
 31
0.0
  0
LINE
  5
26D
330
4F6
100
AcDbEntity
  8
2-30G
  6
Continuous
 62
     7
370
    13
100
AcDbLine
 10
48.548135
 20
-4.312125
 30
0.0
 11
48.548135
 21
-4.112115
 31
0.0
  0
LINE
  5
26E
330
4F6
100
AcDbEntity
  8
2-30G
  6
Continuous
 62
     7
370
    13
100
AcDbLine
 10
48.823155
 20
-4.292125
 30
0.0
 11
48.823155
 21
-4.132115
 31
0.0
  0
LINE
  5
26F
330
4F6
100
AcDbEntity
  8
2-30G
  6
DGN Style 2
 62
     7
370
    13
100
AcDbLine
 10
48.823155
 20
-4.224698
 30
0.0
 11
48.26528
 21
-4.224698
 31
0.0
  0
LINE
  5
270
330
4F6
100
AcDbEntity
  8
2-30G
  6
DGN Style 2
 62
     7
370
    13
100
AcDbLine
 10
48.823155
 20
-4.194698
 30
0.0
 11
48.273114
 21
-4.194698
 31
0.0
  0
LINE
  5
271
330
4F6
100
AcDbEntity
  8
2-30G
  6
Continuous
 62
     7
370
    13
100
AcDbLine
 10
48.900093
 20
-4.224698
 30
0.0
 11
48.900093
 21
-4.194698
 31
0.0
  0
LINE
  5
272
330
4F6
100
AcDbEntity
  8
2-30G
  6
Continuous
 62
     7
370
    13
100
AcDbLine
 10
48.900093
 20
-4.194698
 30
0.0
 11
48.855082
 21
-4.194698
 31
0.0
  0
LINE
  5
273
330
4F6
100
AcDbEntity
  8
2-30G
  6
Continuous
 62
     7
370
    13
100
AcDbLine
 10
48.900093
 20
-4.224698
 30
0.0
 11
48.855082
 21
-4.224698
 31
0.0
  0
LINE
  5
274
330
4F6
100
AcDbEntity
  8
2-30G
  6
Continuous
 62
     7
370
    13
100
AcDbLine
 10
48.835082
 20
-4.174698
 30
0.0
 11
48.825082
 21
-4.174698
 31
0.0
  0
LINE
  5
275
330
4F6
100
AcDbEntity
  8
2-30G
  6
Continuous
 62
     7
370
    13
100
AcDbLine
 10
48.835082
 20
-4.244698
 30
0.0
 11
48.825082
 21
-4.244698
 31
0.0
  0
LINE
  5
276
330
4F6
100
AcDbEntity
  8
2-30G
  6
Continuous
 62
     7
370
    13
100
AcDbLine
 10
48.835082
 20
-4.244698
 30
0.0
 11
48.835082
 21
-4.174698
 31
0.0
  0
LINE
  5
277
330
4F6
100
AcDbEntity
  8
2-30G
  6
Continuous
 62
     7
370
    13
100
AcDbLine
 10
48.855082
 20
-4.184698
 30
0.0
 11
48.835082
 21
-4.184698
 31
0.0
  0
LINE
  5
278
330
4F6
100
AcDbEntity
  8
2-30G
  6
Continuous
 62
     7
370
    13
100
AcDbLine
 10
48.855082
 20
-4.234698
 30
0.0
 11
48.835082
 21
-4.234698
 31
0.0
  0
LINE
  5
279
330
4F6
100
AcDbEntity
  8
2-30G
  6
Continuous
 62
     7
370
    13
100
AcDbLine
 10
48.855082
 20
-4.234698
 30
0.0
 11
48.855082
 21
-4.184698
 31
0.0
  0
LWPOLYLINE
  5
27A
330
4F6
100
AcDbEntity
  8
2-30G
  6
DGN Style 2
 62
     7
370
    53
100
AcDbPolyline
 90
        2
 70
   128
 43
0.0
 10
48.264947
 20
-4.345708
 10
48.264947
 20
-4.081177
  0
LINE
  5
27B
330
4F6
100
AcDbEntity
  8
DEFPOINTS
  6
Continuous
 62
     7
370
    13
100
AcDbLine
 10
48.823155
 20
-4.376823
 30
0.0
 11
48.823155
 21
-4.499865
 31
0.0
  0
LINE
  5
27C
330
4F6
100
AcDbEntity
  8
DEFPOINTS
  6
Continuous
 62
     7
370
    13
100
AcDbLine
 10
48.548135
 20
-4.376823
 30
0.0
 11
48.548135
 21
-4.499865
 31
0.0
  0
LINE
  5
27D
330
4F6
100
AcDbEntity
  8
DEFPOINTS
  6
Continuous
 62
     7
370
    13
100
AcDbLine
 10
48.773155
 20
-4.449854
 30
0.0
 11
48.598135
 21
-4.449854
 31
0.0
  0
SOLID
  5
27E
330
4F6
100
AcDbEntity
  8
DEFPOINTS
  6
Continuous
 62
     7
370
    13
100
AcDbTrace
 10
48.773155
 20
-4.458188
 30
0.0
 11
48.773155
 21
-4.441521
 31
0.0
 12
48.823155
 22
-4.449854
 32
0.0
 13
48.823155
 23
-4.449854
 33
0.0
  0
SOLID
  5
27F
330
4F6
100
AcDbEntity
  8
DEFPOINTS
  6
Continuous
 62
     7
370
    13
100
AcDbTrace
 10
48.598135
 20
-4.458188
 30
0.0
 11
48.598135
 21
-4.441521
 31
0.0
 12
48.548135
 22
-4.449854
 32
0.0
 13
48.548135
 23
-4.449854
 33
0.0
  0
SOLID
  5
282
330
4F6
100
AcDbEntity
  8
DEFPOINTS
  6
Continuous
 62
     7
370
    13
100
AcDbTrace
 10
48.498499
 20
-4.458188
 30
0.0
 11
48.498499
 21
-4.441521
 31
0.0
 12
48.54851
 22
-4.449854
 32
0.0
 13
48.54851
 23
-4.449854
 33
0.0
  0
LINE
  5
283
330
4F6
100
AcDbEntity
  8
DEFPOINTS
  6
Continuous
 62
     7
370
    13
100
AcDbLine
 10
48.498499
 20
-4.449854
 30
0.0
 11
48.323489
 21
-4.449854
 31
0.0
  0
SOLID
  5
284
330
4F6
100
AcDbEntity
  8
DEFPOINTS
  6
Continuous
 62
     7
370
    13
100
AcDbTrace
 10
48.323489
 20
-4.458188
 30
0.0
 11
48.323489
 21
-4.441521
 31
0.0
 12
48.273478
 22
-4.449854
 32
0.0
 13
48.273478
 23
-4.449854
 33
0.0
  0
LINE
  5
285
330
4F6
100
AcDbEntity
  8
DEFPOINTS
  6
Continuous
 62
     7
370
    13
100
AcDbLine
 10
48.273478
 20
-4.376823
 30
0.0
 11
48.273478
 21
-4.499865
 31
0.0
  0
SOLID
  5
286
330
4F6
100
AcDbEntity
  8
DEFPOINTS
  6
Continuous
 62
     7
370
    13
100
AcDbTrace
 10
48.128416
 20
-4.458188
 30
0.0
 11
48.128416
 21
-4.441521
 31
0.0
 12
48.178426
 22
-4.449854
 32
0.0
 13
48.178426
 23
-4.449854
 33
0.0
  0
LINE
  5
287
330
4F6
100
AcDbEntity
  8
DEFPOINTS
  6
Continuous
 62
     7
370
    13
100
AcDbLine
 10
48.178051
 20
-4.376823
 30
0.0
 11
48.178051
 21
-4.499865
 31
0.0
  0
LINE
  5
288
330
4F6
100
AcDbEntity
  8
DEFPOINTS
  6
Continuous
 62
     7
370
    13
100
AcDbLine
 10
48.128416
 20
-4.449854
 30
0.0
 11
48.077999
 21
-4.449854
 31
0.0
  0
LINE
  5
28A
330
4F6
100
AcDbEntity
  8
DEFPOINTS
  6
Continuous
 62
     7
370
    13
100
AcDbLine
 10
48.873166
 20
-4.312125
 30
0.0
 11
49.050176
 21
-4.312125
 31
0.0
  0
LINE
  5
28B
330
4F6
100
AcDbEntity
  8
DEFPOINTS
  6
Continuous
 62
     7
370
    13
100
AcDbLine
 10
48.873166
 20
-4.112115
 30
0.0
 11
49.050176
 21
-4.112115
 31
0.0
  0
LINE
  5
28C
330
4F6
100
AcDbEntity
  8
DEFPOINTS
  6
Continuous
 62
     7
370
    13
100
AcDbLine
 10
49.000166
 20
-4.262125
 30
0.0
 11
49.000166
 21
-4.162115
 31
0.0
  0
SOLID
  5
28D
330
4F6
100
AcDbEntity
  8
DEFPOINTS
  6
Continuous
 62
     7
370
    13
100
AcDbTrace
 10
49.008499
 20
-4.262125
 30
0.0
 11
48.991832
 21
-4.262125
 31
0.0
 12
49.000166
 22
-4.312125
 32
0.0
 13
49.000166
 23
-4.312125
 33
0.0
  0
SOLID
  5
28E
330
4F6
100
AcDbEntity
  8
DEFPOINTS
  6
Continuous
 62
     7
370
    13
100
AcDbTrace
 10
49.008499
 20
-4.162115
 30
0.0
 11
48.991832
 21
-4.162115
 31
0.0
 12
49.000166
 22
-4.112115
 32
0.0
 13
49.000166
 23
-4.112115
 33
0.0
  0
LINE
  5
290
330
4F6
100
AcDbEntity
  8
2-30G
  6
Continuous
 62
     7
370
    13
100
AcDbLine
 10
48.223114
 20
-4.56176
 30
0.0
 11
47.994905
 21
-4.56176
 31
0.0
  0
LINE
  5
291
330
4F6
100
AcDbEntity
  8
DEFPOINTS
  6
Continuous
 62
     7
370
    13
100
AcDbLine
 10
48.223114
 20
-5.00876
 30
0.0
 11
47.994905
 21
-5.00876
 31
0.0
  0
LINE
  5
292
330
4F6
100
AcDbEntity
  8
DEFPOINTS
  6
Continuous
 62
     7
370
    13
100
AcDbLine
 10
48.044916
 20
-4.61176
 30
0.0
 11
48.044916
 21
-4.95876
 31
0.0
  0
SOLID
  5
293
330
4F6
100
AcDbEntity
  8
DEFPOINTS
  6
Continuous
 62
     7
370
    13
100
AcDbTrace
 10
48.053249
 20
-4.61176
 30
0.0
 11
48.036582
 21
-4.61176
 31
0.0
 12
48.044916
 22
-4.56176
 32
0.0
 13
48.044916
 23
-4.56176
 33
0.0
  0
SOLID
  5
294
330
4F6
100
AcDbEntity
  8
DEFPOINTS
  6
Continuous
 62
     7
370
    13
100
AcDbTrace
 10
48.053249
 20
-4.95876
 30
0.0
 11
48.036582
 21
-4.95876
 31
0.0
 12
48.044916
 22
-5.00876
 32
0.0
 13
48.044916
 23
-5.00876
 33
0.0
  0
LINE
  5
296
330
4F6
100
AcDbEntity
  8
DEFPOINTS
  6
Continuous
 62
     7
370
    13
100
AcDbLine
 10
48.214312
 20
-4.576073
 30
0.0
 11
47.801489
 21
-4.576073
 31
0.0
  0
LINE
  5
297
330
4F6
100
AcDbEntity
  8
DEFPOINTS
  6
Continuous
 62
     7
370
    13
100
AcDbLine
 10
47.851489
 20
-4.626073
 30
0.0
 11
47.851489
 21
-5.512604
 31
0.0
  0
SOLID
  5
298
330
4F6
100
AcDbEntity
  8
DEFPOINTS
  6
Continuous
 62
     7
370
    13
100
AcDbTrace
 10
47.859822
 20
-4.626073
 30
0.0
 11
47.843155
 21
-4.626073
 31
0.0
 12
47.851489
 22
-4.576073
 32
0.0
 13
47.851489
 23
-4.576073
 33
0.0
  0
SOLID
  5
299
330
4F6
100
AcDbEntity
  8
DEFPOINTS
  6
Continuous
 62
     7
370
    13
100
AcDbTrace
 10
47.859822
 20
-5.512604
 30
0.0
 11
47.843155
 21
-5.512604
 31
0.0
 12
47.851489
 22
-5.562604
 32
0.0
 13
47.851489
 23
-5.562604
 33
0.0
  0
SOLID
  5
29B
330
4F6
100
AcDbEntity
  8
REF
  6
Continuous
 62
     7
370
    13
100
AcDbTrace
 10
48.21903
 20
-4.736865
 30
0.0
 11
48.205239
 21
-4.746229
 31
0.0
 12
48.240228
 22
-4.782906
 32
0.0
 13
48.240228
 23
-4.782906
 33
0.0
  0
LINE
  5
29C
330
4F6
100
AcDbEntity
  8
REF
  6
Continuous
 62
     7
370
    13
100
AcDbLine
 10
48.212135
 20
-4.741552
 30
0.0
 11
48.005635
 21
-4.437552
 31
0.0
  0
LINE
  5
29D
330
4F6
100
AcDbEntity
  8
REF
  6
Continuous
 62
     7
370
    13
100
AcDbLine
 10
48.005635
 20
-4.437552
 30
0.0
 11
47.85526
 21
-4.437552
 31
0.0
  0
LINE
  5
29E
330
4F6
100
AcDbEntity
  8
2-30G
  6
Continuous
 62
     7
370
    13
100
AcDbLine
 10
48.176947
 20
-4.345708
 30
0.0
 11
48.273114
 21
-4.345708
 31
0.0
  0
LINE
  5
29F
330
4F6
100
AcDbEntity
  8
2-30G
  6
Continuous
 62
     7
370
    13
100
AcDbLine
 10
48.176947
 20
-4.081177
 30
0.0
 11
48.273114
 21
-4.081177
 31
0.0
  0
LINE
  5
2A0
330
4F6
100
AcDbEntity
  8
2-30G
  6
Continuous
 62
     7
370
    13
100
AcDbLine
 10
48.823155
 20
-5.562229
 30
0.0
 11
49.416655
 21
-5.562229
 31
0.0
  0
LINE
  5
2A1
330
4F6
100
AcDbEntity
  8
2-30G
  6
Continuous
 62
     7
370
    13
100
AcDbLine
 10
55.032793
 20
-5.562229
 30
0.0
 11
55.626293
 21
-5.562229
 31
0.0
  0
LINE
  5
2A2
330
4F6
100
AcDbEntity
  8
REF
  6
Continuous
 62
     7
370
    13
100
AcDbLine
 10
54.889105
 20
-5.48876
 30
0.0
 11
54.593022
 21
-5.72051
 31
0.0
  0
SOLID
  5
2A3
330
4F6
100
AcDbEntity
  8
REF
  6
Continuous
 62
     7
370
    13
100
AcDbTrace
 10
-54.883959
 20
-5.482198
 30
0.0
 11
-54.89424
 21
-5.495323
 31
0.0
 12
-54.92847
 22
-5.457937
 32
0.0
 13
-54.92847
 23
-5.457937
 33
0.0
210
0.0
220
0.0
230
-1.0
  0
LINE
  5
2A4
330
4F6
100
AcDbEntity
  8
2-30G
  6
Continuous
 62
     7
370
    13
100
AcDbLine
 10
54.386584
 20
-4.081177
 30
0.0
 11
54.482751
 21
-4.081177
 31
0.0
  0
LINE
  5
2A5
330
4F6
100
AcDbEntity
  8
2-30G
  6
Continuous
 62
     7
370
    13
100
AcDbLine
 10
54.386584
 20
-4.345708
 30
0.0
 11
54.482751
 21
-4.345708
 31
0.0
  0
LINE
  5
2A6
330
4F6
100
AcDbEntity
  8
REF
  6
Continuous
 62
     7
370
    13
100
AcDbLine
 10
54.215272
 20
-4.437552
 30
0.0
 11
54.064886
 21
-4.437552
 31
0.0
  0
LINE
  5
2A7
330
4F6
100
AcDbEntity
  8
REF
  6
Continuous
 62
     7
370
    13
100
AcDbLine
 10
54.421772
 20
-4.741552
 30
0.0
 11
54.215272
 21
-4.437552
 31
0.0
  0
SOLID
  5
2A8
330
4F6
100
AcDbEntity
  8
REF
  6
Continuous
 62
     7
370
    13
100
AcDbTrace
 10
54.428657
 20
-4.736865
 30
0.0
 11
54.414876
 21
-4.746229
 31
0.0
 12
54.449865
 22
-4.782906
 32
0.0
 13
54.449865
 23
-4.782906
 33
0.0
  0
SOLID
  5
2AA
330
4F6
100
AcDbEntity
  8
2-30G
  6
Continuous
 62
     7
370
    13
100
AcDbTrace
 10
54.069459
 20
-5.512604
 30
0.0
 11
54.052793
 21
-5.512604
 31
0.0
 12
54.061126
 22
-5.562604
 32
0.0
 13
54.061126
 23
-5.562604
 33
0.0
  0
SOLID
  5
2AB
330
4F6
100
AcDbEntity
  8
DEFPOINTS
  6
Continuous
 62
     7
370
    13
100
AcDbTrace
 10
54.069459
 20
-4.626073
 30
0.0
 11
54.052793
 21
-4.626073
 31
0.0
 12
54.061126
 22
-4.576073
 32
0.0
 13
54.061126
 23
-4.576073
 33
0.0
  0
LINE
  5
2AC
330
4F6
100
AcDbEntity
  8
DEFPOINTS
  6
Continuous
 62
     7
370
    13
100
AcDbLine
 10
54.061126
 20
-4.626073
 30
0.0
 11
54.061126
 21
-5.512604
 31
0.0
  0
LINE
  5
2AD
330
4F6
100
AcDbEntity
  8
DEFPOINTS
  6
Continuous
 62
     7
370
    13
100
AcDbLine
 10
54.423938
 20
-4.576073
 30
0.0
 11
54.011115
 21
-4.576073
 31
0.0
  0
SOLID
  5
2AF
330
4F6
100
AcDbEntity
  8
DEFPOINTS
  6
Continuous
 62
     7
370
    13
100
AcDbTrace
 10
54.262876
 20
-4.95876
 30
0.0
 11
54.246209
 21
-4.95876
 31
0.0
 12
54.254543
 22
-5.00876
 32
0.0
 13
54.254543
 23
-5.00876
 33
0.0
  0
SOLID
  5
2B0
330
4F6
100
AcDbEntity
  8
DEFPOINTS
  6
Continuous
 62
     7
370
    13
100
AcDbTrace
 10
54.262876
 20
-4.61176
 30
0.0
 11
54.246209
 21
-4.61176
 31
0.0
 12
54.254543
 22
-4.56176
 32
0.0
 13
54.254543
 23
-4.56176
 33
0.0
  0
LINE
  5
2B1
330
4F6
100
AcDbEntity
  8
DEFPOINTS
  6
Continuous
 62
     7
370
    13
100
AcDbLine
 10
54.254543
 20
-4.61176
 30
0.0
 11
54.254543
 21
-4.95876
 31
0.0
  0
LINE
  5
2B2
330
4F6
100
AcDbEntity
  8
DEFPOINTS
  6
Continuous
 62
     7
370
    13
100
AcDbLine
 10
54.43274
 20
-5.00876
 30
0.0
 11
54.204543
 21
-5.00876
 31
0.0
  0
LINE
  5
2B3
330
4F6
100
AcDbEntity
  8
DEFPOINTS
  6
Continuous
 62
     7
370
    13
100
AcDbLine
 10
54.43274
 20
-4.56176
 30
0.0
 11
54.204543
 21
-4.56176
 31
0.0
  0
SOLID
  5
2B5
330
4F6
100
AcDbEntity
  8
DEFPOINTS
  6
Continuous
 62
     7
370
    13
100
AcDbTrace
 10
55.218136
 20
-4.162115
 30
0.0
 11
55.20147
 21
-4.162115
 31
0.0
 12
55.209803
 22
-4.112115
 32
0.0
 13
55.209803
 23
-4.112115
 33
0.0
  0
SOLID
  5
2B6
330
4F6
100
AcDbEntity
  8
DEFPOINTS
  6
Continuous
 62
     7
370
    13
100
AcDbTrace
 10
55.218136
 20
-4.262125
 30
0.0
 11
55.20147
 21
-4.262125
 31
0.0
 12
55.209803
 22
-4.312125
 32
0.0
 13
55.209803
 23
-4.312125
 33
0.0
  0
LINE
  5
2B7
330
4F6
100
AcDbEntity
  8
DEFPOINTS
  6
Continuous
 62
     7
370
    13
100
AcDbLine
 10
55.209803
 20
-4.262125
 30
0.0
 11
55.209803
 21
-4.162115
 31
0.0
  0
LINE
  5
2B8
330
4F6
100
AcDbEntity
  8
DEFPOINTS
  6
Continuous
 62
     7
370
    13
100
AcDbLine
 10
55.082793
 20
-4.112115
 30
0.0
 11
55.259803
 21
-4.112115
 31
0.0
  0
LINE
  5
2B9
330
4F6
100
AcDbEntity
  8
DEFPOINTS
  6
Continuous
 62
     7
370
    13
100
AcDbLine
 10
55.082793
 20
-4.312125
 30
0.0
 11
55.259803
 21
-4.312125
 31
0.0
  0
LINE
  5
2BB
330
4F6
100
AcDbEntity
  8
DEFPOINTS
  6
Continuous
 62
     7
370
    13
100
AcDbLine
 10
54.338053
 20
-4.449854
 30
0.0
 11
54.287636
 21
-4.449854
 31
0.0
  0
LINE
  5
2BC
330
4F6
100
AcDbEntity
  8
DEFPOINTS
  6
Continuous
 62
     7
370
    13
100
AcDbLine
 10
54.387688
 20
-4.376823
 30
0.0
 11
54.387688
 21
-4.499865
 31
0.0
  0
SOLID
  5
2BD
330
4F6
100
AcDbEntity
  8
DEFPOINTS
  6
Continuous
 62
     7
370
    13
100
AcDbTrace
 10
54.338053
 20
-4.458188
 30
0.0
 11
54.338053
 21
-4.441521
 31
0.0
 12
54.388053
 22
-4.449854
 32
0.0
 13
54.388053
 23
-4.449854
 33
0.0
  0
LINE
  5
2BE
330
4F6
100
AcDbEntity
  8
DEFPOINTS
  6
Continuous
 62
     7
370
    13
100
AcDbLine
 10
54.483115
 20
-4.376823
 30
0.0
 11
54.483115
 21
-4.499865
 31
0.0
  0
SOLID
  5
2BF
330
4F6
100
AcDbEntity
  8
DEFPOINTS
  6
Continuous
 62
     7
370
    13
100
AcDbTrace
 10
54.533126
 20
-4.458188
 30
0.0
 11
54.533126
 21
-4.441521
 31
0.0
 12
54.483115
 22
-4.449854
 32
0.0
 13
54.483115
 23
-4.449854
 33
0.0
  0
LINE
  5
2C0
330
4F6
100
AcDbEntity
  8
DEFPOINTS
  6
Continuous
 62
     7
370
    13
100
AcDbLine
 10
54.708136
 20
-4.449854
 30
0.0
 11
54.533126
 21
-4.449854
 31
0.0
  0
SOLID
  5
2C1
330
4F6
100
AcDbEntity
  8
DEFPOINTS
  6
Continuous
 62
     7
370
    13
100
AcDbTrace
 10
54.708136
 20
-4.458188
 30
0.0
 11
54.708136
 21
-4.441521
 31
0.0
 12
54.758136
 22
-4.449854
 32
0.0
 13
54.758136
 23
-4.449854
 33
0.0
  0
SOLID
  5
2C4
330
4F6
100
AcDbEntity
  8
DEFPOINTS
  6
Continuous
 62
     7
370
    13
100
AcDbTrace
 10
54.807772
 20
-4.458188
 30
0.0
 11
54.807772
 21
-4.441521
 31
0.0
 12
54.757772
 22
-4.449854
 32
0.0
 13
54.757772
 23
-4.449854
 33
0.0
  0
SOLID
  5
2C5
330
4F6
100
AcDbEntity
  8
DEFPOINTS
  6
Continuous
 62
     7
370
    13
100
AcDbTrace
 10
54.982793
 20
-4.458188
 30
0.0
 11
54.982793
 21
-4.441521
 31
0.0
 12
55.032793
 22
-4.449854
 32
0.0
 13
55.032793
 23
-4.449854
 33
0.0
  0
LINE
  5
2C6
330
4F6
100
AcDbEntity
  8
DEFPOINTS
  6
Continuous
 62
     7
370
    13
100
AcDbLine
 10
54.982793
 20
-4.449854
 30
0.0
 11
54.807772
 21
-4.449854
 31
0.0
  0
LINE
  5
2C7
330
4F6
100
AcDbEntity
  8
DEFPOINTS
  6
Continuous
 62
     7
370
    13
100
AcDbLine
 10
54.757772
 20
-4.376823
 30
0.0
 11
54.757772
 21
-4.499865
 31
0.0
  0
LINE
  5
2C8
330
4F6
100
AcDbEntity
  8
DEFPOINTS
  6
Continuous
 62
     7
370
    13
100
AcDbLine
 10
55.032793
 20
-4.376823
 30
0.0
 11
55.032793
 21
-4.499865
 31
0.0
  0
LWPOLYLINE
  5
2C9
330
4F6
100
AcDbEntity
  8
2-30G
  6
DGN Style 2
 62
     7
370
    53
100
AcDbPolyline
 90
        2
 70
   128
 43
0.0
 10
54.474574
 20
-4.345708
 10
54.474574
 20
-4.081177
  0
LINE
  5
2CA
330
4F6
100
AcDbEntity
  8
2-30G
  6
Continuous
 62
     7
370
    13
100
AcDbLine
 10
55.06472
 20
-4.234698
 30
0.0
 11
55.06472
 21
-4.184698
 31
0.0
  0
LINE
  5
2CB
330
4F6
100
AcDbEntity
  8
2-30G
  6
Continuous
 62
     7
370
    13
100
AcDbLine
 10
55.06472
 20
-4.234698
 30
0.0
 11
55.04472
 21
-4.234698
 31
0.0
  0
LINE
  5
2CC
330
4F6
100
AcDbEntity
  8
2-30G
  6
Continuous
 62
     7
370
    13
100
AcDbLine
 10
55.06472
 20
-4.184698
 30
0.0
 11
55.04472
 21
-4.184698
 31
0.0
  0
LINE
  5
2CD
330
4F6
100
AcDbEntity
  8
2-30G
  6
Continuous
 62
     7
370
    13
100
AcDbLine
 10
55.04472
 20
-4.244698
 30
0.0
 11
55.04472
 21
-4.174698
 31
0.0
  0
LINE
  5
2CE
330
4F6
100
AcDbEntity
  8
2-30G
  6
Continuous
 62
     7
370
    13
100
AcDbLine
 10
55.04472
 20
-4.244698
 30
0.0
 11
55.03472
 21
-4.244698
 31
0.0
  0
LINE
  5
2CF
330
4F6
100
AcDbEntity
  8
2-30G
  6
Continuous
 62
     7
370
    13
100
AcDbLine
 10
55.04472
 20
-4.174698
 30
0.0
 11
55.03472
 21
-4.174698
 31
0.0
  0
LINE
  5
2D0
330
4F6
100
AcDbEntity
  8
2-30G
  6
Continuous
 62
     7
370
    13
100
AcDbLine
 10
55.10973
 20
-4.224698
 30
0.0
 11
55.06472
 21
-4.224698
 31
0.0
  0
LINE
  5
2D1
330
4F6
100
AcDbEntity
  8
2-30G
  6
Continuous
 62
     7
370
    13
100
AcDbLine
 10
55.10973
 20
-4.194698
 30
0.0
 11
55.06472
 21
-4.194698
 31
0.0
  0
LINE
  5
2D2
330
4F6
100
AcDbEntity
  8
2-30G
  6
Continuous
 62
     7
370
    13
100
AcDbLine
 10
55.10973
 20
-4.224698
 30
0.0
 11
55.10973
 21
-4.194698
 31
0.0
  0
LINE
  5
2D3
330
4F6
100
AcDbEntity
  8
2-30G
  6
DGN Style 2
 62
     7
370
    13
100
AcDbLine
 10
55.03472
 20
-4.194698
 30
0.0
 11
54.482751
 21
-4.194698
 31
0.0
  0
LINE
  5
2D4
330
4F6
100
AcDbEntity
  8
2-30G
  6
DGN Style 2
 62
     7
370
    13
100
AcDbLine
 10
55.03472
 20
-4.224698
 30
0.0
 11
54.474907
 21
-4.224698
 31
0.0
  0
LINE
  5
2D5
330
4F6
100
AcDbEntity
  8
2-30G
  6
Continuous
 62
     7
370
    13
100
AcDbLine
 10
55.032793
 20
-4.312125
 30
0.0
 11
55.032793
 21
-4.112115
 31
0.0
  0
LINE
  5
2D6
330
4F6
100
AcDbEntity
  8
2-30G
  6
Continuous
 62
     7
370
    13
100
AcDbLine
 10
54.757772
 20
-4.312125
 30
0.0
 11
54.757772
 21
-4.112115
 31
0.0
  0
LINE
  5
2D7
330
4F6
100
AcDbEntity
  8
2-30G
  6
Continuous
 62
     7
370
    13
100
AcDbLine
 10
54.482751
 20
-4.345708
 30
0.0
 11
54.482751
 21
-4.081177
 31
0.0
  0
LINE
  5
2D8
330
4F6
100
AcDbEntity
  8
2-30G
  6
Continuous
 62
     7
370
    13
100
AcDbLine
 10
54.386584
 20
-4.345708
 30
0.0
 11
54.386584
 21
-4.081177
 31
0.0
  0
LINE
  5
2D9
330
4F6
100
AcDbEntity
  8
2-30G
  6
Continuous
 62
     7
370
    13
100
AcDbLine
 10
54.482751
 20
-4.112115
 30
0.0
 11
55.032793
 21
-4.112115
 31
0.0
  0
LINE
  5
2DA
330
4F6
100
AcDbEntity
  8
2-30G
  6
Continuous
 62
     7
370
    13
100
AcDbLine
 10
54.482751
 20
-4.312125
 30
0.0
 11
55.032793
 21
-4.312125
 31
0.0
  0
SPLINE
  5
2DB
330
4F6
100
AcDbEntity
  8
2-30G
  6
Continuous
 62
     7
370
     0
100
AcDbSpline
210
0.0
220
0.0
230
1.0
 70
     8
 71
     3
 72
    17
 73
    13
 74
     0
 42
0.0000000001
 43
0.00000001
 40
0.0
 40
0.0
 40
0.0
 40
0.0
 40
0.1
 40
0.2
 40
0.3
 40
0.4
 40
0.5
 40
0.6
 40
0.7
 40
0.7999999999999999
 40
0.8999999999999999
 40
1.0
 40
1.0
 40
1.0
 40
1.0
 10
54.75777169135986
 20
-5.956354166666666
 30
0.0
 10
54.78245919135986
 20
-5.948427083333333
 30
0.0
 10
54.81061544135986
 20
-5.958989583333334
 30
0.0
 10
54.83877169135986
 20
-5.948427083333333
 30
0.0
 10
54.88100085802652
 20
-5.962958333333333
 30
0.0
 10
54.90698002469319
 20
-5.956354166666666
 30
0.0
 10
54.93296960802653
 20
-5.9510625
 30
0.0
 10
54.94812585802653
 20
-5.9603125
 30
0.0
 10
54.96869877469319
 20
-5.953708333333333
 30
0.0
 10
54.98818835802653
 20
-5.964270833333333
 30
0.0
 10
55.01092794135986
 20
-5.956354166666666
 30
0.0
 10
55.02283419135986
 20
-5.958989583333334
 30
0.0
 10
55.03279252469319
 20
-5.963593749999999
 30
0.0
  0
LINE
  5
2DD
330
4F6
100
AcDbEntity
  8
2-30G
  6
Continuous
 62
     7
370
    13
100
AcDbLine
 10
55.032793
 20
-5.965312
 30
0.0
 11
55.032793
 21
-4.562146
 31
0.0
  0
LINE
  5
2DE
330
4F6
100
AcDbEntity
  8
2-30G
  6
Continuous
 62
     7
370
    13
100
AcDbLine
 10
54.757772
 20
-5.957521
 30
0.0
 11
54.757772
 21
-4.562146
 31
0.0
  0
SPLINE
  5
2DF
330
4F6
100
AcDbEntity
  8
2-30G
  6
Continuous
 62
     7
370
     0
100
AcDbSpline
210
0.0
220
0.0
230
1.0
 70
     8
 71
     3
 72
    17
 73
    13
 74
     0
 42
0.0000000001
 43
0.00000001
 40
0.0
 40
0.0
 40
0.0
 40
0.0
 40
0.1
 40
0.2
 40
0.3
 40
0.4
 40
0.5
 40
0.6
 40
0.7
 40
0.7999999999999999
 40
0.8999999999999999
 40
1.0
 40
1.0
 40
1.0
 40
1.0
 10
54.75777169135986
 20
-6.110885416666666
 30
0.0
 10
54.78245919135986
 20
-6.102958333333333
 30
0.0
 10
54.81061544135986
 20
-6.113520833333333
 30
0.0
 10
54.83877169135986
 20
-6.102958333333333
 30
0.0
 10
54.88100085802652
 20
-6.117489583333333
 30
0.0
 10
54.90698002469319
 20
-6.110885416666666
 30
0.0
 10
54.93296960802653
 20
-6.105604166666667
 30
0.0
 10
54.94812585802653
 20
-6.114843749999999
 30
0.0
 10
54.96869877469319
 20
-6.108239583333333
 30
0.0
 10
54.98818835802653
 20
-6.1188125
 30
0.0
 10
55.01092794135986
 20
-6.110885416666666
 30
0.0
 10
55.02283419135986
 20
-6.113520833333333
 30
0.0
 10
55.03279252469319
 20
-6.118125
 30
0.0
  0
LINE
  5
2E1
330
4F6
100
AcDbEntity
  8
2-30G
  6
Continuous
 62
     7
370
    13
100
AcDbLine
 10
53.768615
 20
-5.562229
 30
0.0
 11
54.757772
 21
-5.562229
 31
0.0
  0
LINE
  5
2E2
330
4F6
100
AcDbEntity
  8
2-30G
  6
Continuous
 62
     7
370
    13
100
AcDbLine
 10
54.757772
 20
-6.362292
 30
0.0
 11
55.032793
 21
-6.362292
 31
0.0
  0
LINE
  5
2E3
330
4F6
100
AcDbEntity
  8
REF
  6
Continuous
 62
     7
370
    13
100
AcDbLine
 10
55.102272
 20
-4.99876
 30
0.0
 11
55.165105
 21
-4.99876
 31
0.0
  0
SOLID
  5
2E4
330
4F6
100
AcDbEntity
  8
DEFPOINTS
  6
Continuous
 62
     7
370
    13
100
AcDbTrace
 10
55.258272
 20
-4.734979
 30
0.0
 11
55.241605
 21
-4.734979
 31
0.0
 12
55.249938
 22
-4.784979
 32
0.0
 13
55.249938
 23
-4.784979
 33
0.0
  0
SOLID
  5
2E5
330
4F6
100
AcDbEntity
  8
DEFPOINTS
  6
Continuous
 62
     7
370
    13
100
AcDbTrace
 10
55.258272
 20
-4.612146
 30
0.0
 11
55.241605
 21
-4.612146
 31
0.0
 12
55.249938
 22
-4.562146
 32
0.0
 13
55.249938
 23
-4.562146
 33
0.0
  0
LINE
  5
2E6
330
4F6
100
AcDbEntity
  8
DEFPOINTS
  6
Continuous
 62
     7
370
    13
100
AcDbLine
 10
55.249938
 20
-4.612146
 30
0.0
 11
55.249938
 21
-4.734979
 31
0.0
  0
LINE
  5
2E7
330
4F6
100
AcDbEntity
  8
DEFPOINTS
  6
Continuous
 62
     7
370
    13
100
AcDbLine
 10
55.157803
 20
-4.784979
 30
0.0
 11
55.299949
 21
-4.784979
 31
0.0
  0
LINE
  5
2E8
330
4F6
100
AcDbEntity
  8
2-30G
  6
Continuous
 62
     7
370
    13
100
AcDbLine
 10
55.082793
 20
-4.562146
 30
0.0
 11
55.299949
 21
-4.562146
 31
0.0
  0
LINE
  5
2E9
330
4F6
100
AcDbEntity
  8
2-30G
  6
Continuous
 62
     7
370
    13
100
AcDbLine
 10
54.482751
 20
-5.00876
 30
0.0
 11
55.032793
 21
-5.00876
 31
0.0
  0
LINE
  5
2EA
330
4F6
100
AcDbEntity
  8
2-30G
  6
Continuous
 62
     7
370
    13
100
AcDbLine
 10
54.482751
 20
-5.00876
 30
0.0
 11
54.482751
 21
-4.562146
 31
0.0
  0
LINE
  5
2EB
330
4F6
100
AcDbEntity
  8
2-30G
  6
Continuous
 62
     7
370
    13
100
AcDbLine
 10
55.032793
 20
-6.362292
 30
0.0
 11
55.032793
 21
-6.118125
 31
0.0
  0
LINE
  5
2ED
330
4F6
100
AcDbEntity
  8
REF
  6
Continuous
 62
     7
370
    13
100
AcDbLine
 10
48.690427
 20
-8.713437
 30
0.0
 11
48.717469
 21
-8.713437
 31
0.0
  0
LINE
  5
2EF
330
4F6
100
AcDbEntity
  8
REF
  6
Continuous
 62
     7
370
    13
100
AcDbLine
 10
48.599031
 20
-8.728229
 30
0.0
 11
48.690427
 21
-8.713437
 31
0.0
  0
SOLID
  5
2F0
330
4F6
100
AcDbEntity
  8
REF
  6
Continuous
 62
     7
370
    13
100
AcDbTrace
 10
48.600396
 20
-8.736448
 30
0.0
 11
48.597656
 21
-8.72001
 31
0.0
 12
48.549708
 22
-8.736479
 32
0.0
 13
48.549708
 23
-8.736479
 33
0.0
  0
LINE
  5
2F3
330
4F6
100
AcDbEntity
  8
REF
  6
Continuous
 62
     7
370
    13
100
AcDbLine
 10
51.424611
 20
-8.869462
 30
0.0
 11
51.451652
 21
-8.869462
 31
0.0
  0
LINE
  5
2F4
330
4F6
100
AcDbEntity
  8
REF
  6
Continuous
 62
     7
370
    13
100
AcDbLine
 10
50.95835
 20
-8.946514
 30
0.0
 11
51.424611
 21
-8.869462
 31
0.0
  0
SOLID
  5
2F5
330
4F6
100
AcDbEntity
  8
REF
  6
Continuous
 62
     7
370
    13
100
AcDbTrace
 10
50.959715
 20
-8.954733
 30
0.0
 11
50.956975
 21
-8.938295
 31
0.0
 12
50.909027
 22
-8.954764
 32
0.0
 13
50.909027
 23
-8.954764
 33
0.0
  0
LINE
  5
2F6
330
4F6
100
AcDbEntity
  8
2-30G
  6
Continuous
 62
     7
370
    13
100
AcDbLine
 10
50.909382
 20
-8.918233
 30
0.0
 11
50.909382
 21
-9.055493
 31
0.0
  0
SOLID
  5
2FB
330
4F6
100
AcDbEntity
  8
DEFPOINTS
  6
Continuous
 62
     7
370
    13
100
AcDbTrace
 10
48.573844
 20
-9.407042
 30
0.0
 11
48.573844
 21
-9.390375
 31
0.0
 12
48.623854
 22
-9.398708
 32
0.0
 13
48.623854
 23
-9.398708
 33
0.0
  0
SOLID
  5
2FC
330
4F6
100
AcDbEntity
  8
DEFPOINTS
  6
Continuous
 62
     7
370
    13
100
AcDbTrace
 10
48.47601
 20
-9.407042
 30
0.0
 11
48.47601
 21
-9.390375
 31
0.0
 12
48.42601
 22
-9.398708
 32
0.0
 13
48.42601
 23
-9.398708
 33
0.0
  0
LINE
  5
2FD
330
4F6
100
AcDbEntity
  8
DEFPOINTS
  6
Continuous
 62
     7
370
    13
100
AcDbLine
 10
48.47601
 20
-9.398708
 30
0.0
 11
48.573844
 21
-9.398708
 31
0.0
  0
LINE
  5
2FE
330
4F6
100
AcDbEntity
  8
DEFPOINTS
  6
Continuous
 62
     7
370
    13
100
AcDbLine
 10
48.623854
 20
-9.358885
 30
0.0
 11
48.623854
 21
-9.448708
 31
0.0
  0
LINE
  5
2FF
330
4F6
100
AcDbEntity
  8
DEFPOINTS
  6
Continuous
 62
     7
370
    13
100
AcDbLine
 10
48.42601
 20
-9.261083
 30
0.0
 11
48.42601
 21
-9.448708
 31
0.0
  0
LINE
  5
301
330
4F6
100
AcDbEntity
  8
REF
  6
Continuous
 62
     7
370
    13
100
AcDbLine
 10
51.253975
 20
-7.915243
 30
0.0
 11
51.324298
 21
-7.915243
 31
0.0
  0
LINE
  5
302
330
4F6
100
AcDbEntity
  8
REF
  6
Continuous
 62
     7
370
    13
100
AcDbLine
 10
51.04709
 20
-7.831722
 30
0.0
 11
51.253975
 21
-7.915243
 31
0.0
  0
SOLID
  5
303
330
4F6
100
AcDbEntity
  8
REF
  6
Continuous
 62
     7
370
    13
100
AcDbTrace
 10
-51.043965
 20
-7.839441
 30
0.0
 11
-51.050204
 21
-7.823993
 31
0.0
 12
-51.000725
 22
-7.813003
 32
0.0
 13
-51.000725
 23
-7.813003
 33
0.0
210
0.0
220
0.0
230
-1.0
  0
LINE
  5
315
330
4F6
100
AcDbEntity
  8
BORDER
  6
Continuous
 62
     7
370
    13
100
AcDbLine
 10
47.120094
 20
-10.404813
 30
0.0
 11
56.220823
 21
-10.404813
 31
0.0
  0
LINE
  5
316
330
4F6
100
AcDbEntity
  8
BORDER
  6
Continuous
 62
     7
370
    13
100
AcDbLine
 10
47.120094
 20
-9.904771
 30
0.0
 11
56.220823
 21
-9.904771
 31
0.0
  0
LINE
  5
317
330
4F6
100
AcDbEntity
  8
BORDER
  6
Continuous
 62
     7
370
    13
100
AcDbLine
 10
54.020646
 20
-10.404813
 30
0.0
 11
54.020646
 21
-9.904771
 31
0.0
  0
LINE
  5
318
330
4F6
100
AcDbEntity
  8
BORDER
  6
Continuous
 62
     7
370
    13
100
AcDbLine
 10
55.120729
 20
-10.404813
 30
0.0
 11
55.120729
 21
-9.904771
 31
0.0
  0
LINE
  5
31D
330
4F6
100
AcDbEntity
  8
BORDER
  6
Continuous
 62
     7
370
    13
100
AcDbLine
 10
56.220823
 20
-10.404813
 30
0.0
 11
56.220823
 21
-3.154229
 31
0.0
  0
LINE
  5
31E
330
4F6
100
AcDbEntity
  8
BORDER
  6
Continuous
 62
     7
370
    13
100
AcDbLine
 10
47.120094
 20
-3.154229
 30
0.0
 11
56.220823
 21
-3.154229
 31
0.0
  0
LINE
  5
31F
330
4F6
100
AcDbEntity
  8
2-30G
  6
Continuous
 62
     7
370
    13
100
AcDbLine
 10
54.757772
 20
-6.362292
 30
0.0
 11
54.75798
 21
-6.105562
 31
0.0
  0
LINE
  5
320
330
4F6
100
AcDbEntity
  8
2-30G
  6
Continuous
 62
     7
370
    13
100
AcDbLine
 10
54.482751
 20
-4.562146
 30
0.0
 11
55.032793
 21
-4.562146
 31
0.0
  0
LINE
  5
321
330
4F6
100
AcDbEntity
  8
2-30G
  6
Continuous
 62
     7
370
    13
100
AcDbLine
 10
50.916917
 20
-6.361708
 30
0.0
 11
50.916917
 21
-6.104729
 31
0.0
  0
LINE
  5
322
330
4F6
100
AcDbEntity
  8
2-30G
  6
Continuous
 62
     7
370
    13
100
AcDbLine
 10
51.066927
 20
-6.361708
 30
0.0
 11
51.066927
 21
-6.098271
 31
0.0
  0
LINE
  5
323
330
4F6
100
AcDbEntity
  8
2-30G
  6
Continuous
 62
     7
370
    13
100
AcDbLine
 10
54.757772
 20
-6.361708
 30
0.0
 11
54.957782
 21
-6.361708
 31
0.0
  0
LINE
  5
324
330
4F6
100
AcDbEntity
  8
2-30G
  6
Continuous
 62
     7
370
    13
100
AcDbLine
 10
50.916917
 20
-4.564552
 30
0.0
 11
51.066927
 21
-4.564552
 31
0.0
  0
LINE
  5
334
330
4F6
100
AcDbEntity
  8
2-30G
  6
Continuous
 62
     7
370
    13
100
AcDbLine
 10
50.979427
 20
-4.564552
 30
0.0
 11
50.979427
 21
-5.929854
 31
0.0
  0
LINE
  5
33E
330
4F6
100
AcDbEntity
  8
2-30G
  6
Continuous
 62
     7
370
    13
100
AcDbLine
 10
50.916917
 20
-5.936271
 30
0.0
 11
50.916917
 21
-4.564552
 31
0.0
  0
LINE
  5
33F
330
4F6
100
AcDbEntity
  8
2-30G
  6
Continuous
 62
     7
370
    13
100
AcDbLine
 10
50.979427
 20
-6.096573
 30
0.0
 11
50.979427
 21
-6.361708
 31
0.0
  0
LINE
  5
340
330
4F6
100
AcDbEntity
  8
2-30G
  6
Continuous
 62
     7
370
    13
100
AcDbLine
 10
51.066927
 20
-5.929802
 30
0.0
 11
51.066927
 21
-4.564552
 31
0.0
  0
SPLINE
  5
341
330
4F6
100
AcDbEntity
  8
2-30G
  6
Continuous
 62
     7
370
     0
100
AcDbSpline
210
0.0
220
0.0
230
1.0
 70
     8
 71
     3
 72
    15
 73
    11
 74
     0
 42
0.0000000001
 43
0.00000001
 40
0.0
 40
0.0
 40
0.0
 40
0.0
 40
0.125
 40
0.25
 40
0.375
 40
0.5
 40
0.625
 40
0.75
 40
0.875
 40
1.0
 40
1.0
 40
1.0
 40
1.0
 10
50.91691666666667
 20
-5.936270833333333
 30
0.0
 10
50.93959375
 20
-5.924364583333333
 30
0.0
 10
50.95590625
 20
-5.92684375
 30
0.0
 10
50.9640625
 20
-5.929333333333333
 30
0.0
 10
50.97630208333333
 20
-5.924364583333333
 30
0.0
 10
51.00688541666666
 20
-5.94178125
 30
0.0
 10
51.01504166666666
 20
-5.92684375
 30
0.0
 10
51.0293125
 20
-5.92684375
 30
0.0
 10
51.04766666666666
 20
-5.924364583333333
 30
0.0
 10
51.04969791666667
 20
-5.919375
 30
0.0
 10
51.06692708333333
 20
-5.929802083333333
 30
0.0
  0
LINE
  5
343
330
4F6
100
AcDbEntity
  8
2-30G
  6
Continuous
 62
     7
370
    13
100
AcDbLine
 10
54.757772
 20
-6.362292
 30
0.0
 11
54.757772
 21
-6.110885
 31
0.0
  0
LINE
  5
344
330
4F6
100
AcDbEntity
  8
2-30G
  6
DGN Style 2
 62
     7
370
    13
100
AcDbLine
 10
55.032793
 20
-4.799979
 30
0.0
 11
54.47298
 21
-4.799979
 31
0.0
  0
LINE
  5
345
330
4F6
100
AcDbEntity
  8
2-30G
  6
DGN Style 2
 62
     7
370
    13
100
AcDbLine
 10
55.032793
 20
-4.769979
 30
0.0
 11
54.467209
 21
-4.769979
 31
0.0
  0
LINE
  5
346
330
4F6
100
AcDbEntity
  8
2-30G
  6
Continuous
 62
     7
370
    13
100
AcDbLine
 10
51.004427
 20
-4.564552
 30
0.0
 11
51.004427
 21
-5.929854
 31
0.0
  0
LINE
  5
347
330
4F6
100
AcDbEntity
  8
2-30G
  6
Continuous
 62
     7
370
    13
100
AcDbLine
 10
51.004427
 20
-6.104802
 30
0.0
 11
51.004427
 21
-6.361708
 31
0.0
  0
CIRCLE
  5
348
330
4F6
100
AcDbEntity
  8
2-30G
  6
Continuous
 62
     7
370
    13
100
AcDbCircle
 10
51.034872
 20
-4.787391
 30
0.0
 40
0.015001199999997
  0
LWPOLYLINE
  5
349
330
4F6
100
AcDbEntity
  8
2-30G
  6
Continuous
 62
     7
370
    53
100
AcDbPolyline
 90
       10
 70
   128
 43
0.0
 10
54.482751
 20
-4.568812
 10
54.39274
 20
-4.658812
 10
54.39274
 20
-4.681312
 10
54.474751
 20
-4.763333
 10
54.474754
 20
-4.763331
 42
0.573574
 10
54.473049
 20
-4.799916
 10
54.473043
 20
-4.799917
 10
54.39274
 20
-4.880229
 10
54.39274
 20
-4.903833
 10
54.482751
 20
-4.993844
  0
LINE
  5
34D
330
4F6
100
AcDbEntity
  8
2-30G
  6
Continuous
 62
     7
370
    13
100
AcDbLine
 10
55.107803
 20
-4.799979
 30
0.0
 11
55.107803
 21
-4.769979
 31
0.0
  0
LINE
  5
34E
330
4F6
100
AcDbEntity
  8
2-30G
  6
Continuous
 62
     7
370
    13
100
AcDbLine
 10
55.107803
 20
-4.769979
 30
0.0
 11
55.062793
 21
-4.769979
 31
0.0
  0
LINE
  5
34F
330
4F6
100
AcDbEntity
  8
2-30G
  6
Continuous
 62
     7
370
    13
100
AcDbLine
 10
55.107803
 20
-4.799979
 30
0.0
 11
55.062793
 21
-4.799979
 31
0.0
  0
LINE
  5
350
330
4F6
100
AcDbEntity
  8
2-30G
  6
Continuous
 62
     7
370
    13
100
AcDbLine
 10
55.042793
 20
-4.749979
 30
0.0
 11
55.032793
 21
-4.749979
 31
0.0
  0
LINE
  5
351
330
4F6
100
AcDbEntity
  8
2-30G
  6
Continuous
 62
     7
370
    13
100
AcDbLine
 10
55.042793
 20
-4.819979
 30
0.0
 11
55.032793
 21
-4.819979
 31
0.0
  0
LINE
  5
352
330
4F6
100
AcDbEntity
  8
2-30G
  6
Continuous
 62
     7
370
    13
100
AcDbLine
 10
55.042793
 20
-4.819979
 30
0.0
 11
55.042793
 21
-4.749979
 31
0.0
  0
LINE
  5
353
330
4F6
100
AcDbEntity
  8
2-30G
  6
Continuous
 62
     7
370
    13
100
AcDbLine
 10
55.062793
 20
-4.759979
 30
0.0
 11
55.042793
 21
-4.759979
 31
0.0
  0
LINE
  5
354
330
4F6
100
AcDbEntity
  8
2-30G
  6
Continuous
 62
     7
370
    13
100
AcDbLine
 10
55.062793
 20
-4.809979
 30
0.0
 11
55.042793
 21
-4.809979
 31
0.0
  0
LINE
  5
355
330
4F6
100
AcDbEntity
  8
2-30G
  6
Continuous
 62
     7
370
    13
100
AcDbLine
 10
55.062793
 20
-4.809979
 30
0.0
 11
55.062793
 21
-4.759979
 31
0.0
  0
LINE
  5
357
330
4F6
100
AcDbEntity
  8
DEFPOINTS
  6
Continuous
 62
     7
370
    13
100
AcDbLine
 10
48.844624
 20
-4.640917
 30
0.0
 11
49.000853
 21
-4.640917
 31
0.0
  0
LINE
  5
358
330
4F6
100
AcDbEntity
  8
DEFPOINTS
  6
Continuous
 62
     7
370
    13
100
AcDbLine
 10
48.963687
 20
-4.690927
 30
0.0
 11
48.963687
 21
-4.740927
 31
0.0
  0
LINE
  5
359
330
4F6
100
AcDbEntity
  8
DEFPOINTS
  6
Continuous
 62
     7
370
    13
100
AcDbLine
 10
48.963687
 20
-4.509031
 30
0.0
 11
48.963687
 21
-4.459021
 31
0.0
  0
SOLID
  5
35A
330
4F6
100
AcDbEntity
  8
DEFPOINTS
  6
Continuous
 62
     7
370
    13
100
AcDbTrace
 10
48.97202
 20
-4.690927
 30
0.0
 11
48.955353
 21
-4.690927
 31
0.0
 12
48.963687
 22
-4.640917
 32
0.0
 13
48.963687
 23
-4.640917
 33
0.0
  0
SOLID
  5
35B
330
4F6
100
AcDbEntity
  8
DEFPOINTS
  6
Continuous
 62
     7
370
    13
100
AcDbTrace
 10
48.97202
 20
-4.509031
 30
0.0
 11
48.955353
 21
-4.509031
 31
0.0
 12
48.963687
 22
-4.559031
 32
0.0
 13
48.963687
 23
-4.559031
 33
0.0
  0
SOLID
  5
35E
330
4F6
100
AcDbEntity
  8
DEFPOINTS
  6
Continuous
 62
     7
370
    13
100
AcDbTrace
 10
48.711437
 20
-6.213271
 30
0.0
 11
48.69477
 21
-6.213271
 31
0.0
 12
48.703103
 22
-6.263281
 32
0.0
 13
48.703103
 23
-6.263281
 33
0.0
  0
SOLID
  5
35F
330
4F6
100
AcDbEntity
  8
DEFPOINTS
  6
Continuous
 62
     7
370
    13
100
AcDbTrace
 10
48.711437
 20
-6.415385
 30
0.0
 11
48.69477
 21
-6.415385
 31
0.0
 12
48.703103
 22
-6.365375
 32
0.0
 13
48.703103
 23
-6.365375
 33
0.0
  0
LINE
  5
360
330
4F6
100
AcDbEntity
  8
DEFPOINTS
  6
Continuous
 62
     7
370
    13
100
AcDbLine
 10
48.703103
 20
-6.215656
 30
0.0
 11
48.703103
 21
-6.165656
 31
0.0
  0
LINE
  5
361
330
4F6
100
AcDbEntity
  8
DEFPOINTS
  6
Continuous
 62
     7
370
    13
100
AcDbLine
 10
48.703103
 20
-6.415385
 30
0.0
 11
48.703103
 21
-6.465385
 31
0.0
  0
LINE
  5
362
330
4F6
100
AcDbEntity
  8
DEFPOINTS
  6
Continuous
 62
     7
370
    13
100
AcDbLine
 10
48.63427
 20
-5.908375
 30
0.0
 11
48.68427
 21
-5.908375
 31
0.0
  0
LINE
  5
363
330
4F6
100
AcDbEntity
  8
DEFPOINTS
  6
Continuous
 62
     7
370
    13
100
AcDbLine
 10
48.499499
 20
-5.908375
 30
0.0
 11
48.449499
 21
-5.908375
 31
0.0
  0
SOLID
  5
364
330
4F6
100
AcDbEntity
  8
DEFPOINTS
  6
Continuous
 62
     7
370
    13
100
AcDbTrace
 10
48.63427
 20
-5.916708
 30
0.0
 11
48.63427
 21
-5.900042
 31
0.0
 12
48.58426
 22
-5.908375
 32
0.0
 13
48.58426
 23
-5.908375
 33
0.0
  0
SOLID
  5
365
330
4F6
100
AcDbEntity
  8
DEFPOINTS
  6
Continuous
 62
     7
370
    13
100
AcDbTrace
 10
48.499499
 20
-5.916708
 30
0.0
 11
48.499499
 21
-5.900042
 31
0.0
 12
48.549499
 22
-5.908375
 32
0.0
 13
48.549499
 23
-5.908375
 33
0.0
  0
SOLID
  5
369
330
4F6
100
AcDbEntity
  8
DEFPOINTS
  6
Continuous
 62
     7
370
    13
100
AcDbTrace
 10
55.95472
 20
-6.312281
 30
0.0
 11
55.938053
 21
-6.312281
 31
0.0
 12
55.946386
 22
-6.362292
 32
0.0
 13
55.946386
 23
-6.362292
 33
0.0
  0
SOLID
  5
36A
330
4F6
100
AcDbEntity
  8
DEFPOINTS
  6
Continuous
 62
     7
370
    13
100
AcDbTrace
 10
55.95472
 20
-4.612146
 30
0.0
 11
55.938053
 21
-4.612146
 31
0.0
 12
55.946386
 22
-4.562146
 32
0.0
 13
55.946386
 23
-4.562146
 33
0.0
  0
LINE
  5
36B
330
4F6
100
AcDbEntity
  8
DEFPOINTS
  6
Continuous
 62
     7
370
    13
100
AcDbLine
 10
55.946386
 20
-4.612146
 30
0.0
 11
55.946386
 21
-6.312281
 31
0.0
  0
LINE
  5
36C
330
4F6
100
AcDbEntity
  8
DEFPOINTS
  6
Continuous
 62
     7
370
    13
100
AcDbLine
 10
55.076928
 20
-6.362292
 30
0.0
 11
55.996386
 21
-6.362292
 31
0.0
  0
LINE
  5
36D
330
4F6
100
AcDbEntity
  8
DEFPOINTS
  6
Continuous
 62
     7
370
    13
100
AcDbLine
 10
55.062793
 20
-4.562146
 30
0.0
 11
55.996386
 21
-4.562146
 31
0.0
  0
SOLID
  5
36F
330
4F6
100
AcDbEntity
  8
REF
  6
Continuous
 62
     7
370
    13
100
AcDbTrace
 10
-55.056063
 20
-4.888865
 30
0.0
 11
-55.071845
 21
-4.8835
 31
0.0
 12
-55.047834
 22
-4.838844
 32
0.0
 13
-55.047834
 23
-4.838844
 33
0.0
210
0.0
220
0.0
230
-1.0
  0
LINE
  5
370
330
4F6
100
AcDbEntity
  8
REF
  6
Continuous
 62
     7
370
    13
100
AcDbLine
 10
55.063949
 20
-4.886177
 30
0.0
 11
55.102272
 21
-4.99876
 31
0.0
  0
LINE
  5
371
330
4F6
100
AcDbEntity
  8
2-30G
  6
Continuous
 62
     7
370
    13
100
AcDbLine
 10
48.548135
 20
-4.132115
 30
0.0
 11
48.823155
 21
-4.132115
 31
0.0
  0
LINE
  5
372
330
4F6
100
AcDbEntity
  8
2-30G
  6
Continuous
 62
     7
370
    13
100
AcDbLine
 10
48.568135
 20
-4.112115
 30
0.0
 11
48.568135
 21
-4.312125
 31
0.0
  0
LINE
  5
373
330
4F6
100
AcDbEntity
  8
2-30G
  6
Continuous
 62
     7
370
    13
100
AcDbLine
 10
48.803155
 20
-4.112115
 30
0.0
 11
48.803155
 21
-4.312125
 31
0.0
  0
LINE
  5
374
330
4F6
100
AcDbEntity
  8
2-30G
  6
Continuous
 62
     7
370
    13
100
AcDbLine
 10
48.548135
 20
-4.292125
 30
0.0
 11
48.823155
 21
-4.292125
 31
0.0
  0
LINE
  5
375
330
4F6
100
AcDbEntity
  8
2-30G
  6
Continuous
 62
     7
370
    13
100
AcDbLine
 10
48.823155
 20
-4.292125
 30
0.0
 11
48.803155
 21
-4.312125
 31
0.0
  0
LINE
  5
376
330
4F6
100
AcDbEntity
  8
2-30G
  6
Continuous
 62
     7
370
    13
100
AcDbLine
 10
48.823155
 20
-4.132115
 30
0.0
 11
48.803155
 21
-4.112115
 31
0.0
  0
LINE
  5
377
330
4F6
100
AcDbEntity
  8
2-30G
  6
Continuous
 62
     7
370
    13
100
AcDbLine
 10
48.568135
 20
-4.112115
 30
0.0
 11
48.548135
 21
-4.132115
 31
0.0
  0
LINE
  5
378
330
4F6
100
AcDbEntity
  8
2-30G
  6
Continuous
 62
     7
370
    13
100
AcDbLine
 10
48.568135
 20
-4.312125
 30
0.0
 11
48.548135
 21
-4.292125
 31
0.0
  0
LINE
  5
379
330
4F6
100
AcDbEntity
  8
2-30G
  6
Continuous
 62
     7
370
    13
100
AcDbLine
 10
50.833611
 20
-8.883805
 30
0.0
 11
50.983632
 21
-8.883805
 31
0.0
  0
LINE
  5
37A
330
4F6
100
AcDbEntity
  8
2-30G
  6
Continuous
 62
     7
370
    13
100
AcDbLine
 10
50.983632
 20
-8.935264
 30
0.0
 11
50.983632
 21
-8.883805
 31
0.0
  0
LINE
  5
37B
330
4F6
100
AcDbEntity
  8
2-30G
  6
Continuous
 62
     7
370
    13
100
AcDbLine
 10
50.833611
 20
-8.935264
 30
0.0
 11
50.833611
 21
-8.883805
 31
0.0
  0
LINE
  5
37C
330
4F6
100
AcDbEntity
  8
2-30G
  6
DGN Style 2
 62
     7
370
    13
100
AcDbLine
 10
50.833611
 20
-9.427285
 30
0.0
 11
50.833611
 21
-8.883285
 31
0.0
  0
LINE
  5
37D
330
4F6
100
AcDbEntity
  8
2-30G
  6
DGN Style 2
 62
     7
370
    13
100
AcDbLine
 10
50.983632
 20
-9.427285
 30
0.0
 11
50.983632
 21
-8.883285
 31
0.0
  0
LINE
  5
37E
330
4F6
100
AcDbEntity
  8
2-30G
  6
Continuous
 62
     7
370
    13
100
AcDbLine
 10
50.977382
 20
-9.073868
 30
0.0
 11
50.849069
 21
-9.073868
 31
0.0
  0
LINE
  5
37F
330
4F6
100
AcDbEntity
  8
2-30G
  6
Continuous
 62
     7
370
    13
100
AcDbLine
 10
50.849069
 20
-9.073868
 30
0.0
 11
50.849069
 21
-9.152212
 31
0.0
  0
LINE
  5
380
330
4F6
100
AcDbEntity
  8
2-30G
  6
Continuous
 62
     7
370
    13
100
AcDbLine
 10
50.849069
 20
-9.152212
 30
0.0
 11
50.977382
 21
-9.152212
 31
0.0
  0
LINE
  5
381
330
4F6
100
AcDbEntity
  8
2-30G
  6
Continuous
 62
     7
370
    13
100
AcDbLine
 10
50.977382
 20
-9.152212
 30
0.0
 11
50.977382
 21
-9.073868
 31
0.0
  0
LWPOLYLINE
  5
382
330
4F6
100
AcDbEntity
  8
2-30G
  6
Continuous
 62
     7
370
     0
100
AcDbPolyline
 90
       17
 70
   128
 43
0.0
 10
50.913228
 20
-9.130171
 42
0.041124
 10
50.930226
 20
-9.12877
 42
0.05419
 10
50.942706
 20
-9.12528
 42
0.097213
 10
50.952637
 20
-9.118848
 42
0.203285
 10
50.954916
 20
-9.113474
 42
0.203285
 10
50.952637
 20
-9.1081
 42
0.097213
 10
50.942706
 20
-9.101667
 42
0.05419
 10
50.930226
 20
-9.098177
 42
0.041124
 10
50.913228
 20
-9.096777
 42
0.041124
 10
50.89623
 20
-9.098177
 42
0.05419
 10
50.88375
 20
-9.101667
 42
0.097213
 10
50.873818
 20
-9.1081
 42
0.203285
 10
50.871539
 20
-9.113474
 42
0.203285
 10
50.873818
 20
-9.118848
 42
0.097213
 10
50.88375
 20
-9.12528
 42
0.05419
 10
50.89623
 20
-9.12877
 42
0.041124
 10
50.913228
 20
-9.130171
  0
SPLINE
  5
393
330
4F6
100
AcDbEntity
  8
2-30G
  6
Continuous
 62
     7
370
     0
100
AcDbSpline
210
0.0
220
0.0
230
1.0
 70
     8
 71
     3
 72
    14
 73
    10
 74
     0
 42
0.0000000001
 43
0.00000001
 40
0.0
 40
0.0
 40
0.0
 40
0.0
 40
0.1428571428571428
 40
0.2857142857142857
 40
0.4285714285714285
 40
0.5714285714285714
 40
0.7142857142857142
 40
0.857142857142857
 40
1.0
 40
1.0
 40
1.0
 40
1.0
 10
50.50845447406665
 20
-8.915680485090702
 30
0.0
 10
50.46836072406666
 20
-8.995524235090702
 30
0.0
 10
50.52448572406666
 20
-9.024909651757367
 30
0.0
 10
50.50845447406665
 20
-9.0738679850907
 30
0.0
 10
50.50043364073332
 20
-9.122826318424035
 30
0.0
 10
50.50845447406665
 20
-9.162003401757367
 30
0.0
 10
50.46033989073332
 20
-9.1815867350907
 30
0.0
 10
50.49241280739999
 20
-9.220753401757367
 30
0.0
 10
50.50043364073332
 20
-9.259920068424035
 30
0.0
 10
50.50193364073332
 20
-9.2657117350907
 30
0.0
  0
SPLINE
  5
395
330
4F6
100
AcDbEntity
  8
2-30G
  6
Continuous
 62
     7
370
     0
100
AcDbSpline
210
0.0
220
0.0
230
1.0
 70
     8
 71
     3
 72
    14
 73
    10
 74
     0
 42
0.0000000001
 43
0.00000001
 40
0.0
 40
0.0
 40
0.0
 40
0.0
 40
0.1428571428571428
 40
0.2857142857142857
 40
0.4285714285714285
 40
0.5714285714285714
 40
0.7142857142857142
 40
0.857142857142857
 40
1.0
 40
1.0
 40
1.0
 40
1.0
 10
51.34248572406666
 20
-8.915680485090702
 30
0.0
 10
51.30238155739999
 20
-8.995524235090702
 30
0.0
 10
51.35852739073332
 20
-9.024909651757367
 30
0.0
 10
51.34248572406666
 20
-9.0738679850907
 30
0.0
 10
51.33446489073332
 20
-9.122826318424035
 30
0.0
 10
51.34248572406666
 20
-9.162003401757367
 30
0.0
 10
51.29437114073332
 20
-9.1815867350907
 30
0.0
 10
51.32644405739999
 20
-9.220753401757367
 30
0.0
 10
51.33446489073332
 20
-9.259920068424035
 30
0.0
 10
51.33596489073332
 20
-9.2657117350907
 30
0.0
  0
LINE
  5
397
330
4F6
100
AcDbEntity
  8
2-30G
  6
Continuous
 62
     7
370
    13
100
AcDbLine
 10
50.508454
 20
-8.91568
 30
0.0
 11
51.342486
 21
-8.91568
 31
0.0
  0
LINE
  5
398
330
4F6
100
AcDbEntity
  8
2-30G
  6
Continuous
 62
     7
370
    13
100
AcDbLine
 10
50.501934
 20
-9.265712
 30
0.0
 11
51.335965
 21
-9.265712
 31
0.0
  0
LINE
  5
399
330
4F6
100
AcDbEntity
  8
2-30G
  6
Continuous
 62
     7
370
    13
100
AcDbLine
 10
50.593152
 20
-9.165701
 30
0.0
 11
50.772017
 21
-9.165701
 31
0.0
  0
LINE
  5
39A
330
4F6
100
AcDbEntity
  8
2-30G
  6
Continuous
 62
     7
370
    13
100
AcDbLine
 10
50.541704
 20
-9.065691
 30
0.0
 11
50.7506
 21
-9.065691
 31
0.0
  0
LINE
  5
39B
330
4F6
100
AcDbEntity
  8
2-30G
  6
Continuous
 62
     7
370
    13
100
AcDbLine
 10
50.536777
 20
-8.965691
 30
0.0
 11
50.775788
 21
-8.965691
 31
0.0
  0
LINE
  5
39C
330
4F6
100
AcDbEntity
  8
2-30G
  6
Continuous
 62
     7
370
    13
100
AcDbLine
 10
51.071798
 20
-9.165701
 30
0.0
 11
51.231725
 21
-9.165701
 31
0.0
  0
LINE
  5
39D
330
4F6
100
AcDbEntity
  8
2-30G
  6
Continuous
 62
     7
370
    13
100
AcDbLine
 10
51.071798
 20
-9.065691
 30
0.0
 11
51.180694
 21
-9.065691
 31
0.0
  0
LINE
  5
39E
330
4F6
100
AcDbEntity
  8
2-30G
  6
Continuous
 62
     7
370
    13
100
AcDbLine
 10
51.101309
 20
-8.965691
 30
0.0
 11
51.270225
 21
-8.965691
 31
0.0
  0
LINE
  5
39F
330
4F6
100
AcDbEntity
  8
2-30G
  6
Continuous
 62
     7
370
    13
100
AcDbLine
 10
50.537788
 20
-9.215701
 30
0.0
 11
50.725413
 21
-9.215701
 31
0.0
  0
LINE
  5
3A0
330
4F6
100
AcDbEntity
  8
2-30G
  6
Continuous
 62
     7
370
    13
100
AcDbLine
 10
51.034007
 20
-9.215701
 30
0.0
 11
51.231725
 21
-9.215701
 31
0.0
  0
LINE
  5
3A1
330
4F6
100
AcDbEntity
  8
2-30G
  6
Continuous
 62
     7
370
    13
100
AcDbLine
 10
51.122184
 20
-9.115701
 30
0.0
 11
51.275163
 21
-9.115701
 31
0.0
  0
LINE
  5
3A2
330
4F6
100
AcDbEntity
  8
2-30G
  6
Continuous
 62
     7
370
    13
100
AcDbLine
 10
51.038329
 20
-9.015691
 30
0.0
 11
51.207246
 21
-9.015691
 31
0.0
  0
LINE
  5
3A5
330
4F6
100
AcDbEntity
  8
2-30G
  6
Continuous
 62
     7
370
    13
100
AcDbLine
 10
51.108642
 20
-8.91568
 30
0.0
 11
51.108642
 21
-9.265712
 31
0.0
  0
LINE
  5
3A6
330
4F6
100
AcDbEntity
  8
2-30G
  6
Continuous
 62
     7
370
    13
100
AcDbLine
 10
50.708611
 20
-8.91568
 30
0.0
 11
50.708611
 21
-9.265712
 31
0.0
  0
LINE
  5
3A7
330
4F6
100
AcDbEntity
  8
2-30G
  6
Continuous
 62
     7
370
    13
100
AcDbLine
 10
51.058632
 20
-8.91568
 30
0.0
 11
51.058632
 21
-9.427285
 31
0.0
  0
LINE
  5
3A8
330
4F6
100
AcDbEntity
  8
2-30G
  6
Continuous
 62
     7
370
    13
100
AcDbLine
 10
50.758611
 20
-8.91568
 30
0.0
 11
50.758611
 21
-9.427285
 31
0.0
  0
LWPOLYLINE
  5
3A9
330
4F6
100
AcDbEntity
  8
2-30G
  6
Continuous
 62
     7
370
   100
100
AcDbPolyline
 90
        2
 70
   128
 43
0.0
 10
50.744496
 20
-9.043222
 10
50.769454
 20
-9.043222
  0
LWPOLYLINE
  5
3AA
330
4F6
100
AcDbEntity
  8
2-30G
  6
Continuous
 62
     7
370
   100
100
AcDbPolyline
 90
        2
 70
   128
 43
0.0
 10
51.043996
 20
-9.043222
 10
51.068954
 20
-9.043222
  0
LWPOLYLINE
  5
3AB
330
4F6
100
AcDbEntity
  8
2-30G
  6
Continuous
 62
     7
370
   100
100
AcDbPolyline
 90
        2
 70
   128
 43
0.0
 10
51.043996
 20
-8.966983
 10
51.068954
 20
-8.966983
  0
LWPOLYLINE
  5
3AC
330
4F6
100
AcDbEntity
  8
2-30G
  6
Continuous
 62
     7
370
   100
100
AcDbPolyline
 90
        2
 70
   128
 43
0.0
 10
50.744496
 20
-8.966983
 10
50.769454
 20
-8.966983
  0
LWPOLYLINE
  5
3AD
330
4F6
100
AcDbEntity
  8
2-30G
  6
Continuous
 62
     7
370
   100
100
AcDbPolyline
 90
        2
 70
   128
 43
0.0
 10
51.043996
 20
-9.142326
 10
51.068954
 20
-9.142326
  0
LWPOLYLINE
  5
3AE
330
4F6
100
AcDbEntity
  8
2-30G
  6
Continuous
 62
     7
370
   100
100
AcDbPolyline
 90
        2
 70
   128
 43
0.0
 10
50.744496
 20
-9.142326
 10
50.769454
 20
-9.142326
  0
LWPOLYLINE
  5
3AF
330
4F6
100
AcDbEntity
  8
2-30G
  6
Continuous
 62
     7
370
   100
100
AcDbPolyline
 90
        2
 70
   128
 43
0.0
 10
51.043996
 20
-9.218555
 10
51.068954
 20
-9.218555
  0
LWPOLYLINE
  5
3B0
330
4F6
100
AcDbEntity
  8
2-30G
  6
Continuous
 62
     7
370
   100
100
AcDbPolyline
 90
        2
 70
   128
 43
0.0
 10
50.744496
 20
-9.218555
 10
50.769454
 20
-9.218555
  0
SOLID
  5
3B1
330
4F6
100
AcDbEntity
  8
REF
  6
Continuous
 62
     7
370
    13
100
AcDbTrace
 10
51.069704
 20
-9.103472
 30
0.0
 11
51.067548
 21
-9.086941
 31
0.0
 12
51.019038
 22
-9.10167
 32
0.0
 13
51.019038
 23
-9.10167
 33
0.0
  0
LINE
  5
3B2
330
4F6
100
AcDbEntity
  8
REF
  6
Continuous
 62
     7
370
    13
100
AcDbLine
 10
51.068621
 20
-9.095201
 30
0.0
 11
51.428767
 21
-9.048305
 31
0.0
  0
LINE
  5
3B3
330
4F6
100
AcDbEntity
  8
REF
  6
Continuous
 62
     7
370
    13
100
AcDbLine
 10
51.428767
 20
-9.048305
 30
0.0
 11
51.449569
 21
-9.048305
 31
0.0
  0
SOLID
  5
3B4
330
4F6
100
AcDbEntity
  8
REF
  6
Continuous
 62
     7
370
    13
100
AcDbTrace
 10
51.125892
 20
-9.208358
 30
0.0
 11
51.123142
 21
-9.19192
 31
0.0
 12
51.075194
 22
-9.208389
 32
0.0
 13
51.075194
 23
-9.208389
 33
0.0
  0
LINE
  5
3B5
330
4F6
100
AcDbEntity
  8
REF
  6
Continuous
 62
     7
370
    13
100
AcDbLine
 10
51.124517
 20
-9.200149
 30
0.0
 11
51.424611
 21
-9.149941
 31
0.0
  0
LINE
  5
3B6
330
4F6
100
AcDbEntity
  8
REF
  6
Continuous
 62
     7
370
    13
100
AcDbLine
 10
51.424611
 20
-9.149941
 30
0.0
 11
51.451652
 21
-9.149941
 31
0.0
  0
LWPOLYLINE
  5
3B9
330
4F6
100
AcDbEntity
  8
2-30G
  6
DGN Style 2
 62
     7
370
    70
100
AcDbPolyline
 90
        2
 70
   128
 43
0.0
 10
50.710184
 20
-9.27667
 10
51.107715
 20
-9.27667
  0
LINE
  5
3BA
330
4F6
100
AcDbEntity
  8
DEFPOINTS
  6
Continuous
 62
     7
370
    13
100
AcDbLine
 10
50.755434
 20
-8.867441
 30
0.0
 11
50.755434
 21
-8.710535
 31
0.0
  0
LINE
  5
3BB
330
4F6
100
AcDbEntity
  8
DEFPOINTS
  6
Continuous
 62
     7
370
    13
100
AcDbLine
 10
50.910569
 20
-8.835868
 30
0.0
 11
50.910569
 21
-8.710535
 31
0.0
  0
LINE
  5
3BC
330
4F6
100
AcDbEntity
  8
DEFPOINTS
  6
Continuous
 62
     7
370
    13
100
AcDbLine
 10
50.805444
 20
-8.760535
 30
0.0
 11
50.860569
 21
-8.760535
 31
0.0
  0
SOLID
  5
3BD
330
4F6
100
AcDbEntity
  8
DEFPOINTS
  6
Continuous
 62
     7
370
    13
100
AcDbTrace
 10
50.805444
 20
-8.768878
 30
0.0
 11
50.805444
 21
-8.752201
 31
0.0
 12
50.755434
 22
-8.760535
 32
0.0
 13
50.755434
 23
-8.760535
 33
0.0
  0
SOLID
  5
3BE
330
4F6
100
AcDbEntity
  8
DEFPOINTS
  6
Continuous
 62
     7
370
    13
100
AcDbTrace
 10
50.860569
 20
-8.768878
 30
0.0
 11
50.860569
 21
-8.752201
 31
0.0
 12
50.910569
 22
-8.760535
 32
0.0
 13
50.910569
 23
-8.760535
 33
0.0
  0
LINE
  5
3C0
330
4F6
100
AcDbEntity
  8
DEFPOINTS
  6
Continuous
 62
     7
370
    13
100
AcDbLine
 10
50.910569
 20
-8.835868
 30
0.0
 11
50.910569
 21
-8.710535
 31
0.0
  0
LINE
  5
3C1
330
4F6
100
AcDbEntity
  8
DEFPOINTS
  6
Continuous
 62
     7
370
    13
100
AcDbLine
 10
51.056007
 20
-8.867441
 30
0.0
 11
51.056007
 21
-8.710535
 31
0.0
  0
LINE
  5
3C2
330
4F6
100
AcDbEntity
  8
DEFPOINTS
  6
Continuous
 62
     7
370
    13
100
AcDbLine
 10
50.960579
 20
-8.760535
 30
0.0
 11
51.006007
 21
-8.760535
 31
0.0
  0
SOLID
  5
3C3
330
4F6
100
AcDbEntity
  8
DEFPOINTS
  6
Continuous
 62
     7
370
    13
100
AcDbTrace
 10
50.960579
 20
-8.768878
 30
0.0
 11
50.960579
 21
-8.752201
 31
0.0
 12
50.910569
 22
-8.760535
 32
0.0
 13
50.910569
 23
-8.760535
 33
0.0
  0
SOLID
  5
3C4
330
4F6
100
AcDbEntity
  8
DEFPOINTS
  6
Continuous
 62
     7
370
    13
100
AcDbTrace
 10
51.006007
 20
-8.768878
 30
0.0
 11
51.006007
 21
-8.752201
 31
0.0
 12
51.056007
 22
-8.760535
 32
0.0
 13
51.056007
 23
-8.760535
 33
0.0
  0
LINE
  5
3C5
330
4F6
100
AcDbEntity
  8
DEFPOINTS
  6
Continuous
 62
     7
370
    13
100
AcDbLine
 10
50.706954
 20
-8.867441
 30
0.0
 11
50.706954
 21
-8.473691
 31
0.0
  0
LINE
  5
3C6
330
4F6
100
AcDbEntity
  8
DEFPOINTS
  6
Continuous
 62
     7
370
    13
100
AcDbLine
 10
51.107715
 20
-8.867441
 30
0.0
 11
51.107715
 21
-8.473691
 31
0.0
  0
LINE
  5
3C7
330
4F6
100
AcDbEntity
  8
DEFPOINTS
  6
Continuous
 62
     7
370
    13
100
AcDbLine
 10
50.756965
 20
-8.523691
 30
0.0
 11
51.057715
 21
-8.523691
 31
0.0
  0
SOLID
  5
3C8
330
4F6
100
AcDbEntity
  8
DEFPOINTS
  6
Continuous
 62
     7
370
    13
100
AcDbTrace
 10
50.756965
 20
-8.532024
 30
0.0
 11
50.756965
 21
-8.515358
 31
0.0
 12
50.706954
 22
-8.523691
 32
0.0
 13
50.706954
 23
-8.523691
 33
0.0
  0
SOLID
  5
3C9
330
4F6
100
AcDbEntity
  8
DEFPOINTS
  6
Continuous
 62
     7
370
    13
100
AcDbTrace
 10
51.057715
 20
-8.532024
 30
0.0
 11
51.057715
 21
-8.515358
 31
0.0
 12
51.107715
 22
-8.523691
 32
0.0
 13
51.107715
 23
-8.523691
 33
0.0
  0
LINE
  5
3CC
330
4F6
100
AcDbEntity
  8
DEFPOINTS
  6
Continuous
 62
     7
370
    13
100
AcDbLine
 10
50.601829
 20
-8.760535
 30
0.0
 11
50.656954
 21
-8.760535
 31
0.0
  0
SOLID
  5
3CD
330
4F6
100
AcDbEntity
  8
DEFPOINTS
  6
Continuous
 62
     7
370
    13
100
AcDbTrace
 10
50.656954
 20
-8.768878
 30
0.0
 11
50.656954
 21
-8.752201
 31
0.0
 12
50.706954
 22
-8.760535
 32
0.0
 13
50.706954
 23
-8.760535
 33
0.0
  0
SOLID
  5
3CE
330
4F6
100
AcDbEntity
  8
DEFPOINTS
  6
Continuous
 62
     7
370
    13
100
AcDbTrace
 10
51.158392
 20
-8.768878
 30
0.0
 11
51.158392
 21
-8.752201
 31
0.0
 12
51.108382
 22
-8.760535
 32
0.0
 13
51.108382
 23
-8.760535
 33
0.0
  0
LINE
  5
3CF
330
4F6
100
AcDbEntity
  8
DEFPOINTS
  6
Continuous
 62
     7
370
    13
100
AcDbLine
 10
51.154496
 20
-8.760535
 30
0.0
 11
51.199923
 21
-8.760535
 31
0.0
  0
SOLID
  5
3D3
330
4F6
100
AcDbEntity
  8
DEFPOINTS
  6
Continuous
 62
     7
370
    13
100
AcDbTrace
 10
50.811684
 20
-8.714462
 30
0.0
 11
50.797913
 21
-8.723858
 31
0.0
 12
50.832986
 22
-8.760462
 32
0.0
 13
50.832986
 23
-8.760462
 33
0.0
  0
LINE
  5
3D4
330
4F6
100
AcDbEntity
  8
DEFPOINTS
  6
Continuous
 62
     7
370
    13
100
AcDbLine
 10
50.804798
 20
-8.71916
 30
0.0
 11
50.736007
 21
-8.618358
 31
0.0
  0
LINE
  5
3D5
330
4F6
100
AcDbEntity
  8
DEFPOINTS
  6
Continuous
 62
     7
370
    13
100
AcDbLine
 10
50.736007
 20
-8.618358
 30
0.0
 11
50.661652
 21
-8.618358
 31
0.0
  0
SOLID
  5
3D6
330
4F6
100
AcDbEntity
  8
DEFPOINTS
  6
Continuous
 62
     7
370
    13
100
AcDbTrace
 10
-51.016954
 20
-8.721649
 30
0.0
 11
-51.003069
 21
-8.71243
 31
0.0
 12
-50.982361
 22
-8.758691
 32
0.0
 13
-50.982361
 23
-8.758691
 33
0.0
210
0.0
220
0.0
230
-1.0
  0
LINE
  5
3D7
330
4F6
100
AcDbEntity
  8
DEFPOINTS
  6
Continuous
 62
     7
370
    13
100
AcDbLine
 10
51.006121
 20
-8.722753
 30
0.0
 11
51.075434
 21
-8.618358
 31
0.0
  0
LINE
  5
3D8
330
4F6
100
AcDbEntity
  8
DEFPOINTS
  6
Continuous
 62
     7
370
    13
100
AcDbLine
 10
51.075434
 20
-8.618358
 30
0.0
 11
51.149788
 21
-8.618358
 31
0.0
  0
LINE
  5
3D9
330
4F6
100
AcDbEntity
  8
2-30G
  6
Continuous
 62
     7
370
    13
100
AcDbLine
 10
48.591375
 20
-7.792438
 30
0.0
 11
48.591375
 21
-7.442406
 31
0.0
  0
LINE
  5
3DA
330
4F6
100
AcDbEntity
  8
2-30G
  6
Continuous
 62
     7
370
    13
100
AcDbLine
 10
47.991323
 20
-7.792438
 30
0.0
 11
47.991323
 21
-7.442406
 31
0.0
  0
LINE
  5
3DB
330
4F6
100
AcDbEntity
  8
2-30G
  6
Continuous
 62
     7
370
    13
100
AcDbLine
 10
47.991323
 20
-7.442406
 30
0.0
 11
48.591375
 21
-7.442406
 31
0.0
  0
LINE
  5
3DC
330
4F6
100
AcDbEntity
  8
2-30G
  6
Continuous
 62
     7
370
    13
100
AcDbLine
 10
47.991323
 20
-7.792438
 30
0.0
 11
48.591375
 21
-7.792438
 31
0.0
  0
LINE
  5
3DD
330
4F6
100
AcDbEntity
  8
2-30G
  6
Continuous
 62
     7
370
    13
100
AcDbLine
 10
48.291354
 20
-7.591375
 30
0.0
 11
48.291354
 21
-7.643469
 31
0.0
  0
LINE
  5
3DE
330
4F6
100
AcDbEntity
  8
2-30G
  6
Continuous
 62
     7
370
    13
100
AcDbLine
 10
48.354906
 20
-7.617417
 30
0.0
 11
48.227802
 21
-7.617417
 31
0.0
  0
LWPOLYLINE
  5
3DF
330
4F6
100
AcDbEntity
  8
2-30G
  6
Continuous
 62
     7
370
     0
100
AcDbPolyline
 90
       17
 70
   128
 43
0.0
 10
48.291351
 20
-7.679927
 42
0.063415
 10
48.331316
 20
-7.674838
 42
0.076468
 10
48.362067
 20
-7.66162
 42
0.107136
 10
48.384675
 20
-7.639608
 42
0.147373
 10
48.391359
 20
-7.617422
 42
0.147373
 10
48.384675
 20
-7.595237
 42
0.107136
 10
48.362067
 20
-7.573224
 42
0.076468
 10
48.331316
 20
-7.560006
 42
0.063415
 10
48.291351
 20
-7.554917
 42
0.063415
 10
48.251386
 20
-7.560006
 42
0.076468
 10
48.220635
 20
-7.573224
 42
0.107136
 10
48.198027
 20
-7.595237
 42
0.147373
 10
48.191343
 20
-7.617422
 42
0.147373
 10
48.198027
 20
-7.639608
 42
0.107136
 10
48.220635
 20
-7.66162
 42
0.076468
 10
48.251386
 20
-7.674838
 42
0.063415
 10
48.291351
 20
-7.679927
  0
LINE
  5
3F0
330
4F6
100
AcDbEntity
  8
DEFPOINTS
  6
Continuous
 62
     7
370
    13
100
AcDbLine
 10
48.191344
 20
-7.567417
 30
0.0
 11
48.191344
 21
-7.463427
 31
0.0
  0
LINE
  5
3F1
330
4F6
100
AcDbEntity
  8
DEFPOINTS
  6
Continuous
 62
     7
370
    13
100
AcDbLine
 10
48.391365
 20
-7.567417
 30
0.0
 11
48.391365
 21
-7.463427
 31
0.0
  0
LINE
  5
3F2
330
4F6
100
AcDbEntity
  8
DEFPOINTS
  6
Continuous
 62
     7
370
    13
100
AcDbLine
 10
48.241344
 20
-7.513427
 30
0.0
 11
48.341354
 21
-7.513427
 31
0.0
  0
SOLID
  5
3F3
330
4F6
100
AcDbEntity
  8
DEFPOINTS
  6
Continuous
 62
     7
370
    13
100
AcDbTrace
 10
48.241344
 20
-7.521771
 30
0.0
 11
48.241344
 21
-7.505094
 31
0.0
 12
48.191344
 22
-7.513427
 32
0.0
 13
48.191344
 23
-7.513427
 33
0.0
  0
SOLID
  5
3F4
330
4F6
100
AcDbEntity
  8
DEFPOINTS
  6
Continuous
 62
     7
370
    13
100
AcDbTrace
 10
48.341354
 20
-7.521771
 30
0.0
 11
48.341354
 21
-7.505094
 31
0.0
 12
48.391365
 22
-7.513427
 32
0.0
 13
48.391365
 23
-7.513427
 33
0.0
  0
LINE
  5
3F5
330
4F6
100
AcDbEntity
  8
DEFPOINTS
  6
Continuous
 62
     7
370
    13
100
AcDbLine
 10
47.991323
 20
-7.392406
 30
0.0
 11
47.991323
 21
-7.248104
 31
0.0
  0
LINE
  5
3F6
330
4F6
100
AcDbEntity
  8
DEFPOINTS
  6
Continuous
 62
     7
370
    13
100
AcDbLine
 10
48.591375
 20
-7.392406
 30
0.0
 11
48.591375
 21
-7.248104
 31
0.0
  0
LINE
  5
3F7
330
4F6
100
AcDbEntity
  8
DEFPOINTS
  6
Continuous
 62
     7
370
    13
100
AcDbLine
 10
48.041333
 20
-7.298115
 30
0.0
 11
48.541375
 21
-7.298115
 31
0.0
  0
SOLID
  5
3F8
330
4F6
100
AcDbEntity
  8
DEFPOINTS
  6
Continuous
 62
     7
370
    13
100
AcDbTrace
 10
48.041333
 20
-7.306448
 30
0.0
 11
48.041333
 21
-7.289781
 31
0.0
 12
47.991323
 22
-7.298115
 32
0.0
 13
47.991323
 23
-7.298115
 33
0.0
  0
SOLID
  5
3F9
330
4F6
100
AcDbEntity
  8
DEFPOINTS
  6
Continuous
 62
     7
370
    13
100
AcDbTrace
 10
48.541375
 20
-7.306448
 30
0.0
 11
48.541375
 21
-7.289781
 31
0.0
 12
48.591375
 22
-7.298115
 32
0.0
 13
48.591375
 23
-7.298115
 33
0.0
  0
LINE
  5
3FC
330
4F6
100
AcDbEntity
  8
DEFPOINTS
  6
Continuous
 62
     7
370
    13
100
AcDbLine
 10
48.341354
 20
-7.554917
 30
0.0
 11
48.677542
 21
-7.554917
 31
0.0
  0
LINE
  5
3FD
330
4F6
100
AcDbEntity
  8
DEFPOINTS
  6
Continuous
 62
     7
370
    13
100
AcDbLine
 10
48.341354
 20
-7.679927
 30
0.0
 11
48.677542
 21
-7.679927
 31
0.0
  0
LINE
  5
3FE
330
4F6
100
AcDbEntity
  8
DEFPOINTS
  6
Continuous
 62
     7
370
    13
100
AcDbLine
 10
48.627542
 20
-7.604917
 30
0.0
 11
48.627542
 21
-7.629917
 31
0.0
  0
SOLID
  5
3FF
330
4F6
100
AcDbEntity
  8
DEFPOINTS
  6
Continuous
 62
     7
370
    13
100
AcDbTrace
 10
48.635875
 20
-7.604917
 30
0.0
 11
48.619208
 21
-7.604917
 31
0.0
 12
48.627542
 22
-7.554917
 32
0.0
 13
48.627542
 23
-7.554917
 33
0.0
  0
SOLID
  5
400
330
4F6
100
AcDbEntity
  8
DEFPOINTS
  6
Continuous
 62
     7
370
    13
100
AcDbTrace
 10
48.635875
 20
-7.629917
 30
0.0
 11
48.619208
 21
-7.629917
 31
0.0
 12
48.627542
 22
-7.679927
 32
0.0
 13
48.627542
 23
-7.679927
 33
0.0
  0
LINE
  5
401
330
4F6
100
AcDbEntity
  8
DEFPOINTS
  6
Continuous
 62
     7
370
    13
100
AcDbLine
 10
48.641375
 20
-7.442406
 30
0.0
 11
48.981073
 21
-7.442406
 31
0.0
  0
LINE
  5
402
330
4F6
100
AcDbEntity
  8
DEFPOINTS
  6
Continuous
 62
     7
370
    13
100
AcDbLine
 10
48.641375
 20
-7.792438
 30
0.0
 11
48.981073
 21
-7.792438
 31
0.0
  0
LINE
  5
403
330
4F6
100
AcDbEntity
  8
DEFPOINTS
  6
Continuous
 62
     7
370
    13
100
AcDbLine
 10
48.931062
 20
-7.492406
 30
0.0
 11
48.931062
 21
-7.742427
 31
0.0
  0
SOLID
  5
404
330
4F6
100
AcDbEntity
  8
DEFPOINTS
  6
Continuous
 62
     7
370
    13
100
AcDbTrace
 10
48.939396
 20
-7.492406
 30
0.0
 11
48.922729
 21
-7.492406
 31
0.0
 12
48.931062
 22
-7.442406
 32
0.0
 13
48.931062
 23
-7.442406
 33
0.0
  0
SOLID
  5
405
330
4F6
100
AcDbEntity
  8
DEFPOINTS
  6
Continuous
 62
     7
370
    13
100
AcDbTrace
 10
48.939396
 20
-7.742427
 30
0.0
 11
48.922729
 21
-7.742427
 31
0.0
 12
48.931062
 22
-7.792438
 32
0.0
 13
48.931062
 23
-7.792438
 33
0.0
  0
LINE
  5
408
330
4F6
100
AcDbEntity
  8
DEFPOINTS
  6
Continuous
 62
     7
370
    13
100
AcDbLine
 10
48.291354
 20
-7.729927
 30
0.0
 11
48.291354
 21
-8.05349
 31
0.0
  0
LINE
  5
409
330
4F6
100
AcDbEntity
  8
DEFPOINTS
  6
Continuous
 62
     7
370
    13
100
AcDbLine
 10
47.991323
 20
-7.842437
 30
0.0
 11
47.991323
 21
-8.05349
 31
0.0
  0
LINE
  5
40A
330
4F6
100
AcDbEntity
  8
DEFPOINTS
  6
Continuous
 62
     7
370
    13
100
AcDbLine
 10
48.241344
 20
-8.00349
 30
0.0
 11
48.041333
 21
-8.00349
 31
0.0
  0
SOLID
  5
40B
330
4F6
100
AcDbEntity
  8
DEFPOINTS
  6
Continuous
 62
     7
370
    13
100
AcDbTrace
 10
48.241344
 20
-8.011823
 30
0.0
 11
48.241344
 21
-7.995156
 31
0.0
 12
48.291354
 22
-8.00349
 32
0.0
 13
48.291354
 23
-8.00349
 33
0.0
  0
SOLID
  5
40C
330
4F6
100
AcDbEntity
  8
DEFPOINTS
  6
Continuous
 62
     7
370
    13
100
AcDbTrace
 10
48.041333
 20
-8.011823
 30
0.0
 11
48.041333
 21
-7.995156
 31
0.0
 12
47.991323
 22
-8.00349
 32
0.0
 13
47.991323
 23
-8.00349
 33
0.0
  0
LINE
  5
40E
330
4F6
100
AcDbEntity
  8
DEFPOINTS
  6
Continuous
 62
     7
370
    13
100
AcDbLine
 10
48.141344
 20
-7.617417
 30
0.0
 11
47.773479
 21
-7.617417
 31
0.0
  0
LINE
  5
40F
330
4F6
100
AcDbEntity
  8
DEFPOINTS
  6
Continuous
 62
     7
370
    13
100
AcDbLine
 10
47.941323
 20
-7.792438
 30
0.0
 11
47.773479
 21
-7.792438
 31
0.0
  0
LINE
  5
410
330
4F6
100
AcDbEntity
  8
DEFPOINTS
  6
Continuous
 62
     7
370
    13
100
AcDbLine
 10
47.823479
 20
-7.667427
 30
0.0
 11
47.823479
 21
-7.742427
 31
0.0
  0
SOLID
  5
411
330
4F6
100
AcDbEntity
  8
DEFPOINTS
  6
Continuous
 62
     7
370
    13
100
AcDbTrace
 10
47.831823
 20
-7.667427
 30
0.0
 11
47.815146
 21
-7.667427
 31
0.0
 12
47.823479
 22
-7.617417
 32
0.0
 13
47.823479
 23
-7.617417
 33
0.0
  0
SOLID
  5
412
330
4F6
100
AcDbEntity
  8
DEFPOINTS
  6
Continuous
 62
     7
370
    13
100
AcDbTrace
 10
47.831823
 20
-7.742427
 30
0.0
 11
47.815146
 21
-7.742427
 31
0.0
 12
47.823479
 22
-7.792438
 32
0.0
 13
47.823479
 23
-7.792438
 33
0.0
  0
LINE
  5
417
330
4F6
100
AcDbEntity
  8
2-30G
  6
Continuous
 62
     7
370
    13
100
AcDbLine
 10
50.987079
 20
-7.939337
 30
0.0
 11
50.887069
 21
-7.939337
 31
0.0
  0
LINE
  5
418
330
4F6
100
AcDbEntity
  8
2-30G
  6
Continuous
 62
     7
370
    13
100
AcDbLine
 10
50.987079
 20
-7.939337
 30
0.0
 11
50.987079
 21
-7.739316
 31
0.0
  0
LINE
  5
419
330
4F6
100
AcDbEntity
  8
2-30G
  6
Continuous
 62
     7
370
    13
100
AcDbLine
 10
50.887069
 20
-7.939337
 30
0.0
 11
50.887069
 21
-7.739316
 31
0.0
  0
LINE
  5
41A
330
4F6
100
AcDbEntity
  8
2-30G
  6
Continuous
 62
     7
370
    13
100
AcDbLine
 10
51.062079
 20
-7.739316
 30
0.0
 11
51.062079
 21
-7.614305
 31
0.0
  0
LINE
  5
41B
330
4F6
100
AcDbEntity
  8
2-30G
  6
Continuous
 62
     7
370
    13
100
AcDbLine
 10
50.812069
 20
-7.739316
 30
0.0
 11
50.812069
 21
-7.614305
 31
0.0
  0
LINE
  5
41C
330
4F6
100
AcDbEntity
  8
2-30G
  6
Continuous
 62
     7
370
    13
100
AcDbLine
 10
51.062079
 20
-7.739316
 30
0.0
 11
50.812069
 21
-7.739316
 31
0.0
  0
LINE
  5
41D
330
4F6
100
AcDbEntity
  8
2-30G
  6
Continuous
 62
     7
370
    13
100
AcDbLine
 10
51.062079
 20
-7.614305
 30
0.0
 11
50.812069
 21
-7.614305
 31
0.0
  0
LINE
  5
41E
330
4F6
100
AcDbEntity
  8
2-30G
  6
Continuous
 62
     7
370
    13
100
AcDbLine
 10
51.037079
 20
-7.464295
 30
0.0
 11
50.837069
 21
-7.464295
 31
0.0
  0
LINE
  5
41F
330
4F6
100
AcDbEntity
  8
2-30G
  6
Continuous
 62
     7
370
    13
100
AcDbLine
 10
51.2371
 20
-7.439295
 30
0.0
 11
50.637048
 21
-7.439295
 31
0.0
  0
LINE
  5
420
330
4F6
100
AcDbEntity
  8
2-30G
  6
Continuous
 62
     7
370
    13
100
AcDbLine
 10
51.2371
 20
-7.414295
 30
0.0
 11
50.637048
 21
-7.414295
 31
0.0
  0
LINE
  5
421
330
4F6
100
AcDbEntity
  8
2-30G
  6
Continuous
 62
     7
370
    13
100
AcDbLine
 10
50.887069
 20
-7.614305
 30
0.0
 11
50.887069
 21
-7.464295
 31
0.0
  0
LINE
  5
422
330
4F6
100
AcDbEntity
  8
2-30G
  6
Continuous
 62
     7
370
    13
100
AcDbLine
 10
50.987079
 20
-7.614305
 30
0.0
 11
50.987079
 21
-7.464295
 31
0.0
  0
LINE
  5
423
330
4F6
100
AcDbEntity
  8
2-30G
  6
Continuous
 62
     7
370
    13
100
AcDbLine
 10
51.2371
 20
-7.439295
 30
0.0
 11
51.2371
 21
-7.414295
 31
0.0
  0
LINE
  5
424
330
4F6
100
AcDbEntity
  8
2-30G
  6
Continuous
 62
     7
370
    13
100
AcDbLine
 10
50.637048
 20
-7.439295
 30
0.0
 11
50.637048
 21
-7.414295
 31
0.0
  0
LINE
  5
425
330
4F6
100
AcDbEntity
  8
2-30G
  6
Continuous
 62
     7
370
    13
100
AcDbLine
 10
51.012079
 20
-7.739316
 30
0.0
 11
51.012079
 21
-7.614305
 31
0.0
  0
LINE
  5
426
330
4F6
100
AcDbEntity
  8
2-30G
  6
Continuous
 62
     7
370
    13
100
AcDbLine
 10
50.912069
 20
-7.739316
 30
0.0
 11
50.912069
 21
-7.614305
 31
0.0
  0
LINE
  5
427
330
4F6
100
AcDbEntity
  8
2-30G
  6
Continuous
 62
     7
370
    13
100
AcDbLine
 10
51.037079
 20
-7.464295
 30
0.0
 11
51.037079
 21
-7.439295
 31
0.0
  0
LINE
  5
428
330
4F6
100
AcDbEntity
  8
2-30G
  6
Continuous
 62
     7
370
    13
100
AcDbLine
 10
50.837069
 20
-7.464295
 30
0.0
 11
50.837069
 21
-7.439295
 31
0.0
  0
ARC
  5
429
330
4F6
100
AcDbEntity
  8
2-30G
  6
Continuous
 62
     7
370
    13
100
AcDbCircle
 10
50.937077
 20
-7.480964
 30
0.0
 40
0.1416779999999991
100
AcDbArc
 50
28.072486
 51
151.927511
  0
LINE
  5
42A
330
4F6
100
AcDbEntity
  8
2-30G
  6
Continuous
 62
     7
370
    13
100
AcDbLine
 10
50.967079
 20
-7.919326
 30
0.0
 11
50.907069
 21
-7.919326
 31
0.0
  0
LINE
  5
42B
330
4F6
100
AcDbEntity
  8
2-30G
  6
Continuous
 62
     7
370
    13
100
AcDbLine
 10
50.987079
 20
-7.899326
 30
0.0
 11
50.887069
 21
-7.899326
 31
0.0
  0
LINE
  5
42C
330
4F6
100
AcDbEntity
  8
2-30G
  6
Continuous
 62
     7
370
    13
100
AcDbLine
 10
50.967079
 20
-7.879326
 30
0.0
 11
50.907069
 21
-7.879326
 31
0.0
  0
LINE
  5
42D
330
4F6
100
AcDbEntity
  8
2-30G
  6
Continuous
 62
     7
370
    13
100
AcDbLine
 10
50.987079
 20
-7.859326
 30
0.0
 11
50.887069
 21
-7.859326
 31
0.0
  0
LINE
  5
42E
330
4F6
100
AcDbEntity
  8
2-30G
  6
Continuous
 62
     7
370
    13
100
AcDbLine
 10
50.967079
 20
-7.839326
 30
0.0
 11
50.907069
 21
-7.839326
 31
0.0
  0
LINE
  5
42F
330
4F6
100
AcDbEntity
  8
2-30G
  6
Continuous
 62
     7
370
    13
100
AcDbLine
 10
50.987079
 20
-7.819326
 30
0.0
 11
50.887069
 21
-7.819326
 31
0.0
  0
LINE
  5
430
330
4F6
100
AcDbEntity
  8
2-30G
  6
Continuous
 62
     7
370
    13
100
AcDbLine
 10
50.967079
 20
-7.799326
 30
0.0
 11
50.907069
 21
-7.799326
 31
0.0
  0
LINE
  5
431
330
4F6
100
AcDbEntity
  8
2-30G
  6
Continuous
 62
     7
370
    13
100
AcDbLine
 10
50.987079
 20
-7.779316
 30
0.0
 11
50.887069
 21
-7.779316
 31
0.0
  0
LINE
  5
432
330
4F6
100
AcDbEntity
  8
2-30G
  6
Continuous
 62
     7
370
    13
100
AcDbLine
 10
50.967079
 20
-7.759316
 30
0.0
 11
50.907069
 21
-7.759316
 31
0.0
  0
LINE
  5
433
330
4F6
100
AcDbEntity
  8
2-30G
  6
Continuous
 62
     7
370
    13
100
AcDbLine
 10
50.967079
 20
-7.474295
 30
0.0
 11
50.907069
 21
-7.474295
 31
0.0
  0
LINE
  5
434
330
4F6
100
AcDbEntity
  8
2-30G
  6
Continuous
 62
     7
370
    13
100
AcDbLine
 10
50.987079
 20
-7.494295
 30
0.0
 11
50.887069
 21
-7.494295
 31
0.0
  0
LINE
  5
435
330
4F6
100
AcDbEntity
  8
2-30G
  6
Continuous
 62
     7
370
    13
100
AcDbLine
 10
50.967079
 20
-7.514295
 30
0.0
 11
50.907069
 21
-7.514295
 31
0.0
  0
LINE
  5
436
330
4F6
100
AcDbEntity
  8
2-30G
  6
Continuous
 62
     7
370
    13
100
AcDbLine
 10
50.987079
 20
-7.534295
 30
0.0
 11
50.887069
 21
-7.534295
 31
0.0
  0
LINE
  5
437
330
4F6
100
AcDbEntity
  8
2-30G
  6
Continuous
 62
     7
370
    13
100
AcDbLine
 10
50.967079
 20
-7.554305
 30
0.0
 11
50.907069
 21
-7.554305
 31
0.0
  0
LINE
  5
438
330
4F6
100
AcDbEntity
  8
2-30G
  6
Continuous
 62
     7
370
    13
100
AcDbLine
 10
50.987079
 20
-7.574305
 30
0.0
 11
50.887069
 21
-7.574305
 31
0.0
  0
LINE
  5
439
330
4F6
100
AcDbEntity
  8
2-30G
  6
Continuous
 62
     7
370
    13
100
AcDbLine
 10
50.967079
 20
-7.594305
 30
0.0
 11
50.907069
 21
-7.594305
 31
0.0
  0
SOLID
  5
43E
330
4F6
100
AcDbEntity
  8
REF
  6
Continuous
 62
     7
370
    13
100
AcDbTrace
 10
-51.113413
 20
-7.510847
 30
0.0
 11
-51.119652
 21
-7.495399
 31
0.0
 12
-51.070163
 22
-7.48441
 32
0.0
 13
-51.070163
 23
-7.48441
 33
0.0
210
0.0
220
0.0
230
-1.0
  0
LINE
  5
43F
330
4F6
100
AcDbEntity
  8
REF
  6
Continuous
 62
     7
370
    13
100
AcDbLine
 10
51.116538
 20
-7.503128
 30
0.0
 11
51.323423
 21
-7.586649
 31
0.0
  0
LINE
  5
440
330
4F6
100
AcDbEntity
  8
REF
  6
Continuous
 62
     7
370
    13
100
AcDbLine
 10
51.323423
 20
-7.586649
 30
0.0
 11
51.393746
 21
-7.586649
 31
0.0
  0
LWPOLYLINE
  5
441
330
4F6
100
AcDbEntity
  8
2-30G
  6
Continuous
 62
     7
370
   100
100
AcDbPolyline
 90
       10
 70
   128
 43
0.0
 10
48.609167
 20
-8.656052
 10
48.589167
 20
-8.656052
 10
48.434156
 20
-8.756063
 10
48.434156
 20
-8.806062
 10
48.589167
 20
-8.906073
 10
48.589167
 20
-9.056083
 10
48.434156
 20
-9.156094
 10
48.434156
 20
-9.206094
 10
48.589167
 20
-9.306104
 10
48.609167
 20
-9.306104
  0
LINE
  5
442
330
4F6
100
AcDbEntity
  8
2-30G
  6
Continuous
 62
     7
370
    13
100
AcDbLine
 10
48.623792
 20
-8.523729
 30
0.0
 11
48.623792
 21
-9.320865
 31
0.0
  0
LINE
  5
443
330
4F6
100
AcDbEntity
  8
2-30G
  6
Continuous
 62
     7
370
    13
100
AcDbLine
 10
48.522771
 20
-8.757062
 30
0.0
 11
48.548302
 21
-8.739292
 31
0.0
  0
LINE
  5
444
330
4F6
100
AcDbEntity
  8
2-30G
  6
Continuous
 62
     7
370
    13
100
AcDbLine
 10
48.547385
 20
-8.739917
 30
0.0
 11
48.532729
 21
-8.718854
 31
0.0
  0
LINE
  5
445
330
4F6
100
AcDbEntity
  8
2-30G
  6
Continuous
 62
     7
370
    13
100
AcDbLine
 10
48.522771
 20
-8.757062
 30
0.0
 11
48.508104
 21
-8.736
 31
0.0
  0
LINE
  5
446
330
4F6
100
AcDbEntity
  8
2-30G
  6
Continuous
 62
     7
370
    13
100
AcDbLine
 10
48.530948
 20
-8.67451
 30
0.0
 11
48.525229
 21
-8.666302
 31
0.0
  0
LINE
  5
447
330
4F6
100
AcDbEntity
  8
2-30G
  6
Continuous
 62
     7
370
    13
100
AcDbLine
 10
48.4735
 20
-8.71451
 30
0.0
 11
48.467781
 21
-8.706312
 31
0.0
  0
LINE
  5
448
330
4F6
100
AcDbEntity
  8
2-30G
  6
Continuous
 62
     7
370
    13
100
AcDbLine
 10
48.4735
 20
-8.71451
 30
0.0
 11
48.530948
 21
-8.67451
 31
0.0
  0
LINE
  5
449
330
4F6
100
AcDbEntity
  8
2-30G
  6
Continuous
 62
     7
370
    13
100
AcDbLine
 10
48.540937
 20
-8.713146
 30
0.0
 11
48.5295
 21
-8.696729
 31
0.0
  0
LINE
  5
44A
330
4F6
100
AcDbEntity
  8
2-30G
  6
Continuous
 62
     7
370
    13
100
AcDbLine
 10
48.499896
 20
-8.741719
 30
0.0
 11
48.488469
 21
-8.725302
 31
0.0
  0
LINE
  5
44B
330
4F6
100
AcDbEntity
  8
2-30G
  6
Continuous
 62
     7
370
    13
100
AcDbLine
 10
48.499896
 20
-8.741719
 30
0.0
 11
48.540937
 21
-8.713146
 31
0.0
  0
ARC
  5
44C
330
4F6
100
AcDbEntity
  8
2-30G
  6
Continuous
 62
     7
370
    13
100
AcDbCircle
 10
48.507987
 20
-8.702791
 30
0.0
 40
0.0403574225190407
100
AcDbArc
 50
64.701253
 51
184.998622
  0
ARC
  5
44D
330
4F6
100
AcDbEntity
  8
2-30G
  6
Continuous
 62
     7
370
    13
100
AcDbCircle
 10
48.511933
 20
-8.857491
 30
0.0
 40
0.0403574225190407
100
AcDbArc
 50
178.029072
 51
298.326442
  0
LINE
  5
44E
330
4F6
100
AcDbEntity
  8
2-30G
  6
Continuous
 62
     7
370
    13
100
AcDbLine
 10
48.550885
 20
-8.84951
 30
0.0
 11
48.508396
 21
-8.823146
 31
0.0
  0
LINE
  5
44F
330
4F6
100
AcDbEntity
  8
2-30G
  6
Continuous
 62
     7
370
    13
100
AcDbLine
 10
48.550885
 20
-8.84951
 30
0.0
 11
48.540333
 21
-8.8665
 31
0.0
  0
LINE
  5
450
330
4F6
100
AcDbEntity
  8
2-30G
  6
Continuous
 62
     7
370
    13
100
AcDbLine
 10
48.508396
 20
-8.823146
 30
0.0
 11
48.497844
 21
-8.840135
 31
0.0
  0
LINE
  5
451
330
4F6
100
AcDbEntity
  8
2-30G
  6
Continuous
 62
     7
370
    13
100
AcDbLine
 10
48.536354
 20
-8.884521
 30
0.0
 11
48.476875
 21
-8.847604
 31
0.0
  0
LINE
  5
452
330
4F6
100
AcDbEntity
  8
2-30G
  6
Continuous
 62
     7
370
    13
100
AcDbLine
 10
48.536354
 20
-8.884521
 30
0.0
 11
48.531083
 21
-8.893021
 31
0.0
  0
LINE
  5
453
330
4F6
100
AcDbEntity
  8
2-30G
  6
Continuous
 62
     7
370
    13
100
AcDbLine
 10
48.476875
 20
-8.847604
 30
0.0
 11
48.471604
 21
-8.856104
 31
0.0
  0
LINE
  5
454
330
4F6
100
AcDbEntity
  8
2-30G
  6
Continuous
 62
     7
370
    13
100
AcDbLine
 10
48.555917
 20
-8.822427
 30
0.0
 11
48.542385
 21
-8.844229
 31
0.0
  0
LINE
  5
455
330
4F6
100
AcDbEntity
  8
2-30G
  6
Continuous
 62
     7
370
    13
100
AcDbLine
 10
48.530427
 20
-8.806604
 30
0.0
 11
48.516885
 21
-8.828406
 31
0.0
  0
LINE
  5
456
330
4F6
100
AcDbEntity
  8
2-30G
  6
Continuous
 62
     7
370
    13
100
AcDbLine
 10
48.555917
 20
-8.822427
 30
0.0
 11
48.529479
 21
-8.806021
 31
0.0
  0
LINE
  5
457
330
4F6
100
AcDbEntity
  8
2-30G
  6
Continuous
 62
     7
370
    13
100
AcDbLine
 10
48.555917
 20
-9.22474
 30
0.0
 11
48.529479
 21
-9.208333
 31
0.0
  0
LINE
  5
458
330
4F6
100
AcDbEntity
  8
2-30G
  6
Continuous
 62
     7
370
    13
100
AcDbLine
 10
48.530427
 20
-9.208917
 30
0.0
 11
48.516885
 21
-9.230729
 31
0.0
  0
LINE
  5
459
330
4F6
100
AcDbEntity
  8
2-30G
  6
Continuous
 62
     7
370
    13
100
AcDbLine
 10
48.555917
 20
-9.22474
 30
0.0
 11
48.542385
 21
-9.246552
 31
0.0
  0
LINE
  5
45A
330
4F6
100
AcDbEntity
  8
2-30G
  6
Continuous
 62
     7
370
    13
100
AcDbLine
 10
48.476875
 20
-9.249917
 30
0.0
 11
48.471604
 21
-9.258417
 31
0.0
  0
LINE
  5
45B
330
4F6
100
AcDbEntity
  8
2-30G
  6
Continuous
 62
     7
370
    13
100
AcDbLine
 10
48.536354
 20
-9.286833
 30
0.0
 11
48.531083
 21
-9.295333
 31
0.0
  0
LINE
  5
45C
330
4F6
100
AcDbEntity
  8
2-30G
  6
Continuous
 62
     7
370
    13
100
AcDbLine
 10
48.536354
 20
-9.286833
 30
0.0
 11
48.476875
 21
-9.249917
 31
0.0
  0
LINE
  5
45D
330
4F6
100
AcDbEntity
  8
2-30G
  6
Continuous
 62
     7
370
    13
100
AcDbLine
 10
48.508396
 20
-9.225448
 30
0.0
 11
48.497844
 21
-9.242448
 31
0.0
  0
LINE
  5
45E
330
4F6
100
AcDbEntity
  8
2-30G
  6
Continuous
 62
     7
370
    13
100
AcDbLine
 10
48.550885
 20
-9.251823
 30
0.0
 11
48.540333
 21
-9.268812
 31
0.0
  0
LINE
  5
45F
330
4F6
100
AcDbEntity
  8
2-30G
  6
Continuous
 62
     7
370
    13
100
AcDbLine
 10
48.550885
 20
-9.251823
 30
0.0
 11
48.508396
 21
-9.225448
 31
0.0
  0
ARC
  5
460
330
4F6
100
AcDbEntity
  8
2-30G
  6
Continuous
 62
     7
370
    13
100
AcDbCircle
 10
48.511933
 20
-9.259805
 30
0.0
 40
0.0403574225190407
100
AcDbArc
 50
178.029072
 51
298.326442
  0
ARC
  5
461
330
4F6
100
AcDbEntity
  8
2-30G
  6
Continuous
 62
     7
370
    13
100
AcDbCircle
 10
48.507987
 20
-9.105105
 30
0.0
 40
0.0403574225190407
100
AcDbArc
 50
64.701253
 51
184.998622
  0
LINE
  5
462
330
4F6
100
AcDbEntity
  8
2-30G
  6
Continuous
 62
     7
370
    13
100
AcDbLine
 10
48.499896
 20
-9.144031
 30
0.0
 11
48.540937
 21
-9.115458
 31
0.0
  0
LINE
  5
463
330
4F6
100
AcDbEntity
  8
2-30G
  6
Continuous
 62
     7
370
    13
100
AcDbLine
 10
48.499896
 20
-9.144031
 30
0.0
 11
48.488469
 21
-9.127615
 31
0.0
  0
LINE
  5
464
330
4F6
100
AcDbEntity
  8
2-30G
  6
Continuous
 62
     7
370
    13
100
AcDbLine
 10
48.540937
 20
-9.115458
 30
0.0
 11
48.5295
 21
-9.099042
 31
0.0
  0
LINE
  5
465
330
4F6
100
AcDbEntity
  8
2-30G
  6
Continuous
 62
     7
370
    13
100
AcDbLine
 10
48.4735
 20
-9.116833
 30
0.0
 11
48.530948
 21
-9.076823
 31
0.0
  0
LINE
  5
466
330
4F6
100
AcDbEntity
  8
2-30G
  6
Continuous
 62
     7
370
    13
100
AcDbLine
 10
48.4735
 20
-9.116833
 30
0.0
 11
48.467781
 21
-9.108625
 31
0.0
  0
LINE
  5
467
330
4F6
100
AcDbEntity
  8
2-30G
  6
Continuous
 62
     7
370
    13
100
AcDbLine
 10
48.530948
 20
-9.076823
 30
0.0
 11
48.525229
 21
-9.068615
 31
0.0
  0
LINE
  5
468
330
4F6
100
AcDbEntity
  8
2-30G
  6
Continuous
 62
     7
370
    13
100
AcDbLine
 10
48.522771
 20
-9.159375
 30
0.0
 11
48.508104
 21
-9.138323
 31
0.0
  0
LINE
  5
469
330
4F6
100
AcDbEntity
  8
2-30G
  6
Continuous
 62
     7
370
    13
100
AcDbLine
 10
48.547385
 20
-9.142229
 30
0.0
 11
48.532729
 21
-9.121177
 31
0.0
  0
LINE
  5
46A
330
4F6
100
AcDbEntity
  8
2-30G
  6
Continuous
 62
     7
370
    13
100
AcDbLine
 10
48.522771
 20
-9.159375
 30
0.0
 11
48.548302
 21
-9.141604
 31
0.0
  0
LINE
  5
46B
330
4F6
100
AcDbEntity
  8
DEFPOINTS
  6
Continuous
 62
     7
370
    13
100
AcDbLine
 10
48.559167
 20
-9.312635
 30
0.0
 11
48.184927
 21
-9.312635
 31
0.0
  0
LINE
  5
46C
330
4F6
100
AcDbEntity
  8
DEFPOINTS
  6
Continuous
 62
     7
370
    13
100
AcDbLine
 10
48.007896
 20
-9.262635
 30
0.0
 11
48.007896
 21
-8.69976
 31
0.0
  0
SOLID
  5
46D
330
4F6
100
AcDbEntity
  8
DEFPOINTS
  6
Continuous
 62
     7
370
    13
100
AcDbTrace
 10
48.016229
 20
-9.262635
 30
0.0
 11
47.999562
 21
-9.262635
 31
0.0
 12
48.007896
 22
-9.312635
 32
0.0
 13
48.007896
 23
-9.312635
 33
0.0
  0
SOLID
  5
46E
330
4F6
100
AcDbEntity
  8
DEFPOINTS
  6
Continuous
 62
     7
370
    13
100
AcDbTrace
 10
48.016229
 20
-8.69976
 30
0.0
 11
47.999562
 21
-8.69976
 31
0.0
 12
48.007896
 22
-8.64976
 32
0.0
 13
48.007896
 23
-8.64976
 33
0.0
  0
LINE
  5
470
330
4F6
100
AcDbEntity
  8
DEFPOINTS
  6
Continuous
 62
     7
370
    13
100
AcDbLine
 10
48.366896
 20
-9.182177
 30
0.0
 11
48.148979
 21
-9.182177
 31
0.0
  0
LINE
  5
471
330
4F6
100
AcDbEntity
  8
DEFPOINTS
  6
Continuous
 62
     7
370
    13
100
AcDbLine
 10
48.19899
 20
-9.262635
 30
0.0
 11
48.19899
 21
-9.232177
 31
0.0
  0
SOLID
  5
472
330
4F6
100
AcDbEntity
  8
DEFPOINTS
  6
Continuous
 62
     7
370
    13
100
AcDbTrace
 10
48.207323
 20
-9.262635
 30
0.0
 11
48.190656
 21
-9.262635
 31
0.0
 12
48.19899
 22
-9.312635
 32
0.0
 13
48.19899
 23
-9.312635
 33
0.0
  0
SOLID
  5
473
330
4F6
100
AcDbEntity
  8
DEFPOINTS
  6
Continuous
 62
     7
370
    13
100
AcDbTrace
 10
48.207323
 20
-9.232177
 30
0.0
 11
48.190656
 21
-9.232177
 31
0.0
 12
48.19899
 22
-9.182177
 32
0.0
 13
48.19899
 23
-9.182177
 33
0.0
  0
LINE
  5
475
330
4F6
100
AcDbEntity
  8
DEFPOINTS
  6
Continuous
 62
     7
370
    13
100
AcDbLine
 10
48.107604
 20
-9.312635
 30
0.0
 11
47.957896
 21
-9.312635
 31
0.0
  0
LINE
  5
476
330
4F6
100
AcDbEntity
  8
DEFPOINTS
  6
Continuous
 62
     7
370
    13
100
AcDbLine
 10
48.107604
 20
-8.64976
 30
0.0
 11
47.957896
 21
-8.64976
 31
0.0
  0
LINE
  5
477
330
4F6
100
AcDbEntity
  8
DEFPOINTS
  6
Continuous
 62
     7
370
    13
100
AcDbLine
 10
48.366896
 20
-8.780219
 30
0.0
 11
48.148979
 21
-8.780219
 31
0.0
  0
SOLID
  5
478
330
4F6
100
AcDbEntity
  8
DEFPOINTS
  6
Continuous
 62
     7
370
    13
100
AcDbTrace
 10
48.207323
 20
-8.730208
 30
0.0
 11
48.190656
 21
-8.730208
 31
0.0
 12
48.19899
 22
-8.780219
 32
0.0
 13
48.19899
 23
-8.780219
 33
0.0
  0
SOLID
  5
479
330
4F6
100
AcDbEntity
  8
DEFPOINTS
  6
Continuous
 62
     7
370
    13
100
AcDbTrace
 10
48.207323
 20
-8.69976
 30
0.0
 11
48.190656
 21
-8.69976
 31
0.0
 12
48.19899
 22
-8.64976
 32
0.0
 13
48.19899
 23
-8.64976
 33
0.0
  0
LINE
  5
47A
330
4F6
100
AcDbEntity
  8
DEFPOINTS
  6
Continuous
 62
     7
370
    13
100
AcDbLine
 10
48.19899
 20
-8.69976
 30
0.0
 11
48.19899
 21
-8.730208
 31
0.0
  0
LINE
  5
47B
330
4F6
100
AcDbEntity
  8
DEFPOINTS
  6
Continuous
 62
     7
370
    13
100
AcDbLine
 10
48.559167
 20
-8.64976
 30
0.0
 11
48.184927
 21
-8.64976
 31
0.0
  0
LINE
  5
47D
330
4F6
100
AcDbEntity
  8
DEFPOINTS
  6
Continuous
 62
     7
370
    13
100
AcDbLine
 10
48.199281
 20
-8.981198
 30
0.0
 11
48.708625
 21
-8.981198
 31
0.0
  0
LINE
  5
47E
330
4F6
100
AcDbEntity
  8
DEFPOINTS
  6
Continuous
 62
     7
370
    13
100
AcDbLine
 10
48.525062
 20
-9.019094
 30
0.0
 11
48.148979
 21
-9.019094
 31
0.0
  0
SOLID
  5
47F
330
4F6
100
AcDbEntity
  8
DEFPOINTS
  6
Continuous
 62
     7
370
    13
100
AcDbTrace
 10
48.207323
 20
-9.132177
 30
0.0
 11
48.190656
 21
-9.132177
 31
0.0
 12
48.19899
 22
-9.182177
 32
0.0
 13
48.19899
 23
-9.182177
 33
0.0
  0
SOLID
  5
480
330
4F6
100
AcDbEntity
  8
DEFPOINTS
  6
Continuous
 62
     7
370
    13
100
AcDbTrace
 10
48.207323
 20
-9.069094
 30
0.0
 11
48.190656
 21
-9.069094
 31
0.0
 12
48.19899
 22
-9.019094
 32
0.0
 13
48.19899
 23
-9.019094
 33
0.0
  0
SOLID
  5
482
330
4F6
100
AcDbEntity
  8
DEFPOINTS
  6
Continuous
 62
     7
370
    13
100
AcDbTrace
 10
48.207323
 20
-8.830219
 30
0.0
 11
48.190656
 21
-8.830219
 31
0.0
 12
48.19899
 22
-8.780219
 32
0.0
 13
48.19899
 23
-8.780219
 33
0.0
  0
SOLID
  5
483
330
4F6
100
AcDbEntity
  8
DEFPOINTS
  6
Continuous
 62
     7
370
    13
100
AcDbTrace
 10
48.207323
 20
-8.893292
 30
0.0
 11
48.190656
 21
-8.893292
 31
0.0
 12
48.19899
 22
-8.943302
 32
0.0
 13
48.19899
 23
-8.943302
 33
0.0
  0
LINE
  5
484
330
4F6
100
AcDbEntity
  8
DEFPOINTS
  6
Continuous
 62
     7
370
    13
100
AcDbLine
 10
48.525062
 20
-8.943302
 30
0.0
 11
48.148979
 21
-8.943302
 31
0.0
  0
LINE
  5
486
330
4F6
100
AcDbEntity
  8
DEFPOINTS
  6
Continuous
 62
     7
370
    13
100
AcDbLine
 10
48.199281
 20
-8.943812
 30
0.0
 11
48.199281
 21
-9.019708
 31
0.0
  0
SOLID
  5
487
330
4F6
100
AcDbEntity
  8
DEFPOINTS
  6
Continuous
 62
     7
370
    13
100
AcDbTrace
 10
48.249063
 20
-8.990094
 30
0.0
 11
48.249063
 21
-8.973427
 31
0.0
 12
48.199062
 22
-8.98176
 32
0.0
 13
48.199062
 23
-8.98176
 33
0.0
  0
TEXT
  5
D4
330
4F6
100
AcDbEntity
  8
REF
  6
Continuous
 62
     7
370
    13
100
AcDbText
 10
53.680146
 20
-4.455693
 30
0.0
 40
0.045
  1
5/8" x 18" BOLT
 41
0.833333
  7
Style-Arial
 72
     1
 11
53.867103
 21
-4.455693
 31
0.0
100
AcDbText
  0
TEXT
  5
D8
330
4F6
100
AcDbEntity
  8
REF
  6
Continuous
 62
     7
370
    13
100
AcDbText
 10
54.327321
 20
-5.150594
 30
0.0
 40
0.045
  1
6" x 8" x 1'-1"
 41
0.833333
  7
Style-Arial
 72
     1
 11
54.48128
 21
-5.150594
 31
0.0
100
AcDbText
  0
TEXT
  5
D9
330
4F6
100
AcDbEntity
  8
REF
  6
Continuous
 62
     7
370
    13
100
AcDbText
 10
54.328721
 20
-5.216224
 30
0.0
 40
0.045
  1
TREATED PINE
 41
0.833333
  7
Style-Arial
 72
     1
 11
54.518036
 21
-5.216224
 31
0.0
100
AcDbText
  0
TEXT
  5
DA
330
4F6
100
AcDbEntity
  8
REF
  6
Continuous
 62
     7
370
    13
100
AcDbText
 10
54.334319
 20
-5.289988
 30
0.0
 40
0.045
  1
BLOCK
 41
0.833333
  7
Style-Arial
 72
     1
 11
54.423081
 21
-5.289988
 31
0.0
100
AcDbText
  0
TEXT
  5
DB
330
4F6
100
AcDbEntity
  8
REF
  6
Continuous
 62
     7
370
    13
100
AcDbText
 10
48.125712
 20
-5.29631
 30
0.0
 40
0.045
  1
BLOCK
 41
0.833333
  7
Style-Arial
 72
     1
 11
48.214475
 21
-5.29631
 31
0.0
100
AcDbText
  0
TEXT
  5
DC
330
4F6
100
AcDbEntity
  8
REF
  6
Continuous
 62
     7
370
    13
100
AcDbText
 10
48.122396
 20
-5.226731
 30
0.0
 40
0.045
  1
TREATED PINE
 41
0.833333
  7
Style-Arial
 72
     1
 11
48.311711
 21
-5.226731
 31
0.0
100
AcDbText
  0
TEXT
  5
DD
330
4F6
100
AcDbEntity
  8
REF
  6
Continuous
 62
     7
370
    13
100
AcDbText
 10
48.120757
 20
-5.153708
 30
0.0
 40
0.045
  1
6" x 8" x 1'-1"
 41
0.833333
  7
Style-Arial
 72
     1
 11
48.274716
 21
-5.153708
 31
0.0
100
AcDbText
  0
TEXT
  5
E1
330
4F6
100
AcDbEntity
  8
REF
  6
Continuous
 62
     7
370
    13
100
AcDbText
 10
54.40286
 20
-3.860719
 30
0.0
 40
0.045
  1
WITH SPECIFICATIONS
 41
0.833333
  7
Style-Arial
 72
     1
 11
54.694056
 21
-3.860719
 31
0.0
100
AcDbText
  0
TEXT
  5
E2
330
4F6
100
AcDbEntity
  8
REF
  6
Continuous
 62
     7
370
    13
100
AcDbText
 10
54.399347
 20
-3.77976
 30
0.0
 40
0.045
  1
POSTS TO BE PRESSURE TREATED IN ACCORCANCE
 41
0.833333
  7
Style-Arial
 72
     1
 11
55.080735
 21
-3.77976
 31
0.0
100
AcDbText
  0
TEXT
  5
E3
330
4F6
100
AcDbEntity
  8
REF
  6
Continuous
 62
     7
370
    13
100
AcDbText
 10
54.403435
 20
-3.617844
 30
0.0
 40
0.045
  1
ALL HOLES IN POST TO BE 3/4" DIAMETER
 41
0.833333
  7
Style-Arial
 72
     1
 11
54.939382
 21
-3.617844
 31
0.0
100
AcDbText
  0
TEXT
  5
E4
330
4F6
100
AcDbEntity
  8
HATCH
  6
Continuous
 62
     7
370
    13
100
AcDbText
 10
50.947769
 20
-3.524698
 30
0.0
 40
0.045
  1
BRACKETS SEE FIGURE 3-32g
 41
0.833333
  7
Style-Arial
 72
     1
 11
51.32747
 21
-3.524698
 31
0.0
100
AcDbText
  0
TEXT
  5
E5
330
4F6
100
AcDbEntity
  8
HATCH
  6
Continuous
 62
     7
370
    13
100
AcDbText
 10
50.771849
 20
-3.44374
 30
0.0
 40
0.045
  1
NOTE: FOR DETAIL OF ALTERNATE STEEL AND OFFSET
 41
0.833333
  7
Style-Arial
 72
     1
 11
51.48172
 21
-3.44374
 31
0.0
100
AcDbText
  0
TEXT
  5
E6
330
4F6
100
AcDbEntity
  8
REF
  6
Continuous
 62
     7
370
    13
100
AcDbText
 10
47.628938
 20
-3.966863
 30
0.0
 40
0.045
  1
3/4" HOLES TO BE CAST IN POST
 41
0.833333
  7
Style-Arial
 72
     1
 11
48.045339
 21
-3.966863
 31
0.0
100
AcDbText
  0
TEXT
  5
E7
330
4F6
100
AcDbEntity
  8
REF
  6
Continuous
 62
     7
370
    13
100
AcDbText
 10
47.620773
 20
-3.891293
 30
0.0
 40
0.045
  1
1/2"(+1/4") CHAMFER ALL CORNERS
 41
0.833333
  7
Style-Arial
 72
     1
 11
48.072531
 21
-3.891293
 31
0.0
100
AcDbText
  0
TEXT
  5
E8
330
4F6
100
AcDbEntity
  8
REF
  6
Continuous
 62
     7
370
    13
100
AcDbText
 10
47.622832
 20
-3.825134
 30
0.0
 40
0.045
  1
ALL CONCRETE TO BE CLASS A3
 41
0.833333
  7
Style-Arial
 72
     1
 11
48.040948
 21
-3.825134
 31
0.0
100
AcDbText
  0
TEXT
  5
E9
330
4F6
100
AcDbEntity
  8
REF
  6
Continuous
 62
     7
370
    13
100
AcDbText
 10
48.18339
 20
-3.609177
 30
0.0
 40
0.045
  1
ACCEPTABLE TOLERANCES
 41
0.833333
  7
Style-Arial
 72
     1
 11
48.540197
 21
-3.609177
 31
0.0
100
AcDbText
  0
TEXT
  5
EA
330
4F6
100
AcDbEntity
  8
REF
  6
Continuous
 62
     7
370
    13
100
AcDbText
 10
48.227135
 20
-3.528219
 30
0.0
 40
0.045
  1
PARENTHESIS INDICATE
 41
0.833333
  7
Style-Arial
 72
     1
 11
48.540197
 21
-3.528219
 31
0.0
100
AcDbText
  0
TEXT
  5
EB
330
4F6
100
AcDbEntity
  8
REF
  6
Continuous
 62
     7
370
    13
100
AcDbText
 10
48.235224
 20
-3.44726
 30
0.0
 40
0.045
  1
DIMENSIONS SHOWN IN
 41
0.833333
  7
Style-Arial
 72
     1
 11
48.540197
 21
-3.44726
 31
0.0
100
AcDbText
  0
TEXT
  5
EC
330
4F6
100
AcDbEntity
  8
REF
  6
Continuous
 62
     7
370
    13
100
AcDbText
 10
47.628124
 20
-5.801921
 30
0.0
 40
0.045
  1
3'-0" OF POST
 41
0.833333
  7
Style-Arial
 72
     1
 11
47.802019
 21
-5.801921
 31
0.0
100
AcDbText
  0
TEXT
  5
ED
330
4F6
100
AcDbEntity
  8
REF
  6
Continuous
 62
     7
370
    13
100
AcDbText
 10
51.390863
 20
-6.269323
 30
0.0
 40
0.045
  1
GALVANIZING
 41
0.833333
  7
Style-Arial
 72
     1
 11
51.565373
 21
-6.269323
 31
0.0
100
AcDbText
  0
TEXT
  5
EE
330
4F6
100
AcDbEntity
  8
REF
  6
Continuous
 62
     7
370
    13
100
AcDbText
 10
51.389735
 20
-6.188365
 30
0.0
 40
0.045
  1
TO FACILITATE
 41
0.833333
  7
Style-Arial
 72
     1
 11
51.580479
 21
-6.188365
 31
0.0
100
AcDbText
  0
TEXT
  5
EF
330
4F6
100
AcDbEntity
  8
REF
  6
Continuous
 62
     7
370
    13
100
AcDbText
 10
51.386246
 20
-6.107406
 30
0.0
 40
0.045
  1
OPTIONAL HOLE
 41
0.833333
  7
Style-Arial
 72
     1
 11
51.59594
 21
-6.107406
 31
0.0
100
AcDbText
  0
TEXT
  5
F0
330
4F6
100
AcDbEntity
  8
REF
  6
Continuous
 62
     7
370
    13
100
AcDbText
 10
51.702618
 20
-5.87251
 30
0.0
 40
0.045
  1
W6x 8.5
 41
0.833333
  7
Style-Arial
 72
     1
 11
51.79764
 21
-5.87251
 31
0.0
100
AcDbText
  0
TEXT
  5
F1
330
4F6
100
AcDbEntity
  8
REF
  6
Continuous
 62
     7
370
    13
100
AcDbText
 10
51.616967
 20
-5.30536
 30
0.0
 40
0.045
  1
& WASHER
 41
0.833333
  7
Style-Arial
 72
     1
 11
51.756363
 21
-5.30536
 31
0.0
100
AcDbText
  0
TEXT
  5
F2
330
4F6
100
AcDbEntity
  8
REF
  6
Continuous
 62
     7
370
    13
100
AcDbText
 10
51.619235
 20
-5.241664
 30
0.0
 40
0.045
  1
5/8"x2" BOLT
 41
0.833333
  7
Style-Arial
 72
     1
 11
51.77708
 21
-5.241664
 31
0.0
100
AcDbText
  0
TEXT
  5
F3
330
4F6
100
AcDbEntity
  8
REF
  6
Continuous
 62
     7
370
    13
100
AcDbText
 10
51.618493
 20
-5.178998
 30
0.0
 40
0.045
  1
W6x 8.5
 41
0.833333
  7
Style-Arial
 72
     1
 11
51.713515
 21
-5.178998
 31
0.0
100
AcDbText
  0
TEXT
  5
F4
330
4F6
100
AcDbEntity
  8
REF
  6
Continuous
 62
     7
370
    13
100
AcDbText
 10
51.610996
 20
-5.116021
 30
0.0
 40
0.045
  1
W8x 10 OR
 41
0.833333
  7
Style-Arial
 72
     1
 11
51.746004
 21
-5.116021
 31
0.0
100
AcDbText
  0
TEXT
  5
F5
330
4F6
100
AcDbEntity
  8
REF
  6
Continuous
 62
     7
370
    13
100
AcDbText
 10
52.41204
 20
-5.109031
 30
0.0
 40
0.045
  1
BOLT
 41
0.833333
  7
Style-Arial
 72
     1
 11
52.479937
 21
-5.109031
 31
0.0
100
AcDbText
  0
TEXT
  5
F6
330
4F6
100
AcDbEntity
  8
REF
  6
Continuous
 62
     7
370
    13
100
AcDbText
 10
52.270572
 20
-5.028073
 30
0.0
 40
0.045
  1
5/8"x2" MACHINE
 41
0.833333
  7
Style-Arial
 72
     1
 11
52.479937
 21
-5.028073
 31
0.0
100
AcDbText
  0
TEXT
  5
F7
330
4F6
100
AcDbEntity
  8
REF
  6
Continuous
 62
     7
370
    13
100
AcDbText
 10
52.406717
 20
-6.258396
 30
0.0
 40
0.045
  1
BRACKETS TO BE 3/4"
 41
0.833333
  7
Style-Arial
 72
     1
 11
52.685595
 21
-6.258396
 31
0.0
100
AcDbText
  0
TEXT
  5
F8
330
4F6
100
AcDbEntity
  8
REF
  6
Continuous
 62
     7
370
    13
100
AcDbText
 10
52.406355
 20
-6.191267
 30
0.0
 40
0.045
  1
HOLES IN POST, AND
 41
0.833333
  7
Style-Arial
 72
     1
 11
52.675729
 21
-6.191267
 31
0.0
100
AcDbText
  0
TEXT
  5
F9
330
4F6
100
AcDbEntity
  8
REF
  6
Continuous
 62
     7
370
    13
100
AcDbText
 10
52.436253
 20
-5.93259
 30
0.0
 40
0.045
  1
SPECIFICATIONS
 41
0.833333
  7
Style-Arial
 72
     1
 11
52.65325
 21
-5.93259
 31
0.0
100
AcDbText
  0
TEXT
  5
FA
330
4F6
100
AcDbEntity
  8
REF
  6
Continuous
 62
     7
370
    13
100
AcDbText
 10
52.436534
 20
-5.860253
 30
0.0
 40
0.045
  1
DANCE WITH THE 
 41
0.833333
  7
Style-Arial
 72
     1
 11
52.660733
 21
-5.860253
 31
0.0
100
AcDbText
  0
TEXT
  5
FB
330
4F6
100
AcDbEntity
  8
REF
  6
Continuous
 62
     7
370
    13
100
AcDbText
 10
52.435727
 20
-5.790011
 30
0.0
 40
0.045
  1
BE GALVANIZED IN ACCOR-
 41
0.833333
  7
Style-Arial
 72
     1
 11
52.787204
 21
-5.790011
 31
0.0
100
AcDbText
  0
TEXT
  5
FC
330
4F6
100
AcDbEntity
  8
REF
  6
Continuous
 62
     7
370
    13
100
AcDbText
 10
52.433694
 20
-5.720333
 30
0.0
 40
0.045
  1
POSTS AND BRACKETS TO
 41
0.833333
  7
Style-Arial
 72
     1
 11
52.77611
 21
-5.720333
 31
0.0
100
AcDbText
  0
TEXT
  5
FD
330
4F6
100
AcDbEntity
  8
REF
  6
Continuous
 62
     7
370
    13
100
AcDbText
 10
50.77172
 20
-4.046019
 30
0.0
 40
0.045
  1
HAND.
 41
0.833333
  7
Style-Arial
 72
     1
 11
50.850951
 21
-4.046019
 31
0.0
100
AcDbText
  0
TEXT
  5
FE
330
4F6
100
AcDbEntity
  8
REF
  6
Continuous
 62
     7
370
    13
100
AcDbText
 10
50.772904
 20
-3.98052
 30
0.0
 40
0.045
  1
OF POST HOLES MAY BE OPPOSITE
 41
0.833333
  7
Style-Arial
 72
     1
 11
51.230107
 21
-3.98052
 31
0.0
100
AcDbText
  0
TEXT
  5
FF
330
4F6
100
AcDbEntity
  8
REF
  6
Continuous
 62
     7
370
    13
100
AcDbText
 10
50.771821
 20
-3.910208
 30
0.0
 40
0.045
  1
BRACKET TO MATCH THOSE IN FRONT
 41
0.833333
  7
Style-Arial
 72
     1
 11
51.267652
 21
-3.910208
 31
0.0
100
AcDbText
  0
TEXT
  5
100
330
4F6
100
AcDbEntity
  8
REF
  6
Continuous
 62
     7
370
    13
100
AcDbText
 10
50.772559
 20
-3.839885
 30
0.0
 40
0.045
  1
CENTERS OF HOLES IN BACK OF
 41
0.833333
  7
Style-Arial
 72
     1
 11
51.192076
 21
-3.839885
 31
0.0
100
AcDbText
  0
TEXT
  5
101
330
4F6
100
AcDbEntity
  8
2-30G
  6
Continuous
 62
     7
370
    13
100
AcDbText
 10
51.725593
 20
-6.866406
 30
0.0
 40
0.045
  1
STEEL POST
 41
0.833333
  7
Style-Arial
 72
     1
 11
51.886683
 21
-6.866406
 31
0.0
100
AcDbText
  0
TEXT
  5
112
330
4F6
100
AcDbEntity
  8
DEFPOINTS
  6
Continuous
 62
     7
370
    13
100
AcDbText
 10
50.82225
 20
-4.623883
 30
0.0
 40
0.045
  1
2"
 50
90.0
 41
0.833333
  7
Style-Arial
 72
     1
 11
50.82225
 21
-4.601246
 31
0.0
100
AcDbText
  0
TEXT
  5
119
330
4F6
100
AcDbEntity
  8
DEFPOINTS
  6
Continuous
 62
     7
370
    13
100
AcDbText
 10
50.658917
 20
-4.446068
 30
0.0
 40
0.045
  1
6-1/2"
 50
90.0
 41
0.833333
  7
Style-Arial
 72
     1
 11
50.658917
 21
-4.378313
 31
0.0
100
AcDbText
  0
TEXT
  5
11B
330
4F6
100
AcDbEntity
  8
DEFPOINTS
  6
Continuous
 62
     7
370
    13
100
AcDbText
 10
50.540708
 20
-4.773421
 30
0.0
 40
0.045
  1
11"
 50
90.0
 41
0.833333
  7
Style-Arial
 72
     1
 11
50.540708
 21
-4.736221
 31
0.0
100
AcDbText
  0
TEXT
  5
11F
330
4F6
100
AcDbEntity
  8
REF
  6
Continuous
 62
     7
370
    13
100
AcDbText
 10
51.221488
 20
-4.418882
 30
0.0
 40
0.045
  1
HOLES
 41
0.833333
  7
Style-Arial
 72
     1
 11
51.308936
 21
-4.418882
 31
0.0
100
AcDbText
  0
TEXT
  5
120
330
4F6
100
AcDbEntity
  8
REF
  6
Continuous
 62
     7
370
    13
100
AcDbText
 10
51.221142
 20
-4.34572
 30
0.0
 40
0.045
  1
3/4"
 41
0.833333
  7
Style-Arial
 72
     1
 11
51.265616
 21
-4.34572
 31
0.0
100
AcDbText
  0
TEXT
  5
121
330
4F6
100
AcDbEntity
  8
DEFPOINTS
  6
Continuous
 62
     7
370
    13
100
AcDbText
 10
52.691896
 20
-4.621566
 30
0.0
 40
0.045
  1
2"
 50
90.0
 41
0.833333
  7
Style-Arial
 72
     1
 11
52.691896
 21
-4.598929
 31
0.0
100
AcDbText
  0
TEXT
  5
129
330
4F6
100
AcDbEntity
  8
DEFPOINTS
  6
Continuous
 62
     7
370
    13
100
AcDbText
 10
52.653684
 20
-4.797032
 30
0.0
 40
0.045
  1
9"
 50
90.0
 41
0.833333
  7
Style-Arial
 72
     1
 11
52.653684
 21
-4.774395
 31
0.0
100
AcDbText
  0
TEXT
  5
132
330
4F6
100
AcDbEntity
  8
DEFPOINTS
  6
Continuous
 62
     7
370
    13
100
AcDbText
 10
50.406344
 20
-4.826312
 30
0.0
 40
0.045
  1
1'-1"
 50
90.0
 41
0.833333
  7
Style-Arial
 72
     1
 11
50.406344
 21
-4.775392
 31
0.0
100
AcDbText
  0
TEXT
  5
144
330
4F6
100
AcDbEntity
  8
DEFPOINTS
  6
Continuous
 62
     7
370
    13
100
AcDbText
 10
52.575656
 20
-3.593112
 30
0.0
 40
0.045
  1
2"
 50
90.0
 41
0.833333
  7
Style-Arial
 72
     1
 11
52.575656
 21
-3.570474
 31
0.0
100
AcDbText
  0
TEXT
  5
148
330
4F6
100
AcDbEntity
  8
DEFPOINTS
  6
Continuous
 62
     7
370
    13
100
AcDbText
 10
52.575656
 20
-3.871149
 30
0.0
 40
0.045
  1
9"
 50
90.0
 41
0.833333
  7
Style-Arial
 72
     1
 11
52.575656
 21
-3.848511
 31
0.0
100
AcDbText
  0
TEXT
  5
14E
330
4F6
100
AcDbEntity
  8
DEFPOINTS
  6
Continuous
 62
     7
370
    13
100
AcDbText
 10
53.373504
 20
-3.904759
 30
0.0
 40
0.045
  1
6-1/2"
 50
90.0
 41
0.833333
  7
Style-Arial
 72
     1
 11
53.373504
 21
-3.837004
 31
0.0
100
AcDbText
  0
TEXT
  5
18D
330
4F6
100
AcDbEntity
  8
DEFPOINTS
  6
Continuous
 62
     7
370
    13
100
AcDbText
 10
51.902213
 20
-4.430229
 30
0.0
 40
0.045
  1
6" OR
 41
0.833333
  7
Style-Arial
 72
     1
 11
51.972297
 21
-4.430229
 31
0.0
100
AcDbText
  0
TEXT
  5
1DB
330
4F6
100
AcDbEntity
  8
DEFPOINTS
  6
Continuous
 62
     7
370
    13
100
AcDbText
 10
53.265854
 20
-5.63647
 30
0.0
 40
0.045
  1
5'-9" MIN
 50
90.0
 41
0.833333
  7
Style-Arial
 72
     1
 11
53.265854
 21
-5.531173
 31
0.0
100
AcDbText
  0
TEXT
  5
1FE
330
4F6
100
AcDbEntity
  8
DEFPOINTS
  6
Continuous
 62
     7
370
    13
100
AcDbText
 10
52.190348
 20
-4.435104
 30
0.0
 40
0.045
  1
6"
 41
0.833333
  7
Style-Arial
 72
     1
 11
52.212985
 21
-4.435104
 31
0.0
100
AcDbText
  0
TEXT
  5
1FF
330
4F6
100
AcDbEntity
  8
DEFPOINTS
  6
Continuous
 62
     7
370
    13
100
AcDbText
 10
51.95273
 20
-4.504627
 30
0.0
 40
0.045
  1
8"
 41
0.833333
  7
Style-Arial
 72
     1
 11
51.975367
 21
-4.504627
 31
0.0
100
AcDbText
  0
TEXT
  5
207
330
4F6
100
AcDbEntity
  8
DEFPOINTS
  6
Continuous
 62
     7
370
    13
100
AcDbText
 10
51.766121
 20
-4.474135
 30
0.0
 40
0.045
  1
3"
 41
0.833333
  7
Style-Arial
 72
     1
 11
51.788758
 21
-4.474135
 31
0.0
100
AcDbText
  0
TEXT
  5
20D
330
4F6
100
AcDbEntity
  8
DEFPOINTS
  6
Continuous
 62
     7
370
    13
100
AcDbText
 10
51.590946
 20
-4.83655
 30
0.0
 40
0.045
  1
1'-1"
 50
90.0
 41
0.833333
  7
Style-Arial
 72
     1
 11
51.590946
 21
-4.78563
 31
0.0
100
AcDbText
  0
TEXT
  5
212
330
4F6
100
AcDbEntity
  8
DEFPOINTS
  6
Continuous
 62
     7
370
    13
100
AcDbText
 10
51.38749
 20
-5.103447
 30
0.0
 40
0.045
  1
2'-3"
 50
90.0
 41
0.833333
  7
Style-Arial
 72
     1
 11
51.38749
 21
-5.052527
 31
0.0
100
AcDbText
  0
TEXT
  5
217
330
4F6
100
AcDbEntity
  8
REF
  6
Continuous
 62
     7
370
    13
100
AcDbText
 10
47.624026
 20
-5.729698
 30
0.0
 40
0.045
  1
1/2"CHAMFER ON TOP
 41
0.833333
  7
Style-Arial
 72
     1
 11
47.905848
 21
-5.729698
 31
0.0
100
AcDbText
  0
TEXT
  5
22A
330
4F6
100
AcDbEntity
  8
DEFPOINTS
  6
Continuous
 62
     7
370
    13
100
AcDbText
 10
49.164937
 20
-4.69656
 30
0.0
 40
0.045
  1
7"
 50
90.0
 41
0.833333
  7
Style-Arial
 72
     1
 11
49.164937
 21
-4.673923
 31
0.0
100
AcDbText
  0
TEXT
  5
248
330
4F6
100
AcDbEntity
  8
DEFPOINTS
  6
Continuous
 62
     7
370
    13
100
AcDbText
 10
49.711749
 20
-5.610963
 30
0.0
 40
0.045
  1
5'-9" MIN
 50
90.0
 41
0.833333
  7
Style-Arial
 72
     1
 11
49.711749
 21
-5.505666
 31
0.0
100
AcDbText
  0
TEXT
  5
249
330
4F6
100
AcDbEntity
  8
REF
  6
Continuous
 62
     7
370
    13
100
AcDbText
 10
47.449802
 20
-4.452238
 30
0.0
 40
0.045
  1
5/8" x 18" BOLT
 41
0.833333
  7
Style-Arial
 72
     1
 11
47.636759
 21
-4.452238
 31
0.0
100
AcDbText
  0
TEXT
  5
24A
330
4F6
100
AcDbEntity
  8
REF
  6
Continuous
 62
     7
370
    13
100
AcDbText
 10
47.447296
 20
-4.517661
 30
0.0
 40
0.045
  1
& WASHER
 41
0.833333
  7
Style-Arial
 72
     1
 11
47.586692
 21
-4.517661
 31
0.0
100
AcDbText
  0
TEXT
  5
280
330
4F6
100
AcDbEntity
  8
DEFPOINTS
  6
Continuous
 62
     7
370
    13
100
AcDbText
 10
48.677386
 20
-4.436562
 30
0.0
 40
0.045
  1
8"
 41
0.833333
  7
Style-Arial
 72
     1
 11
48.700023
 21
-4.436562
 31
0.0
100
AcDbText
  0
TEXT
  5
281
330
4F6
100
AcDbEntity
  8
DEFPOINTS
  6
Continuous
 62
     7
370
    13
100
AcDbText
 10
48.391866
 20
-4.436562
 30
0.0
 40
0.045
  1
8"
 41
0.833333
  7
Style-Arial
 72
     1
 11
48.414503
 21
-4.436562
 31
0.0
100
AcDbText
  0
TEXT
  5
289
330
4F6
100
AcDbEntity
  8
DEFPOINTS
  6
Continuous
 62
     7
370
    13
100
AcDbText
 10
48.197238
 20
-4.436562
 30
0.0
 40
0.045
  1
3"
 41
0.833333
  7
Style-Arial
 72
     1
 11
48.219875
 21
-4.436562
 31
0.0
100
AcDbText
  0
TEXT
  5
28F
330
4F6
100
AcDbEntity
  8
DEFPOINTS
  6
Continuous
 62
     7
370
    13
100
AcDbText
 10
48.986635
 20
-4.233642
 30
0.0
 40
0.045
  1
6"
 50
90.0
 41
0.833333
  7
Style-Arial
 72
     1
 11
48.986635
 21
-4.211004
 31
0.0
100
AcDbText
  0
TEXT
  5
295
330
4F6
100
AcDbEntity
  8
DEFPOINTS
  6
Continuous
 62
     7
370
    13
100
AcDbText
 10
48.033166
 20
-4.832535
 30
0.0
 40
0.045
  1
1'-1"
 50
90.0
 41
0.833333
  7
Style-Arial
 72
     1
 11
48.033166
 21
-4.781615
 31
0.0
100
AcDbText
  0
TEXT
  5
29A
330
4F6
100
AcDbEntity
  8
DEFPOINTS
  6
Continuous
 62
     7
370
    13
100
AcDbText
 10
47.823989
 20
-5.109924
 30
0.0
 40
0.045
  1
2'-3"
 50
90.0
 41
0.833333
  7
Style-Arial
 72
     1
 11
47.823989
 21
-5.059005
 31
0.0
100
AcDbText
  0
TEXT
  5
2A9
330
4F6
100
AcDbEntity
  8
DEFPOINTS
  6
Continuous
 62
     7
370
    13
100
AcDbText
 10
54.034001
 20
-5.09792
 30
0.0
 40
0.045
  1
2'-3"
 50
90.0
 41
0.833333
  7
Style-Arial
 72
     1
 11
54.034001
 21
-5.047001
 31
0.0
100
AcDbText
  0
TEXT
  5
2AE
330
4F6
100
AcDbEntity
  8
DEFPOINTS
  6
Continuous
 62
     7
370
    13
100
AcDbText
 10
54.242803
 20
-4.855316
 30
0.0
 40
0.045
  1
1'-1"
 50
90.0
 41
0.833333
  7
Style-Arial
 72
     1
 11
54.242803
 21
-4.804397
 31
0.0
100
AcDbText
  0
TEXT
  5
2B4
330
4F6
100
AcDbEntity
  8
DEFPOINTS
  6
Continuous
 62
     7
370
    13
100
AcDbText
 10
55.190854
 20
-4.226036
 30
0.0
 40
0.045
  1
6"
 50
90.0
 41
0.833333
  7
Style-Arial
 72
     1
 11
55.190854
 21
-4.203398
 31
0.0
100
AcDbText
  0
TEXT
  5
2BA
330
4F6
100
AcDbEntity
  8
DEFPOINTS
  6
Continuous
 62
     7
370
    13
100
AcDbText
 10
54.411835
 20
-4.436562
 30
0.0
 40
0.045
  1
3"
 41
0.833333
  7
Style-Arial
 72
     1
 11
54.434472
 21
-4.436562
 31
0.0
100
AcDbText
  0
TEXT
  5
2C2
330
4F6
100
AcDbEntity
  8
DEFPOINTS
  6
Continuous
 62
     7
370
    13
100
AcDbText
 10
54.609874
 20
-4.431635
 30
0.0
 40
0.045
  1
8"
 41
0.833333
  7
Style-Arial
 72
     1
 11
54.632511
 21
-4.431635
 31
0.0
100
AcDbText
  0
TEXT
  5
2C3
330
4F6
100
AcDbEntity
  8
DEFPOINTS
  6
Continuous
 62
     7
370
    13
100
AcDbText
 10
54.885447
 20
-4.431635
 30
0.0
 40
0.045
  1
8"
 41
0.833333
  7
Style-Arial
 72
     1
 11
54.908084
 21
-4.431635
 31
0.0
100
AcDbText
  0
TEXT
  5
2EC
330
4F6
100
AcDbEntity
  8
REF
  6
Continuous
 62
     7
370
    13
100
AcDbText
 10
48.721968
 20
-8.735083
 30
0.0
 40
0.045
  1
5/8" x 1-1/4" BOLTS
 41
0.833333
  7
Style-Arial
 72
     1
 11
48.956114
 21
-8.735083
 31
0.0
100
AcDbText
  0
TEXT
  5
2EE
330
4F6
100
AcDbEntity
  8
REF
  6
Continuous
 62
     7
370
    13
100
AcDbText
 10
48.722458
 20
-8.816719
 30
0.0
 40
0.045
  1
8 REQD. PER JOINT
 41
0.833333
  7
Style-Arial
 72
     1
 11
48.970853
 21
-8.816719
 31
0.0
100
AcDbText
  0
TEXT
  5
2F1
330
4F6
100
AcDbEntity
  8
REF
  6
Continuous
 62
     7
370
    13
100
AcDbText
 10
51.478527
 20
-8.911993
 30
0.0
 40
0.045
  1
L
 41
0.833333
  7
Style-Arial
 72
     1
 11
51.492161
 21
-8.911993
 31
0.0
100
AcDbText
  0
TEXT
  5
2F2
330
4F6
100
AcDbEntity
  8
REF
  6
Continuous
 62
     7
370
    13
100
AcDbText
 10
51.466059
 20
-8.891108
 30
0.0
 40
0.045
  1
C POST BOLT SLOT
 41
0.833333
  7
Style-Arial
 72
     1
 11
51.714468
 21
-8.891108
 31
0.0
100
AcDbText
  0
TEXT
  5
2F7
330
4F6
100
AcDbEntity
  8
REF
  6
Continuous
 62
     7
370
    13
100
AcDbText
 10
51.467039
 20
-9.231245
 30
0.0
 40
0.045
  1
SLOTTED HOLES
 41
0.833333
  7
Style-Arial
 72
     1
 11
51.682592
 21
-9.231245
 31
0.0
100
AcDbText
  0
TEXT
  5
2F8
330
4F6
100
AcDbEntity
  8
TEXT
  6
Continuous
 62
     7
370
    13
100
AcDbText
 10
50.714354
 20
-9.750863
 30
0.0
 40
0.045
  1
SPLICE DETAIL
 41
0.833333
  7
Style-Arial
 72
     1
 11
50.905613
 21
-9.750863
 31
0.0
100
AcDbText
  0
TEXT
  5
2F9
330
4F6
100
AcDbEntity
  8
DEFPOINTS
  6
Continuous
 62
     7
370
    13
100
AcDbText
 10
48.474152
 20
-9.519873
 30
0.0
 40
0.045
  1
MIN
 41
0.833333
  7
Style-Arial
 72
     1
 11
48.520026
 21
-9.519873
 31
0.0
100
AcDbText
  0
TEXT
  5
2FA
330
4F6
100
AcDbEntity
  8
DEFPOINTS
  6
Continuous
 62
     7
370
    13
100
AcDbText
 10
48.506214
 20
-9.459727
 30
0.0
 40
0.045
  1
3"
 41
0.833333
  7
Style-Arial
 72
     1
 11
48.528852
 21
-9.459727
 31
0.0
100
AcDbText
  0
TEXT
  5
300
330
4F6
100
AcDbEntity
  8
REF
  6
Continuous
 62
     7
370
    13
100
AcDbText
 10
51.354619
 20
-7.942774
 30
0.0
 40
0.045
  1
5/8" BOLT
 41
0.833333
  7
Style-Arial
 72
     1
 11
51.475494
 21
-7.942774
 31
0.0
100
AcDbText
  0
TEXT
  5
304
330
4F6
100
AcDbEntity
  8
LEGEND
  6
Continuous
 62
     7
370
    13
100
AcDbText
 10
53.458935
 20
-9.661833
 30
0.0
 40
0.045
  1
SEE AASHTO "GUIDE FOR SELECTING, LOCATING
 41
0.833333
  7
Style-Arial
 72
     1
 11
54.091119
 21
-9.661833
 31
0.0
100
AcDbText
  0
TEXT
  5
305
330
4F6
100
AcDbEntity
  8
LEGEND
  6
Continuous
 62
     7
370
    13
100
AcDbText
 10
53.458666
 20
-9.742792
 30
0.0
 40
0.045
  1
AND DESIGNING TRAFFIC BARRIERS"
 41
0.833333
  7
Style-Arial
 72
     1
 11
53.935477
 21
-9.742792
 31
0.0
100
AcDbText
  0
TEXT
  5
306
330
4F6
100
AcDbEntity
  8
HATCH
  6
Continuous
 62
     7
370
    13
100
AcDbText
 10
53.090112
 20
-9.217104
 30
0.0
 40
0.045
  1
FOR DETAILS OF GUARD RAIL INSTALL METHODS SEE FIGURES 3-32h AND 3-32i
 41
0.833333
  7
Style-Arial
 72
     1
 11
54.1088
 21
-9.217104
 31
0.0
100
AcDbText
  0
TEXT
  5
307
330
4F6
100
AcDbEntity
  8
HATCH
  6
Continuous
 62
     7
370
    13
100
AcDbText
 10
53.090136
 20
-9.073313
 30
0.0
 40
0.045
  1
HOLES IN POSTS AND OFFSET BRACKETS MAY BE È 1/16" OF INDICATED DIMENSIONS
 41
0.833333
  7
Style-Arial
 72
     1
 11
54.192813
 21
-9.073313
 31
0.0
100
AcDbText
  0
TEXT
  5
308
330
4F6
100
AcDbEntity
  8
HATCH
  6
Continuous
 62
     7
370
    13
100
AcDbText
 10
53.09031
 20
-8.930242
 30
0.0
 40
0.045
  1
PLACING OF ALL COMPONENTS DETAILED HEREON.
 41
0.833333
  7
Style-Arial
 72
     1
 11
53.757678
 21
-8.930242
 31
0.0
100
AcDbText
  0
TEXT
  5
309
330
4F6
100
AcDbEntity
  8
HATCH
  6
Continuous
 62
     7
370
    13
100
AcDbText
 10
53.090124
 20
-8.848562
 30
0.0
 40
0.045
  1
RADAIL STEEL BEAM GUARD RAIL COMPLETE, IN PLACE, AND IS TO INCLUDE THE FURNISHING AND
 41
0.833333
  7
Style-Arial
 72
     1
 11
54.368311
 21
-8.848562
 31
0.0
100
AcDbText
  0
TEXT
  5
30A
330
4F6
100
AcDbEntity
  8
HATCH
  6
Continuous
 62
     7
370
    13
100
AcDbText
 10
53.090574
 20
-8.767604
 30
0.0
 40
0.045
  1
BASIS OF PAYMENTS TO BE PER LINEAR FOOT OF STEEL BEAM GUARD RAIL AND PER LINEAR FOOT OF
 41
0.833333
  7
Style-Arial
 72
     1
 11
54.422867
 21
-8.767604
 31
0.0
100
AcDbText
  0
TEXT
  5
30B
330
4F6
100
AcDbEntity
  8
HATCH
  6
Continuous
 62
     7
370
    13
100
AcDbText
 10
53.09064
 20
-8.632885
 30
0.0
 40
0.045
  1
LENGTH OF ALL CURVED RAIL SECTIONS.
 41
0.833333
  7
Style-Arial
 72
     1
 11
53.624072
 21
-8.632885
 31
0.0
100
AcDbText
  0
TEXT
  5
30C
330
4F6
100
AcDbEntity
  8
HATCH
  6
Continuous
 62
     7
370
    13
100
AcDbText
 10
53.090319
 20
-8.551927
 30
0.0
 40
0.045
  1
NORMAL SPACING OF POSTS IS TO BE 6'-3" c-c POST SPACING IS TO BE ADJUSTED TO FIT CHORD
 41
0.833333
  7
Style-Arial
 72
     1
 11
54.346383
 21
-8.551927
 31
0.0
100
AcDbText
  0
TEXT
  5
30D
330
4F6
100
AcDbEntity
  8
HATCH
  6
Continuous
 62
     7
370
    13
100
AcDbText
 10
53.091943
 20
-8.399062
 30
0.0
 40
0.045
  1
SECTIONS.
 41
0.833333
  7
Style-Arial
 72
     1
 11
53.230868
 21
-8.399062
 31
0.0
100
AcDbText
  0
TEXT
  5
30E
330
4F6
100
AcDbEntity
  8
HATCH
  6
Continuous
 62
     7
370
    13
100
AcDbText
 10
53.093155
 20
-8.318115
 30
0.0
 40
0.045
  1
THE PRICE BID PER LINEAR FOOT OF RADAIL GUARD RAIL SHALL INCLUDE THE COST OF ALL CURVED 
 41
0.833333
  7
Style-Arial
 72
     1
 11
54.406284
 21
-8.318115
 31
0.0
100
AcDbText
  0
TEXT
  5
30F
330
4F6
100
AcDbEntity
  8
HATCH
  6
Continuous
 62
     7
370
    13
100
AcDbText
 10
53.089551
 20
-8.003333
 30
0.0
 40
0.045
  1
IF AND AS DIRECTED BY THE ENGINEER.
 41
0.833333
  7
Style-Arial
 72
     1
 11
53.609878
 21
-8.003333
 31
0.0
100
AcDbText
  0
TEXT
  5
310
330
4F6
100
AcDbEntity
  8
HATCH
  6
Continuous
 62
     7
370
    13
100
AcDbText
 10
53.091585
 20
-7.922375
 30
0.0
 40
0.045
  1
GUARD RAIL LOCATIONS SHOWN ON PLAN ARE APPOXIMATE ONLY AND  CAN BE ADJUSTED DURING CONSTRUCTION
 41
0.833333
  7
Style-Arial
 72
     1
 11
54.604847
 21
-7.922375
 31
0.0
100
AcDbText
  0
TEXT
  5
311
330
4F6
100
AcDbEntity
  8
HATCH
  6
Continuous
 62
     7
370
    13
100
AcDbText
 10
53.094396
 20
-7.769521
 30
0.0
 40
0.045
  1
ALL BOLTS NUTS, AND WASHERS ARE TO BE GALVANIZED.
 41
0.833333
  7
Style-Arial
 72
     1
 11
53.847683
 21
-7.769521
 31
0.0
100
AcDbText
  0
TEXT
  5
312
330
4F6
100
AcDbEntity
  8
HATCH
  6
Continuous
 62
     7
370
    13
100
AcDbText
 10
53.090284
 20
-7.634792
 30
0.0
 40
0.045
  1
DESIGNATION M180.
 41
0.833333
  7
Style-Arial
 72
     1
 11
53.348568
 21
-7.634792
 31
0.0
100
AcDbText
  0
TEXT
  5
313
330
4F6
100
AcDbEntity
  8
HATCH
  6
Continuous
 62
     7
370
    13
100
AcDbText
 10
53.09428
 20
-7.553844
 30
0.0
 40
0.045
  1
ACCEPTANCE OF GUARD RAIL PRODUCTS SHALL BE GOVERNED BY THE REQUIREMENT SET FORTH IN AASHTO
 41
0.833333
  7
Style-Arial
 72
     1
 11
54.534314
 21
-7.553844
 31
0.0
100
AcDbText
  0
TEXT
  5
314
330
4F6
100
AcDbEntity
  8
HATCH
  6
Continuous
 62
     7
370
    13
100
AcDbText
 10
53.090247
 20
-7.410052
 30
0.0
 40
0.045
  1
RAIL ELEMENT TO BE 12 GAUGE GALVANIZED, UNLESS OTHERWISE NOTED ON PLANS
 41
0.833333
  7
Style-Arial
 72
     1
 11
54.199655
 21
-7.410052
 31
0.0
100
AcDbText
  0
TEXT
  5
325
330
4F6
100
AcDbEntity
  8
REF
  6
Continuous
 62
     7
370
    13
100
AcDbText
 10
48.932474
 20
-5.723583
 30
0.0
 40
0.045
  1
9-3 GA
 41
0.833333
  7
Style-Arial
 72
     1
 11
49.015492
 21
-5.723583
 31
0.0
100
AcDbText
  0
TEXT
  5
326
330
4F6
100
AcDbEntity
  8
REF
  6
Continuous
 62
     7
370
    13
100
AcDbText
 10
48.934744
 20
-5.783814
 30
0.0
 40
0.045
  1
WIRE STIRRUPS
 41
0.833333
  7
Style-Arial
 72
     1
 11
49.141523
 21
-5.783814
 31
0.0
100
AcDbText
  0
TEXT
  5
327
330
4F6
100
AcDbEntity
  8
REF
  6
Continuous
 62
     7
370
    13
100
AcDbText
 10
48.940132
 20
-5.853134
 30
0.0
 40
0.045
  1
LAPPED 10"
 41
0.833333
  7
Style-Arial
 72
     1
 11
49.088003
 21
-5.853134
 31
0.0
100
AcDbText
  0
TEXT
  5
328
330
4F6
100
AcDbEntity
  8
REF
  6
Continuous
 62
     7
370
    13
100
AcDbText
 10
48.93864
 20
-5.916366
 30
0.0
 40
0.045
  1
SPACING VARIES 5"
 41
0.833333
  7
Style-Arial
 72
     1
 11
49.189864
 21
-5.916366
 31
0.0
100
AcDbText
  0
TEXT
  5
329
330
4F6
100
AcDbEntity
  8
REF
  6
Continuous
 62
     7
370
    13
100
AcDbText
 10
48.940246
 20
-5.984409
 30
0.0
 40
0.045
  1
TO 1'-0"c-c
 41
0.833333
  7
Style-Arial
 72
     1
 11
49.070738
 21
-5.984409
 31
0.0
100
AcDbText
  0
TEXT
  5
32A
330
4F6
100
AcDbEntity
  8
REF
  6
Continuous
 62
     7
370
    13
100
AcDbText
 10
48.940695
 20
-4.998125
 30
0.0
 40
0.045
  1
4 NO 4
 41
0.833333
  7
Style-Arial
 72
     1
 11
49.022398
 21
-4.998125
 31
0.0
100
AcDbText
  0
TEXT
  5
32B
330
4F6
100
AcDbEntity
  8
REF
  6
Continuous
 62
     7
370
    13
100
AcDbText
 10
48.934296
 20
-5.058573
 30
0.0
 40
0.045
  1
DEFORMED
 41
0.833333
  7
Style-Arial
 72
     1
 11
49.082824
 21
-5.058573
 31
0.0
100
AcDbText
  0
TEXT
  5
32C
330
4F6
100
AcDbEntity
  8
REF
  6
Continuous
 62
     7
370
    13
100
AcDbText
 10
48.933445
 20
-5.120314
 30
0.0
 40
0.045
  1
REINFORCED
 41
0.833333
  7
Style-Arial
 72
     1
 11
49.105268
 21
-5.120314
 31
0.0
100
AcDbText
  0
TEXT
  5
32D
330
4F6
100
AcDbEntity
  8
REF
  6
Continuous
 62
     7
370
    13
100
AcDbText
 10
48.934913
 20
-5.182939
 30
0.0
 40
0.045
  1
BARS 4" LESS THAN
 41
0.833333
  7
Style-Arial
 72
     1
 11
49.188138
 21
-5.182939
 31
0.0
100
AcDbText
  0
TEXT
  5
32E
330
4F6
100
AcDbEntity
  8
REF
  6
Continuous
 62
     7
370
    13
100
AcDbText
 10
48.934608
 20
-5.247684
 30
0.0
 40
0.045
  1
HEIGTH OF POST
 41
0.833333
  7
Style-Arial
 72
     1
 11
49.155335
 21
-5.247684
 31
0.0
100
AcDbText
  0
TEXT
  5
32F
330
4F6
100
AcDbEntity
  8
REF
  6
Continuous
 62
     7
370
    13
100
AcDbText
 10
47.366817
 20
-6.131323
 30
0.0
 40
0.045
  1
CHAMFER MAY BE EXTENDED ENTIRE
 41
0.833333
  7
Style-Arial
 72
     1
 11
47.85456
 21
-6.131323
 31
0.0
100
AcDbText
  0
TEXT
  5
330
330
4F6
100
AcDbEntity
  8
REF
  6
Continuous
 62
     7
370
    13
100
AcDbText
 10
47.370447
 20
-6.212281
 30
0.0
 40
0.045
  1
LENGTH OF POST AT THE OPTION OF
 41
0.833333
  7
Style-Arial
 72
     1
 11
47.849601
 21
-6.212281
 31
0.0
100
AcDbText
  0
TEXT
  5
331
330
4F6
100
AcDbEntity
  8
REF
  6
Continuous
 62
     7
370
    13
100
AcDbText
 10
47.37026
 20
-6.29324
 30
0.0
 40
0.045
  1
THE FABRICATOR.
 41
0.833333
  7
Style-Arial
 72
     1
 11
47.603792
 21
-6.29324
 31
0.0
100
AcDbText
  0
TEXT
  5
332
330
4F6
100
AcDbEntity
  8
2-30G
  6
Continuous
 62
     7
370
    13
100
AcDbText
 10
48.49755
 20
-6.860625
 30
0.0
 40
0.045
  1
CONRETE POST
 41
0.833333
  7
Style-Arial
 72
     1
 11
48.703743
 21
-6.860625
 31
0.0
100
AcDbText
  0
TEXT
  5
333
330
4F6
100
AcDbEntity
  8
TEXT
  6
Continuous
 62
     7
370
    13
100
AcDbText
 10
54.747593
 20
-6.862958
 30
0.0
 40
0.045
  1
WOOD POST
 41
0.833333
  7
Style-Arial
 72
     1
 11
54.910083
 21
-6.862958
 31
0.0
100
AcDbText
  0
TEXT
  5
335
330
4F6
100
AcDbEntity
  8
REF
  6
Continuous
 62
     7
370
    13
100
AcDbText
 10
55.176724
 20
-5.023896
 30
0.0
 40
0.045
  1
3/4" HOLE IN
 41
0.833333
  7
Style-Arial
 72
     1
 11
55.332369
 21
-5.023896
 31
0.0
100
AcDbText
  0
TEXT
  5
336
330
4F6
100
AcDbEntity
  8
REF
  6
Continuous
 62
     7
370
    13
100
AcDbText
 10
55.172882
 20
-5.085854
 30
0.0
 40
0.045
  1
1-1/2" DIAMETER 
 41
0.833333
  7
Style-Arial
 72
     1
 11
55.384163
 21
-5.085854
 31
0.0
100
AcDbText
  0
TEXT
  5
337
330
4F6
100
AcDbEntity
  8
REF
  6
Continuous
 62
     7
370
    13
100
AcDbText
 10
55.178151
 20
-5.149539
 30
0.0
 40
0.045
  1
GALVANIZED
 41
0.833333
  7
Style-Arial
 72
     1
 11
55.342728
 21
-5.149539
 31
0.0
100
AcDbText
  0
TEXT
  5
338
330
4F6
100
AcDbEntity
  8
REF
  6
Continuous
 62
     7
370
    13
100
AcDbText
 10
55.184923
 20
-5.216679
 30
0.0
 40
0.045
  1
WASHER
 41
0.833333
  7
Style-Arial
 72
     1
 11
55.299566
 21
-5.216679
 31
0.0
100
AcDbText
  0
TEXT
  5
339
330
4F6
100
AcDbEntity
  8
REF
  6
Continuous
 62
     7
370
    13
100
AcDbText
 10
55.179556
 20
-5.290728
 30
0.0
 40
0.045
  1
(WOOD POST ONLY)
 41
0.833333
  7
Style-Arial
 72
     1
 11
55.437683
 21
-5.290728
 31
0.0
100
AcDbText
  0
TEXT
  5
33A
330
4F6
100
AcDbEntity
  8
REF
  6
Continuous
 62
     7
370
    13
100
AcDbText
 10
54.256647
 20
-5.745021
 30
0.0
 40
0.045
  1
SOUTHERN
 41
0.833333
  7
Style-Arial
 72
     1
 11
54.40153
 21
-5.745021
 31
0.0
100
AcDbText
  0
TEXT
  5
33B
330
4F6
100
AcDbEntity
  8
REF
  6
Continuous
 62
     7
370
    13
100
AcDbText
 10
54.257535
 20
-5.810187
 30
0.0
 40
0.045
  1
FINE GRADE
 41
0.833333
  7
Style-Arial
 72
     1
 11
54.416267
 21
-5.810187
 31
0.0
100
AcDbText
  0
TEXT
  5
33C
330
4F6
100
AcDbEntity
  8
REF
  6
Continuous
 62
     7
370
    13
100
AcDbText
 10
54.257747
 20
-5.883249
 30
0.0
 40
0.045
  1
NO. 1 DENSE 
 41
0.833333
  7
Style-Arial
 72
     1
 11
54.422309
 21
-5.883249
 31
0.0
100
AcDbText
  0
TEXT
  5
33D
330
4F6
100
AcDbEntity
  8
REF
  6
Continuous
 62
     7
370
    13
100
AcDbText
 10
54.258272
 20
-5.950389
 30
0.0
 40
0.045
  1
SP
 41
0.833333
  7
Style-Arial
 72
     1
 11
54.292085
 21
-5.950389
 31
0.0
100
AcDbText
  0
TEXT
  5
356
330
4F6
100
AcDbEntity
  8
DEFPOINTS
  6
Continuous
 62
     7
370
    13
100
AcDbText
 10
49.261124
 20
-4.763772
 30
0.0
 40
0.045
  1
(È1/4")
 50
90.0
 41
0.833333
  7
Style-Arial
 72
     1
 11
49.261124
 21
-4.684098
 31
0.0
100
AcDbText
  0
TEXT
  5
35C
330
4F6
100
AcDbEntity
  8
DEFPOINTS
  6
Continuous
 62
     7
370
    13
100
AcDbText
 10
48.989978
 20
-4.624408
 30
0.0
 40
0.045
  1
3"
 50
90.0
 41
0.833333
  7
Style-Arial
 72
     1
 11
48.989978
 21
-4.601771
 31
0.0
100
AcDbText
  0
TEXT
  5
35D
330
4F6
100
AcDbEntity
  8
DEFPOINTS
  6
Continuous
 62
     7
370
    13
100
AcDbText
 10
48.723093
 20
-6.339593
 30
0.0
 40
0.045
  1
3"
 50
90.0
 41
0.833333
  7
Style-Arial
 72
     1
 11
48.723093
 21
-6.316956
 31
0.0
100
AcDbText
  0
TEXT
  5
366
330
4F6
100
AcDbEntity
  8
DEFPOINTS
  6
Continuous
 62
     7
370
    13
100
AcDbText
 10
48.29674
 20
-5.930012
 30
0.0
 40
0.045
  1
1" CL
 41
0.833333
  7
Style-Arial
 72
     1
 11
48.360436
 21
-5.930012
 31
0.0
100
AcDbText
  0
TEXT
  5
367
330
4F6
100
AcDbEntity
  8
REF
  6
Continuous
 62
     7
370
    13
100
AcDbText
 10
53.679366
 20
-4.522843
 30
0.0
 40
0.045
  1
& WASHER
 41
0.833333
  7
Style-Arial
 72
     1
 11
53.818762
 21
-4.522843
 31
0.0
100
AcDbText
  0
TEXT
  5
368
330
4F6
100
AcDbEntity
  8
DEFPOINTS
  6
Continuous
 62
     7
370
    13
100
AcDbText
 10
55.921386
 20
-5.585538
 30
0.0
 40
0.045
  1
5'-9" MIN
 50
90.0
 41
0.833333
  7
Style-Arial
 72
     1
 11
55.921386
 21
-5.480241
 31
0.0
100
AcDbText
  0
TEXT
  5
36E
330
4F6
100
AcDbEntity
  8
DEFPOINTS
  6
Continuous
 62
     7
370
    13
100
AcDbText
 10
55.318612
 20
-4.746594
 30
0.0
 40
0.045
  1
6-1/2"
 50
90.0
 41
0.833333
  7
Style-Arial
 72
     1
 11
55.318612
 21
-4.678839
 31
0.0
100
AcDbText
  0
TEXT
  5
3A3
330
4F6
100
AcDbEntity
  8
REF
  6
Continuous
 62
     7
370
    13
100
AcDbText
 10
50.687948
 20
-9.536888
 30
0.0
 40
0.045
  1
SPLICE AT POST
 41
0.833333
  7
Style-Arial
 72
     1
 11
50.899986
 21
-9.536888
 31
0.0
100
AcDbText
  0
TEXT
  5
3A4
330
4F6
100
AcDbEntity
  8
REF
  6
Continuous
 62
     7
370
    13
100
AcDbText
 10
50.49932
 20
-9.628804
 30
0.0
 40
0.045
  1
LAP IN DIRECTION OF TRAFFIC
 41
0.833333
  7
Style-Arial
 72
     1
 11
50.894184
 21
-9.628804
 31
0.0
100
AcDbText
  0
TEXT
  5
3B7
330
4F6
100
AcDbEntity
  8
REF
  6
Continuous
 62
     7
370
    13
100
AcDbText
 10
51.458606
 20
-9.06916
 30
0.0
 40
0.045
  1
3/4" x 2 -1/4" SLOT
 41
0.833333
  7
Style-Arial
 72
     1
 11
51.683392
 21
-9.06916
 31
0.0
100
AcDbText
  0
TEXT
  5
3B8
330
4F6
100
AcDbEntity
  8
REF
  6
Continuous
 62
     7
370
    13
100
AcDbText
 10
51.464815
 20
-9.171587
 30
0.0
 40
0.045
  1
29/32" x 1-1/8"
 41
0.833333
  7
Style-Arial
 72
     1
 11
51.635051
 21
-9.171587
 31
0.0
100
AcDbText
  0
TEXT
  5
3BF
330
4F6
100
AcDbEntity
  8
DEFPOINTS
  6
Continuous
 62
     7
370
    13
100
AcDbText
 10
51.167863
 20
-8.636858
 30
0.0
 40
0.045
  1
4-1/4"
 41
0.833333
  7
Style-Arial
 72
     1
 11
51.235617
 21
-8.636858
 31
0.0
100
AcDbText
  0
TEXT
  5
3CA
330
4F6
100
AcDbEntity
  8
DEFPOINTS
  6
Continuous
 62
     7
370
    13
100
AcDbText
 10
50.855359
 20
-8.579224
 30
0.0
 40
0.045
  1
LAP
 41
0.833333
  7
Style-Arial
 72
     1
 11
50.903734
 21
-8.579224
 31
0.0
100
AcDbText
  0
TEXT
  5
3CB
330
4F6
100
AcDbEntity
  8
DEFPOINTS
  6
Continuous
 62
     7
370
    13
100
AcDbText
 10
50.819371
 20
-8.511969
 30
0.0
 40
0.045
  1
12-1/2"
 41
0.833333
  7
Style-Arial
 72
     1
 11
50.901688
 21
-8.511969
 31
0.0
100
AcDbText
  0
TEXT
  5
3D0
330
4F6
100
AcDbEntity
  8
DEFPOINTS
  6
Continuous
 62
     7
370
    13
100
AcDbText
 10
50.593685
 20
-8.74887
 30
0.0
 40
0.045
  1
2"
 41
0.833333
  7
Style-Arial
 72
     1
 11
50.616322
 21
-8.74887
 31
0.0
100
AcDbText
  0
TEXT
  5
3D1
330
4F6
100
AcDbEntity
  8
DEFPOINTS
  6
Continuous
 62
     7
370
    13
100
AcDbText
 10
51.176921
 20
-8.752546
 30
0.0
 40
0.045
  1
2"
 41
0.833333
  7
Style-Arial
 72
     1
 11
51.199558
 21
-8.752546
 31
0.0
100
AcDbText
  0
TEXT
  5
3D2
330
4F6
100
AcDbEntity
  8
DEFPOINTS
  6
Continuous
 62
     7
370
    13
100
AcDbText
 10
50.510033
 20
-8.636858
 30
0.0
 40
0.045
  1
4-1/4"
 41
0.833333
  7
Style-Arial
 72
     1
 11
50.577787
 21
-8.636858
 31
0.0
100
AcDbText
  0
TEXT
  5
3FA
330
4F6
100
AcDbEntity
  8
DEFPOINTS
  6
Continuous
 62
     7
370
    13
100
AcDbText
 10
48.278181
 20
-7.273104
 30
0.0
 40
0.045
  1
3"
 41
0.833333
  7
Style-Arial
 72
     1
 11
48.300818
 21
-7.273104
 31
0.0
100
AcDbText
  0
TEXT
  5
3FB
330
4F6
100
AcDbEntity
  8
DEFPOINTS
  6
Continuous
 62
     7
370
    13
100
AcDbText
 10
48.223021
 20
-7.425885
 30
0.0
 40
0.045
  1
15/16"
 41
0.833333
  7
Style-Arial
 72
     1
 11
48.29662
 21
-7.425885
 31
0.0
100
AcDbText
  0
TEXT
  5
406
330
4F6
100
AcDbEntity
  8
DEFPOINTS
  6
Continuous
 62
     7
370
    13
100
AcDbText
 10
48.906062
 20
-7.685589
 30
0.0
 40
0.045
  1
1-3/4"
 50
90.0
 41
0.833333
  7
Style-Arial
 72
     1
 11
48.906062
 21
-7.617835
 31
0.0
100
AcDbText
  0
TEXT
  5
407
330
4F6
100
AcDbEntity
  8
DEFPOINTS
  6
Continuous
 62
     7
370
    13
100
AcDbText
 10
48.732054
 20
-7.695486
 30
0.0
 40
0.045
  1
11/16"
 50
90.0
 41
0.833333
  7
Style-Arial
 72
     1
 11
48.732054
 21
-7.621886
 31
0.0
100
AcDbText
  0
TEXT
  5
40D
330
4F6
100
AcDbEntity
  8
DEFPOINTS
  6
Continuous
 62
     7
370
    13
100
AcDbText
 10
48.080805
 20
-7.97849
 30
0.0
 40
0.045
  1
1-1/2"
 41
0.833333
  7
Style-Arial
 72
     1
 11
48.148559
 21
-7.97849
 31
0.0
100
AcDbText
  0
TEXT
  5
413
330
4F6
100
AcDbEntity
  8
DEFPOINTS
  6
Continuous
 62
     7
370
    13
100
AcDbText
 10
47.798479
 20
-7.745191
 30
0.0
 40
0.045
  1
7/8"
 50
90.0
 41
0.833333
  7
Style-Arial
 72
     1
 11
47.798479
 21
-7.700717
 31
0.0
100
AcDbText
  0
TEXT
  5
414
330
4F6
100
AcDbEntity
  8
TEXT
  6
Continuous
 62
     7
370
    13
100
AcDbText
 10
48.151889
 20
-8.223187
 30
0.0
 40
0.045
  1
DETAIL OF
 41
0.833333
  7
Style-Arial
 72
     1
 11
48.286069
 21
-8.223187
 31
0.0
100
AcDbText
  0
TEXT
  5
415
330
4F6
100
AcDbEntity
  8
TEXT
  6
Continuous
 62
     7
370
    13
100
AcDbText
 10
48.045755
 20
-8.29634
 30
0.0
 40
0.045
  1
8 GAUGE WASHER
 41
0.833333
  7
Style-Arial
 72
     1
 11
48.284146
 21
-8.29634
 31
0.0
100
AcDbText
  0
TEXT
  5
416
330
4F6
100
AcDbEntity
  8
TEXT
  6
Continuous
 62
     7
370
    13
100
AcDbText
 10
50.77236
 20
-8.135847
 30
0.0
 40
0.045
  1
BOLT DETAIL
 41
0.833333
  7
Style-Arial
 72
     1
 11
50.938852
 21
-8.135847
 31
0.0
100
AcDbText
  0
TEXT
  5
43A
330
4F6
100
AcDbEntity
  8
TEXT
  6
Continuous
 62
     7
370
    13
100
AcDbText
 10
48.155535
 20
-9.679115
 30
0.0
 40
0.045
  1
DETAIL OF
 41
0.833333
  7
Style-Arial
 72
     1
 11
48.289715
 21
-9.679115
 31
0.0
100
AcDbText
  0
TEXT
  5
43B
330
4F6
100
AcDbEntity
  8
TEXT
  6
Continuous
 62
     7
370
    13
100
AcDbText
 10
48.101492
 20
-9.760914
 30
0.0
 40
0.045
  1
RAIL ELEMENT
 41
0.833333
  7
Style-Arial
 72
     1
 11
48.290221
 21
-9.760914
 31
0.0
100
AcDbText
  0
TEXT
  5
43C
330
4F6
100
AcDbEntity
  8
REF
  6
Continuous
 62
     7
370
    13
100
AcDbText
 10
51.408911
 20
-7.61418
 30
0.0
 40
0.045
  1
ELLIPTICAL
 41
0.833333
  7
Style-Arial
 72
     1
 11
51.55358
 21
-7.61418
 31
0.0
100
AcDbText
  0
TEXT
  5
43D
330
4F6
100
AcDbEntity
  8
REF
  6
Continuous
 62
     7
370
    13
100
AcDbText
 10
51.408423
 20
-7.677866
 30
0.0
 40
0.045
  1
SHOULER ON BOLT
 41
0.833333
  7
Style-Arial
 72
     1
 11
51.656832
 21
-7.677866
 31
0.0
100
AcDbText
  0
TEXT
  5
46F
330
4F6
100
AcDbEntity
  8
DEFPOINTS
  6
Continuous
 62
     7
370
    13
100
AcDbText
 10
47.982896
 20
-9.042511
 30
0.0
 40
0.045
  1
1'-1/4"
 50
90.0
 41
0.833333
  7
Style-Arial
 72
     1
 11
47.982896
 21
-8.969755
 31
0.0
100
AcDbText
  0
TEXT
  5
474
330
4F6
100
AcDbEntity
  8
DEFPOINTS
  6
Continuous
 62
     7
370
    13
100
AcDbText
 10
48.17399
 20
-9.356986
 30
0.0
 40
0.045
  1
2-5/16"
 50
90.0
 41
0.833333
  7
Style-Arial
 72
     1
 11
48.17399
 21
-9.274669
 31
0.0
100
AcDbText
  0
TEXT
  5
47C
330
4F6
100
AcDbEntity
  8
DEFPOINTS
  6
Continuous
 62
     7
370
    13
100
AcDbText
 10
48.17399
 20
-8.771564
 30
0.0
 40
0.045
  1
2-5/16"
 50
90.0
 41
0.833333
  7
Style-Arial
 72
     1
 11
48.17399
 21
-8.689247
 31
0.0
100
AcDbText
  0
TEXT
  5
481
330
4F6
100
AcDbEntity
  8
DEFPOINTS
  6
Continuous
 62
     7
370
    13
100
AcDbText
 10
48.136136
 20
-9.118865
 30
0.0
 40
0.045
  1
3-1/4"
 41
0.833333
  7
Style-Arial
 72
     1
 11
48.20389
 21
-9.118865
 31
0.0
100
AcDbText
  0
TEXT
  5
485
330
4F6
100
AcDbEntity
  8
DEFPOINTS
  6
Continuous
 62
     7
370
    13
100
AcDbText
 10
48.136136
 20
-8.878542
 30
0.0
 40
0.045
  1
3-1/4"
 41
0.833333
  7
Style-Arial
 72
     1
 11
48.20389
 21
-8.878542
 31
0.0
100
AcDbText
  0
TEXT
  5
488
330
4F6
100
AcDbEntity
  8
DEFPOINTS
  6
Continuous
 62
     7
370
    13
100
AcDbText
 10
48.709514
 20
-9.003542
 30
0.0
 40
0.045
  1
1-1/8"
 41
0.833333
  7
Style-Arial
 72
     1
 11
48.777268
 21
-9.003542
 31
0.0
100
AcDbText
  0
TEXT
  5
489
330
4F6
100
AcDbEntity
  8
HATCH
  6
Continuous
 62
     7
370
    13
100
AcDbText
 10
53.090006
 20
-8.237146
 30
0.0
 40
0.045
  1
FACE OF GUARD RAIL IS CONSTRUCTED ON A RADIUS OF 75' OR LESS THE BEAM SHALL BE SHOP CURVED.
 41
0.833333
  7
Style-Arial
 72
     1
 11
54.47279
 21
-8.237146
 31
0.0
100
AcDbText
  0
TEXT
  5
48A
330
4F6
100
AcDbEntity
  8
HATCH
  6
Continuous
 62
     7
370
    13
100
AcDbText
 10
53.091538
 20
-8.156187
 30
0.0
 40
0.045
  1
GUARD RAIL INSTALLATIONS HAVING A RADIUS OF 125' OR LESS SHALL BE CONSIDERED RADIAL, WHERE THE
 41
0.833333
  7
Style-Arial
 72
     1
 11
54.508721
 21
-8.156187
 31
0.0
100
AcDbText
  0
TEXT
  5
48B
330
4F6
100
AcDbEntity
  8
LEGEND
  6
Continuous
 62
     7
370
    13
100
AcDbText
 10
53.090211
 20
-9.580875
 30
0.0
 40
0.045
  1
REFERENCE:  FOR MORE INFORMATION ON GUARD RAILS
 41
0.833333
  7
Style-Arial
 72
     1
 11
53.835567
 21
-9.580875
 31
0.0
100
AcDbText
  0
TEXT
  5
4DE
330
4F6
100
AcDbEntity
  8
DIM
  6
Continuous
 62
     7
370
    53
100
AcDbText
 10
53.091466
 20
-7.25632
 30
0.0
 40
0.045
  1
NOTES:
 41
0.833333
  7
Style-Arial
 72
     1
 11
53.186716
 21
-7.25632
 31
0.0
100
AcDbText
  0
LINE
  5
4E0
330
4F6
100
AcDbEntity
  8
DEFPOINTS
  6
Continuous
 62
     7
370
    13
100
AcDbLine
 10
53.083295
 20
-7.265851
 30
0.0
 11
53.295402
 21
-7.265851
 31
0.0
  0
TEXT
  5
4E1
330
4F6
100
AcDbEntity
  8
BORDER
  6
Continuous
 62
     7
370
    13
100
AcDbText
 10
54.412047
 20
-10.104406
 30
0.0
 40
0.09
  1
DATE
 41
0.833333
  7
Style-Arial
 72
     1
 11
54.549013
 21
-10.104406
 31
0.0
100
AcDbText
  0
TEXT
  5
319
330
4F6
100
AcDbEntity
  8
BORDER
  6
Continuous
 62
     7
370
    13
100
AcDbText
 10
55.477553
 20
-10.10599
 30
0.0
 40
0.09
  1
FIGURE
 41
0.833333
  7
Style-Arial
 72
     1
 11
55.672713
 21
-10.10599
 31
0.0
100
AcDbText
  0
TEXT
  5
31B
330
4F6
100
AcDbEntity
  8
BORDER
  6
Continuous
 62
     7
370
    13
100
AcDbText
 10
55.550741
 20
-10.265768
 30
0.0
 40
0.09
  1
2-30f
 41
0.833333
  7
Style-Arial
 72
     1
 11
55.67193
 21
-10.265768
 31
0.0
100
AcDbText
  0
TEXT
  5
31C
330
4F6
100
AcDbEntity
  8
TEXT
  6
Continuous
 62
     7
370
    13
100
AcDbText
 10
48.66493
 20
-10.231599
 30
0.0
 40
0.18
  1
TYPICAL OFFSET WITH BEAM GUARD RAIL
 41
0.833333
  7
Style-Arial
 72
     1
 11
50.833071
 21
-10.231599
 31
0.0
100
AcDbText
  0
ENDSEC
  0
SECTION
  2
OBJECTS
  0
DICTIONARY
  5
4EA
330
0
100
AcDbDictionary
281
     1
  3
ACAD_COLOR
350
509
  3
ACAD_GROUP
350
506
  3
ACAD_LAYOUT
350
4FA
  3
ACAD_MATERIAL
350
508
  3
ACAD_MLINESTYLE
350
4F4
  3
ACAD_PLOTSETTINGS
350
507
  3
ACAD_PLOTSTYLENAME
350
4E9
  3
ACAD_TABLESTYLE
350
51F
  3
AcadDim
350
516
  3
MicroStation
350
50E
  0
DICTIONARY
  5
4E6
330
4E5
100
AcDbDictionary
280
     1
281
     1
  3
ACAD_LAYERFILTERS
360
50D
  3
ACAD_LAYERSTATES
360
4E7
  0
DICTIONARY
  5
51B
330
4F6
100
AcDbDictionary
280
     1
281
     1
  3
ACAD_SORTENTS
360
51C
  0
DICTIONARY
  5
509
102
{ACAD_REACTORS
330
4EA
102
}
330
4EA
100
AcDbDictionary
281
     1
  0
DICTIONARY
  5
506
102
{ACAD_REACTORS
330
4EA
102
}
330
4EA
100
AcDbDictionary
281
     1
  0
DICTIONARY
  5
4FA
102
{ACAD_REACTORS
330
4EA
102
}
330
4EA
100
AcDbDictionary
281
     1
  3
Layout1
350
4FE
  3
Model
350
4F9
  0
DICTIONARY
  5
508
102
{ACAD_REACTORS
330
4EA
102
}
330
4EA
100
AcDbDictionary
281
     1
  0
DICTIONARY
  5
4F4
102
{ACAD_REACTORS
330
4EA
102
}
330
4EA
100
AcDbDictionary
281
     1
  3
Standard
350
4F3
  0
DICTIONARY
  5
507
102
{ACAD_REACTORS
330
4EA
102
}
330
4EA
100
AcDbDictionary
281
     1
  0
ACDBDICTIONARYWDFLT
  5
4E9
102
{ACAD_REACTORS
330
4EA
102
}
330
4EA
100
AcDbDictionary
281
     1
  3
Normal
350
4E8
100
AcDbDictionaryWithDefault
340
4E8
  0
DICTIONARY
  5
51F
102
{ACAD_REACTORS
330
4EA
102
}
330
4EA
100
AcDbDictionary
281
     1
  0
XRECORD
  5
516
102
{ACAD_REACTORS
330
4EA
102
}
330
4EA
100
AcDbXrecord
280
     1
 90
   990106
  3
 
 60
     0
 61
     0
 62
     1
 63
     1
 64
     0
 65
     0
 66
     0
 67
     3
 68
     1
 69
     1
 70
     0
 71
     0
 72
     0
 40
0.0
170
     0
  0
DICTIONARY
  5
50E
102
{ACAD_REACTORS
330
4EA
102
}
330
4EA
100
AcDbDictionary
281
     1
  3
ApplicationElement 1238
350
4D6
  3
ApplicationElement 1250
350
4E2
  3
ModelApplicationElement 0 1237
350
4D5
  0
DICTIONARY
  5
50D
102
{ACAD_REACTORS
330
4E6
102
}
330
4E6
100
AcDbDictionary
281
     1
  0
DICTIONARY
  5
4E7
102
{ACAD_REACTORS
330
4E6
102
}
330
4E6
100
AcDbDictionary
281
     1
  0
SORTENTSTABLE
  5
51C
102
{ACAD_REACTORS
330
51B
102
}
330
51B
100
AcDbSortentsTable
330
4F6
331
D4
  5
3D5
331
D5
  5
D4
331
D6
  5
D5
331
D7
  5
D6
331
D8
  5
3D6
331
D9
  5
3D7
331
DA
  5
3D8
331
DB
  5
3D9
331
DC
  5
3DA
331
DD
  5
3DB
331
DE
  5
D7
331
DF
  5
D8
331
E0
  5
D9
331
E1
  5
3DC
331
E2
  5
3DD
331
E3
  5
3DE
331
E4
  5
3DF
331
E5
  5
3F0
331
E6
  5
3F1
331
E7
  5
3F2
331
E8
  5
3F3
331
E9
  5
3F4
331
EA
  5
3F5
331
EB
  5
3F6
331
EC
  5
3F7
331
ED
  5
3F8
331
EE
  5
3F9
331
EF
  5
3FA
331
F0
  5
3FB
331
F1
  5
3FC
331
F2
  5
3FD
331
F3
  5
3FE
331
F4
  5
3FF
331
F5
  5
400
331
F6
  5
401
331
F7
  5
402
331
F8
  5
403
331
F9
  5
404
331
FA
  5
405
331
FB
  5
406
331
FC
  5
407
331
FD
  5
408
331
FE
  5
409
331
FF
  5
40A
331
100
  5
40B
331
101
  5
40C
331
102
  5
DA
331
103
  5
DB
331
104
  5
DC
331
105
  5
DD
331
106
  5
DE
331
107
  5
DF
331
108
  5
E0
331
109
  5
E1
331
10A
  5
E2
331
10B
  5
E3
331
10C
  5
E4
331
10D
  5
E5
331
10E
  5
E6
331
10F
  5
E7
331
110
  5
E8
331
111
  5
E9
331
112
  5
40D
331
113
  5
EA
331
114
  5
EB
331
115
  5
EC
331
116
  5
ED
331
117
  5
EE
331
118
  5
EF
331
119
  5
40E
331
11A
  5
F0
331
11B
  5
40F
331
11C
  5
F1
331
11D
  5
F2
331
11E
  5
F3
331
11F
  5
410
331
120
  5
411
331
121
  5
412
331
122
  5
F4
331
123
  5
F5
331
124
  5
F6
331
125
  5
F7
331
126
  5
F8
331
127
  5
F9
331
128
  5
FA
331
129
  5
413
331
12A
  5
FB
331
12B
  5
FC
331
12C
  5
FD
331
12D
  5
FE
331
12E
  5
FF
331
12F
  5
100
331
130
  5
101
331
131
  5
102
331
132
  5
414
331
133
  5
103
331
134
  5
104
331
135
  5
105
331
136
  5
106
331
137
  5
107
331
138
  5
108
331
139
  5
109
331
13A
  5
10A
331
13B
  5
10B
331
13C
  5
10C
331
13D
  5
10D
331
13E
  5
10E
331
13F
  5
10F
331
140
  5
110
331
141
  5
111
331
142
  5
112
331
143
  5
113
331
144
  5
415
331
145
  5
114
331
146
  5
115
331
147
  5
116
331
148
  5
416
331
149
  5
117
331
14A
  5
118
331
14B
  5
119
331
14C
  5
11A
331
14D
  5
11B
331
14E
  5
417
331
14F
  5
11C
331
150
  5
11D
331
151
  5
11E
331
152
  5
11F
331
153
  5
120
331
154
  5
121
331
155
  5
122
331
156
  5
123
331
157
  5
124
331
158
  5
125
331
159
  5
126
331
15A
  5
127
331
15B
  5
128
331
15C
  5
129
331
15D
  5
12A
331
15E
  5
12B
331
15F
  5
12C
331
160
  5
12D
331
161
  5
12E
331
162
  5
12F
331
163
  5
130
331
164
  5
131
331
165
  5
132
331
166
  5
133
331
167
  5
134
331
168
  5
135
331
169
  5
136
331
16A
  5
137
331
16B
  5
138
331
16C
  5
139
331
16D
  5
13A
331
16E
  5
13B
331
16F
  5
13C
331
170
  5
13D
331
171
  5
13E
331
172
  5
13F
331
173
  5
140
331
174
  5
141
331
175
  5
142
331
176
  5
143
331
177
  5
144
331
178
  5
145
331
179
  5
146
331
17A
  5
147
331
17B
  5
148
331
17C
  5
149
331
17D
  5
14A
331
17E
  5
14B
331
17F
  5
14C
331
180
  5
14D
331
181
  5
14E
331
182
  5
14F
331
183
  5
150
331
184
  5
151
331
185
  5
152
331
186
  5
153
331
187
  5
154
331
188
  5
155
331
189
  5
156
331
18A
  5
157
331
18B
  5
158
331
18C
  5
159
331
18D
  5
418
331
18E
  5
15A
331
18F
  5
15B
331
190
  5
15C
331
191
  5
15D
331
192
  5
15E
331
193
  5
15F
331
194
  5
160
331
195
  5
161
331
196
  5
162
331
197
  5
163
331
198
  5
164
331
199
  5
165
331
19A
  5
166
331
19B
  5
167
331
19C
  5
168
331
19D
  5
169
331
19E
  5
16A
331
19F
  5
16B
331
1A0
  5
16C
331
1A1
  5
16D
331
1A2
  5
16E
331
1A3
  5
16F
331
1A4
  5
170
331
1A5
  5
171
331
1A6
  5
172
331
1A7
  5
173
331
1A8
  5
174
331
1A9
  5
175
331
1AA
  5
176
331
1AB
  5
177
331
1AC
  5
178
331
1AD
  5
179
331
1AE
  5
17A
331
1AF
  5
17B
331
1B0
  5
17C
331
1B1
  5
17D
331
1B2
  5
17E
331
1B3
  5
17F
331
1B4
  5
180
331
1B5
  5
181
331
1B6
  5
182
331
1B7
  5
183
331
1B8
  5
184
331
1B9
  5
185
331
1BA
  5
186
331
1BB
  5
187
331
1BC
  5
188
331
1BD
  5
189
331
1BE
  5
18A
331
1BF
  5
18B
331
1C0
  5
18C
331
1C1
  5
18D
331
1C2
  5
18E
331
1C3
  5
18F
331
1C4
  5
190
331
1C5
  5
191
331
1C6
  5
192
331
1C7
  5
193
331
1C8
  5
194
331
1C9
  5
195
331
1CA
  5
196
331
1CB
  5
197
331
1CC
  5
198
331
1CD
  5
199
331
1CE
  5
19A
331
1CF
  5
19B
331
1D0
  5
19C
331
1D1
  5
19D
331
1D2
  5
19E
331
1D3
  5
19F
331
1D4
  5
1A0
331
1D5
  5
1A1
331
1D6
  5
1A2
331
1D7
  5
1A3
331
1D8
  5
1A4
331
1D9
  5
1A5
331
1DA
  5
1A6
331
1DB
  5
419
331
1DC
  5
1A7
331
1E0
  5
1A8
331
1E1
  5
1A9
331
1E2
  5
1AA
331
1E3
  5
1AB
331
1E4
  5
1AC
331
1E5
  5
1AD
331
1E6
  5
1AE
331
1E7
  5
1AF
331
1E8
  5
1B0
331
1E9
  5
1B1
331
1EA
  5
1B2
331
1EB
  5
1B3
331
1EC
  5
1B4
331
1ED
  5
1B5
331
1EE
  5
1B6
331
1EF
  5
1B7
331
1F0
  5
1B8
331
1F1
  5
1B9
331
1F2
  5
1BA
331
1F3
  5
1BB
331
1F4
  5
1BC
331
1F5
  5
1BD
331
1F6
  5
1BE
331
1F7
  5
1BF
331
1F8
  5
1C0
331
1F9
  5
1C1
331
1FA
  5
1C2
331
1FB
  5
1C3
331
1FC
  5
1C4
331
1FD
  5
1C5
331
1FE
  5
41A
331
1FF
  5
41B
331
200
  5
1C6
331
201
  5
1C7
331
202
  5
1C8
331
203
  5
1C9
331
204
  5
1CA
331
205
  5
1CB
331
206
  5
1CC
331
207
  5
41C
331
208
  5
1CD
331
209
  5
1CE
331
20A
  5
1CF
331
20B
  5
1D0
331
20C
  5
1D1
331
20D
  5
41D
331
20E
  5
1D2
331
20F
  5
1D3
331
210
  5
1D4
331
211
  5
1D5
331
212
  5
41E
331
213
  5
1D6
331
214
  5
1D7
331
215
  5
1D8
331
216
  5
1D9
331
217
  5
41F
331
218
  5
1DA
331
219
  5
1DB
331
21A
  5
1DC
331
21B
  5
1E0
331
21C
  5
1E1
331
21D
  5
1E2
331
21E
  5
1E3
331
21F
  5
1E4
331
220
  5
1E5
331
221
  5
1E6
331
222
  5
1E7
331
223
  5
1E8
331
224
  5
1E9
331
225
  5
1EA
331
226
  5
1EB
331
227
  5
1EC
331
228
  5
1ED
331
229
  5
1EE
331
22A
  5
420
331
22B
  5
1EF
331
22C
  5
1F0
331
22D
  5
1F1
331
22E
  5
1F2
331
230
  5
1F3
331
231
  5
1F4
331
232
  5
1F5
331
233
  5
1F6
331
234
  5
1F7
331
235
  5
1F8
331
236
  5
1F9
331
237
  5
1FA
331
238
  5
1FB
331
239
  5
1FC
331
23A
  5
1FD
331
23B
  5
1FE
331
23C
  5
1FF
331
23D
  5
200
331
23E
  5
201
331
23F
  5
202
331
240
  5
203
331
241
  5
204
331
242
  5
205
331
243
  5
206
331
244
  5
207
331
245
  5
208
331
246
  5
209
331
247
  5
20A
331
248
  5
421
331
249
  5
422
331
24A
  5
423
331
24B
  5
20B
331
24C
  5
20C
331
24D
  5
20D
331
24E
  5
20E
331
24F
  5
20F
331
250
  5
210
331
251
  5
211
331
252
  5
212
331
253
  5
213
331
254
  5
214
331
258
  5
215
331
259
  5
216
331
25A
  5
217
331
25B
  5
218
331
25C
  5
219
331
25D
  5
21A
331
25E
  5
21B
331
25F
  5
21C
331
260
  5
21D
331
261
  5
21E
331
262
  5
21F
331
263
  5
220
331
264
  5
221
331
265
  5
222
331
266
  5
223
331
267
  5
224
331
268
  5
225
331
269
  5
226
331
26A
  5
227
331
26B
  5
228
331
26C
  5
229
331
26D
  5
22A
331
26E
  5
22B
331
26F
  5
22C
331
270
  5
22D
331
271
  5
22E
331
272
  5
230
331
273
  5
231
331
274
  5
232
331
275
  5
233
331
276
  5
234
331
277
  5
235
331
278
  5
236
331
279
  5
237
331
27A
  5
238
331
27B
  5
239
331
27C
  5
23A
331
27D
  5
23B
331
27E
  5
23C
331
27F
  5
23D
331
280
  5
424
331
281
  5
425
331
282
  5
23E
331
283
  5
23F
331
284
  5
240
331
285
  5
241
331
286
  5
242
331
287
  5
243
331
288
  5
244
331
289
  5
426
331
28A
  5
245
331
28B
  5
246
331
28C
  5
247
331
28D
  5
248
331
28E
  5
249
331
28F
  5
427
331
290
  5
24A
331
291
  5
24B
331
292
  5
24C
331
293
  5
24D
331
294
  5
24E
331
295
  5
428
331
296
  5
24F
331
297
  5
250
331
298
  5
251
331
299
  5
252
331
29A
  5
429
331
29B
  5
253
331
29C
  5
254
331
29D
  5
258
331
29E
  5
259
331
29F
  5
25A
331
2A0
  5
25B
331
2A1
  5
25C
331
2A2
  5
25D
331
2A3
  5
25E
331
2A4
  5
25F
331
2A5
  5
260
331
2A6
  5
261
331
2A7
  5
262
331
2A8
  5
263
331
2A9
  5
42A
331
2AA
  5
264
331
2AB
  5
265
331
2AC
  5
266
331
2AD
  5
267
331
2AE
  5
42B
331
2AF
  5
268
331
2B0
  5
269
331
2B1
  5
26A
331
2B2
  5
26B
331
2B3
  5
26C
331
2B4
  5
42C
331
2B5
  5
26D
331
2B6
  5
26E
331
2B7
  5
26F
331
2B8
  5
270
331
2B9
  5
271
331
2BA
  5
42D
331
2BB
  5
272
331
2BC
  5
273
331
2BD
  5
274
331
2BE
  5
275
331
2BF
  5
276
331
2C0
  5
277
331
2C1
  5
278
331
2C2
  5
42E
331
2C3
  5
42F
331
2C4
  5
279
331
2C5
  5
27A
331
2C6
  5
27B
331
2C7
  5
27C
331
2C8
  5
27D
331
2C9
  5
27E
331
2CA
  5
27F
331
2CB
  5
280
331
2CC
  5
281
331
2CD
  5
282
331
2CE
  5
283
331
2CF
  5
284
331
2D0
  5
285
331
2D1
  5
286
331
2D2
  5
287
331
2D3
  5
288
331
2D4
  5
289
331
2D5
  5
28A
331
2D6
  5
28B
331
2D7
  5
28C
331
2D8
  5
28D
331
2D9
  5
28E
331
2DA
  5
28F
331
2DB
  5
290
331
2DD
  5
291
331
2DE
  5
292
331
2DF
  5
293
331
2E1
  5
294
331
2E2
  5
295
331
2E3
  5
296
331
2E4
  5
297
331
2E5
  5
298
331
2E6
  5
299
331
2E7
  5
29A
331
2E8
  5
29B
331
2E9
  5
29C
331
2EA
  5
29D
331
2EB
  5
29E
331
2EC
  5
430
331
2ED
  5
29F
331
2EE
  5
431
331
2EF
  5
2A0
331
2F0
  5
2A1
331
2F1
  5
432
331
2F2
  5
433
331
2F3
  5
2A2
331
2F4
  5
2A3
331
2F5
  5
2A4
331
2F6
  5
2A5
331
2F7
  5
434
331
2F8
  5
435
331
2F9
  5
436
331
2FA
  5
437
331
2FB
  5
2A6
331
2FC
  5
2A7
331
2FD
  5
2A8
331
2FE
  5
2A9
331
2FF
  5
2AA
331
300
  5
438
331
301
  5
2AB
331
302
  5
2AC
331
303
  5
2AD
331
304
  5
439
331
305
  5
43A
331
306
  5
43B
331
307
  5
43C
331
308
  5
43D
331
309
  5
43E
331
30A
  5
43F
331
30B
  5
440
331
30C
  5
441
331
30D
  5
442
331
30E
  5
443
331
30F
  5
444
331
310
  5
445
331
311
  5
446
331
312
  5
447
331
313
  5
448
331
314
  5
449
331
315
  5
2AE
331
316
  5
2AF
331
317
  5
2B0
331
318
  5
2B1
331
319
  5
4DE
331
31B
  5
4E0
331
31C
  5
4E1
331
31D
  5
2B2
331
31E
  5
2B3
331
31F
  5
2B4
331
320
  5
2B5
331
321
  5
2B6
331
322
  5
2B7
331
323
  5
2B8
331
324
  5
2B9
331
325
  5
44A
331
326
  5
44B
331
327
  5
44C
331
328
  5
44D
331
329
  5
44E
331
32A
  5
44F
331
32B
  5
450
331
32C
  5
451
331
32D
  5
452
331
32E
  5
453
331
32F
  5
454
331
330
  5
455
331
331
  5
456
331
332
  5
457
331
333
  5
458
331
334
  5
2BA
331
335
  5
459
331
336
  5
45A
331
337
  5
45B
331
338
  5
45C
331
339
  5
45D
331
33A
  5
45E
331
33B
  5
45F
331
33C
  5
460
331
33D
  5
461
331
33E
  5
2BB
331
33F
  5
2BC
331
340
  5
2BD
331
341
  5
2BE
331
343
  5
2BF
331
344
  5
2C0
331
345
  5
2C1
331
346
  5
2C2
331
347
  5
2C3
331
348
  5
2C4
331
349
  5
2C5
331
34D
  5
2C6
331
34E
  5
2C7
331
34F
  5
2C8
331
350
  5
2C9
331
351
  5
2CA
331
352
  5
2CB
331
353
  5
2CC
331
354
  5
2CD
331
355
  5
2CE
331
356
  5
462
331
357
  5
2CF
331
358
  5
2D0
331
359
  5
2D1
331
35A
  5
2D2
331
35B
  5
2D3
331
35C
  5
463
331
35D
  5
464
331
35E
  5
2D4
331
35F
  5
2D5
331
360
  5
2D6
331
361
  5
2D7
331
362
  5
2D8
331
363
  5
2D9
331
364
  5
2DA
331
365
  5
2DB
331
366
  5
465
331
367
  5
466
331
368
  5
467
331
369
  5
2DD
331
36A
  5
2DE
331
36B
  5
2DF
331
36C
  5
2E1
331
36D
  5
2E2
331
36E
  5
468
331
36F
  5
2E3
331
370
  5
2E4
331
371
  5
2E5
331
372
  5
2E6
331
373
  5
2E7
331
374
  5
2E8
331
375
  5
2E9
331
376
  5
2EA
331
377
  5
2EB
331
378
  5
2EC
331
379
  5
2ED
331
37A
  5
2EE
331
37B
  5
2EF
331
37C
  5
2F0
331
37D
  5
2F1
331
37E
  5
2F2
331
37F
  5
2F3
331
380
  5
2F4
331
381
  5
2F5
331
382
  5
2F6
331
393
  5
2F7
331
395
  5
2F8
331
397
  5
2F9
331
398
  5
2FA
331
399
  5
2FB
331
39A
  5
2FC
331
39B
  5
2FD
331
39C
  5
2FE
331
39D
  5
2FF
331
39E
  5
300
331
39F
  5
301
331
3A0
  5
302
331
3A1
  5
303
331
3A2
  5
304
331
3A3
  5
469
331
3A4
  5
46A
331
3A5
  5
305
331
3A6
  5
306
331
3A7
  5
307
331
3A8
  5
308
331
3A9
  5
309
331
3AA
  5
30A
331
3AB
  5
30B
331
3AC
  5
30C
331
3AD
  5
30D
331
3AE
  5
30E
331
3AF
  5
30F
331
3B0
  5
310
331
3B1
  5
311
331
3B2
  5
312
331
3B3
  5
313
331
3B4
  5
314
331
3B5
  5
315
331
3B6
  5
316
331
3B7
  5
46B
331
3B8
  5
46C
331
3B9
  5
317
331
3BA
  5
318
331
3BB
  5
319
331
3BC
  5
31B
331
3BD
  5
31C
331
3BE
  5
31D
331
3BF
  5
46D
331
3C0
  5
31E
331
3C1
  5
31F
331
3C2
  5
320
331
3C3
  5
321
331
3C4
  5
322
331
3C5
  5
323
331
3C6
  5
324
331
3C7
  5
325
331
3C8
  5
326
331
3C9
  5
327
331
3CA
  5
46E
331
3CB
  5
46F
331
3CC
  5
328
331
3CD
  5
329
331
3CE
  5
32A
331
3CF
  5
32B
331
3D0
  5
470
331
3D1
  5
471
331
3D2
  5
472
331
3D3
  5
32C
331
3D4
  5
32D
331
3D5
  5
32E
331
3D6
  5
32F
331
3D7
  5
330
331
3D8
  5
331
331
3D9
  5
332
331
3DA
  5
333
331
3DB
  5
334
331
3DC
  5
335
331
3DD
  5
336
331
3DE
  5
337
331
3DF
  5
338
331
3F0
  5
339
331
3F1
  5
33A
331
3F2
  5
33B
331
3F3
  5
33C
331
3F4
  5
33D
331
3F5
  5
33E
331
3F6
  5
33F
331
3F7
  5
340
331
3F8
  5
341
331
3F9
  5
343
331
3FA
  5
473
331
3FB
  5
474
331
3FC
  5
344
331
3FD
  5
345
331
3FE
  5
346
331
3FF
  5
347
331
400
  5
348
331
401
  5
349
331
402
  5
34D
331
403
  5
34E
331
404
  5
34F
331
405
  5
350
331
406
  5
475
331
407
  5
476
331
408
  5
351
331
409
  5
352
331
40A
  5
353
331
40B
  5
354
331
40C
  5
355
331
40D
  5
477
331
40E
  5
356
331
40F
  5
357
331
410
  5
358
331
411
  5
359
331
412
  5
35A
331
413
  5
478
331
414
  5
479
331
415
  5
47A
331
416
  5
47B
331
417
  5
35B
331
418
  5
35C
331
419
  5
35D
331
41A
  5
35E
331
41B
  5
35F
331
41C
  5
360
331
41D
  5
361
331
41E
  5
362
331
41F
  5
363
331
420
  5
364
331
421
  5
365
331
422
  5
366
331
423
  5
367
331
424
  5
368
331
425
  5
369
331
426
  5
36A
331
427
  5
36B
331
428
  5
36C
331
429
  5
36D
331
42A
  5
36E
331
42B
  5
36F
331
42C
  5
370
331
42D
  5
371
331
42E
  5
372
331
42F
  5
373
331
430
  5
374
331
431
  5
375
331
432
  5
376
331
433
  5
377
331
434
  5
378
331
435
  5
379
331
436
  5
37A
331
437
  5
37B
331
438
  5
37C
331
439
  5
37D
331
43A
  5
47C
331
43B
  5
47D
331
43C
  5
47E
331
43D
  5
47F
331
43E
  5
37E
331
43F
  5
37F
331
440
  5
380
331
441
  5
381
331
442
  5
382
331
443
  5
393
331
444
  5
395
331
445
  5
397
331
446
  5
398
331
447
  5
399
331
448
  5
39A
331
449
  5
39B
331
44A
  5
39C
331
44B
  5
39D
331
44C
  5
39E
331
44D
  5
39F
331
44E
  5
3A0
331
44F
  5
3A1
331
450
  5
3A2
331
451
  5
3A3
331
452
  5
3A4
331
453
  5
3A5
331
454
  5
3A6
331
455
  5
3A7
331
456
  5
3A8
331
457
  5
3A9
331
458
  5
3AA
331
459
  5
3AB
331
45A
  5
3AC
331
45B
  5
3AD
331
45C
  5
3AE
331
45D
  5
3AF
331
45E
  5
3B0
331
45F
  5
3B1
331
460
  5
3B2
331
461
  5
3B3
331
462
  5
3B4
331
463
  5
3B5
331
464
  5
3B6
331
465
  5
3B7
331
466
  5
3B8
331
467
  5
3B9
331
468
  5
3BA
331
469
  5
3BB
331
46A
  5
3BC
331
46B
  5
3BD
331
46C
  5
3BE
331
46D
  5
3BF
331
46E
  5
3C0
331
46F
  5
480
331
470
  5
3C1
331
471
  5
3C2
331
472
  5
3C3
331
473
  5
3C4
331
474
  5
481
331
475
  5
3C5
331
476
  5
3C6
331
477
  5
3C7
331
478
  5
3C8
331
479
  5
3C9
331
47A
  5
3CA
331
47B
  5
3CB
331
47C
  5
482
331
47D
  5
3CC
331
47E
  5
3CD
331
47F
  5
3CE
331
480
  5
3CF
331
481
  5
483
331
482
  5
3D0
331
483
  5
3D1
331
484
  5
3D2
331
485
  5
484
331
486
  5
3D3
331
487
  5
3D4
331
488
  5
485
331
489
  5
486
331
48A
  5
487
331
48B
  5
488
331
4DE
  5
489
331
4E0
  5
48A
331
4E1
  5
48B
  0
LAYOUT
  5
4FE
102
{ACAD_REACTORS
330
4FA
330
4FA
102
}
102
{ACAD_XDICTIONARY
360
4FF
102
}
330
4FA
100
AcDbPlotSettings
  1

  2
none_device
  4
Letter_(8.50_x_11.00_Inches)
  6

 40
6.35
 41
6.35
 42
6.350006
 43
6.350006
 44
215.899994
 45
279.399994
 46
0.0
 47
0.0
 48
0.0
 49
0.0
140
0.0
141
0.0
142
1.0
143
1.0
 70
   688
 72
     0
 73
     1
 74
     5
  7

 75
    16
 76
     0
 77
     2
 78
   300
147
1.0
148
0.0
149
0.0
100
AcDbLayout
  1
Layout1
 70
     1
 71
     1
 10
-0.25
 20
-0.25
 11
10.75
 21
8.25
 12
0.0
 22
0.0
 32
0.0
 14
1.049744
 24
0.799667
 34
-0.001526
 15
9.450623
 25
7.200577
 35
0.0
146
0.0
 13
0.0
 23
0.0
 33
0.0
 16
1.0
 26
0.0
 36
0.0
 17
0.0
 27
1.0
 37
0.0
 76
     0
330
4FB
1001
ACAD_PSEXT
1000
None
1000
None
1000
Not applicable
1000
The layout will not be plotted unless a new plotter configuration name is selected.
1070
     0
  0
LAYOUT
  5
4F9
102
{ACAD_REACTORS
330
4FA
330
4FA
102
}
330
4FA
100
AcDbPlotSettings
  1

  2
none_device
  4
ANSI_A_(8.50_x_11.00_Inches)
  6

 40
6.35
 41
19.049999
 42
6.350006
 43
19.049988
 44
215.899994
 45
279.399994
 46
0.0
 47
0.0
 48
0.0
 49
0.0
140
0.0
141
0.0
142
1.0
143
2.584895
 70
 11952
 72
     0
 73
     1
 74
     0
  7

 75
     0
 76
     0
 77
     2
 78
   300
147
0.386863
148
0.0
149
0.0
100
AcDbLayout
  1
Model
 70
     1
 71
     0
 10
0.0
 20
0.0
 11
12.0
 21
9.0
 12
0.0
 22
0.0
 32
0.0
 14
0.0
 24
0.0
 34
0.0
 15
0.0
 25
0.0
 35
0.0
146
0.0
 13
0.0
 23
0.0
 33
0.0
 16
1.0
 26
0.0
 36
0.0
 17
0.0
 27
1.0
 37
0.0
 76
     0
330
4F6
331
49
  0
MLINESTYLE
  5
4F3
102
{ACAD_REACTORS
330
4F4
102
}
330
4F4
100
AcDbMlineStyle
  2
STANDARD
 70
     0
  3

 62
   256
 51
90.0
 52
90.0
 71
     2
 49
0.5
 62
   256
  6
BYLAYER
 49
-0.5
 62
   256
  6
BYLAYER
  0
ACDBPLACEHOLDER
  5
4E8
102
{ACAD_REACTORS
330
4E9
102
}
330
4E9
  0
XRECORD
  5
4D6
102
{ACAD_REACTORS
330
50E
102
}
330
50E
100
AcDbXrecord
280
     1
310
3E4F020000004D6F64656C6572000000000000000000000000000000000000000000000000000000000000000000000000000000000000000000000000000000000000000000000000000000000000000000000000000000000000000000000000000000000000000000000000000000000000000000000000000000000000
310
00000000000000000000000000000000000000000000000000000000000000000000000000000000000000000000000000000000000000000000000000000000000000000000000000000000000000000000000000000000000000000000000000000000000000000000000000000000000000000000000000000000000000
310
00
310
00000000000000000000000000000000000000000000000000000000000000000000000000000000000000000000000000000000000000000000000000000000000000000000000000000000000000000000000000000000000000000000000000000000000000000000000000000000000000000000000000000000000000
310
00000000000000000000000000000000000000000000000000000000000000000000000000000000000000000000000000000000000000000000000000000000000000000000000000000000000000000000000000000000000000000000000000000000000000000000000000000000000000000000000000000000000000
310
00
310
00000000000000000000000000000000000000000000000000000000000000000000000000000000000000000000000000000000000000000000000000000000000000000000000000000000000000000000000000000000000000000000000000000000000000000000000000000000000000000000000000000000000000
310
00000000000000000000000000000000000000000000000000000000000000000000000000000000000000000000000000000000000000000000000000000000000000000000000000000000000000000000000000000000000000000000000000000000000000000000000000000000000000000000000000000000000000
310
00
310
00000000000000000000000000000000000000000000000000000000000000000000000000000000000000000000000000000000000000000000000000000000000000000000000000000000000000000000000000000000000000000000000000000000000000000000000000000000000000000000000000000000000000
310
00000000000000000000000000000000000000000000000000000000000000000000000000000000000000000000000000000000000000000000000000000000000000000000000000000000000000000000000000000000000000000000000000000000000000000000000000000000000000000000000000000000000000
310
00
310
00000000000000000000000000000000000000000000000000000000000000000000000000000000000000000000000000000000000000000000000000000000000000000000000000000000000000000000000000000000000000000000000000000000000000000000000000000000000000000000000000000000000000
310
00000000000000000000000000000000000000000000000000000000000000000000000000000000000000000000000000000000000000000000000000000000000000000000000000000000000000000000000000000000000000000000000000000000000000000000000000000000000000000000000000000000000000
310
00
310
00000000000000000000000000000000000000000000000000000000000000000000000000000000000000000000000000000000000000000000000000000000000000000000000000000000000000000000000000000000000000000000000000000000000000000000000000000000000000000000000000000000000000
310
00000000000000000000000000000000000000000000000000000000000000000000000000000000000000000000000000000000000000000000000000000000000000000000000000000000000000000000000000000000000000000000000000000000000000000000000000000000000000000000000000000000000000
310
00
310
00000000000000000000000000000000000000000000000000000000000000000000000000000000000000000000000000000000000000000000000000000000000000000000000000000000000000000000000000000000000000000000000000000000000000000000000000000000000000000000000000000000000000
310
00000000000000000000000000000000000000000000000000000000000000000000000000000000000000000000000000000000000000000000000000000000000000000000000000000000000000000000000000000000000000000000000000000000000000000000000000000000000000000000000000000000000000
310
00
310
00000000000000000000000000000000000000000000000000000000000000000000000000000000000000000000000000000000000000000000000000000000000000000000000000000000000000000000000000000000000000000000000000000000000000000000000000000000000000000000000000000000000000
310
00000000000000000000000000000000000000000000000000000000000000000000000000000000000000000000000000000000000000000000000000000000000000000000000000000000000000000000000000000000000000000000000000000000000000000000000000000000000000000000000000000000000000
310
00
310
00000000000000000000000000000000000000000000000000000000000000000000000000000000000000000000000000000000000000000000000000000000000000000000000000000000000000000000000000000000000000000000000000000000000000000000000000000000000000000000000000000000000000
310
00000000000000000000000000000000000000000000000000000000000000000000000000000000000000000000000000000000000000000000000000000000000000000000000000000000000000000000000000000000000000000000000000000000000000000000000000000000000000000000000000000000000000
310
00
310
00000000000000000000000000000000000000000000000000000000000000000000000000000000000000000000000000000000000000000000000000000000000000000000000000000000000000000000000000000000000000000000000000000000000000000000000000000000000000000000000000000000000000
310
00000000000000000000000000000000000000000000000000000000000000000000000000000000000000000000000000000000000000000000000000000000000000000000000000000000000000000000000000000000000000000000000000000000000000000000000000000000000000000000000000000000000000
310
00
310
00000000000000000000000000000000000000000000000000000000000000000000000000000000000000000000000000000000000000000000000000000000000000000000000000000000000000000000000000000000000000000000000000000000000000000000000000000000000000000000000000000000000000
310
00000000000000000000000000000000000000000000000000000000000000000000000000000000000000000000000000000000000000000000000000000000000000000000000000000000000000000000000000000000000000000000000000000000000000000000000000000000000000000000000000000000000000
310
00
310
00000000000000000000000000000000000000000000000000000000000000000000000000000000000000000000000000000000000000000000000000000000000000000000000000000000000000000000000000000000000000000000000000000000000000000000000000000000000000000000000000000000000000
310
00000000000000000000000000000000000000000000000000000000000000000000000000000000000000000000000000000000000000000000000000000000000000000000000000000000000000000000000000000000000000000000000000000000000000000000000000000000000000000000000000000000000000
310
00
310
00000000000000000000000000000000000000000000000000000000000000000000000000000000000000000000000000000000000000000000000000000000000000000000000000000000000000000000000000000000000000000000000000000000000000000000000000000000000000000000000000000000000000
310
00000000000000000000000000000000000000000000000000000000000000000000000000000000000000000000000000000000000000000000000000000000000000000000000000000000000000000000000000000000000000000000000000000000000000000000000000000000000000000000000000000000000000
310
00
310
00000000000000000000000000000000000000000000000000000000000000000000000000000000000000000000000000000000000000000000000000000000000000000000000000000000000000000000000000000000000000000000000000000000000000000000000000000000000000
  0
XRECORD
  5
4E2
102
{ACAD_REACTORS
330
50E
102
}
330
50E
100
AcDbXrecord
280
     1
310
3E4F020000004D6F64656C6572000000000000000000000000000000000000000000000000000000000000000000000000000000000000000000000000000000000000000000000000000000000000000000000000000000000000000000000000000000000000000000000000000000000000000000000000000000000000
310
00000000000000000000000000000000000000000000000000000000000000000000000000000000000000000000000000000000000000000000000000000000000000000000000000000000000000000000000000000000000000000000000000000000000000000000000000000000000000000000000000000000000000
310
00
310
00000000000000000000000000000000000000000000000000000000000000000000000000000000000000000000000000000000000000000000000000000000000000000000000000000000000000000000000000000000000000000000000000000000000000000000000000000000000000000000000000000000000000
310
00000000000000000000000000000000000000000000000000000000000000000000000000000000000000000000000000000000000000000000000000000000000000000000000000000000000000000000000000000000000000000000000000000000000000000000000000000000000000000000000000000000000000
310
00
310
00000000000000000000000000000000000000000000000000000000000000000000000000000000000000000000000000000000000000000000000000000000000000000000000000000000000000000000000000000000000000000000000000000000000000000000000000000000000000000000000000000000000000
310
00000000000000000000000000000000000000000000000000000000000000000000000000000000000000000000000000000000000000000000000000000000000000000000000000000000000000000000000000000000000000000000000000000000000000000000000000000000000000000000000000000000000000
310
00
310
00000000000000000000000000000000000000000000000000000000000000000000000000000000000000000000000000000000000000000000000000000000000000000000000000000000000000000000000000000000000000000000000000000000000000000000000000000000000000000000000000000000000000
310
00000000000000000000000000000000000000000000000000000000000000000000000000000000000000000000000000000000000000000000000000000000000000000000000000000000000000000000000000000000000000000000000000000000000000000000000000000000000000000000000000000000000000
310
00
310
00000000000000000000000000000000000000000000000000000000000000000000000000000000000000000000000000000000000000000000000000000000000000000000000000000000000000000000000000000000000000000000000000000000000000000000000000000000000000000000000000000000000000
310
00000000000000000000000000000000000000000000000000000000000000000000000000000000000000000000000000000000000000000000000000000000000000000000000000000000000000000000000000000000000000000000000000000000000000000000000000000000000000000000000000000000000000
310
00
310
00000000000000000000000000000000000000000000000000000000000000000000000000000000000000000000000000000000000000000000000000000000000000000000000000000000000000000000000000000000000000000000000000000000000000000000000000000000000000000000000000000000000000
310
00000000000000000000000000000000000000000000000000000000000000000000000000000000000000000000000000000000000000000000000000000000000000000000000000000000000000000000000000000000000000000000000000000000000000000000000000000000000000000000000000000000000000
310
00
310
00000000000000000000000000000000000000000000000000000000000000000000000000000000000000000000000000000000000000000000000000000000000000000000000000000000000000000000000000000000000000000000000000000000000000000000000000000000000000000000000000000000000000
310
00000000000000000000000000000000000000000000000000000000000000000000000000000000000000000000000000000000000000000000000000000000000000000000000000000000000000000000000000000000000000000000000000000000000000000000000000000000000000000000000000000000000000
310
00
310
00000000000000000000000000000000000000000000000000000000000000000000000000000000000000000000000000000000000000000000000000000000000000000000000000000000000000000000000000000000000000000000000000000000000000000000000000000000000000000000000000000000000000
310
00000000000000000000000000000000000000000000000000000000000000000000000000000000000000000000000000000000000000000000000000000000000000000000000000000000000000000000000000000000000000000000000000000000000000000000000000000000000000000000000000000000000000
310
00
310
00000000000000000000000000000000000000000000000000000000000000000000000000000000000000000000000000000000000000000000000000000000000000000000000000000000000000000000000000000000000000000000000000000000000000000000000000000000000000000000000000000000000000
310
00000000000000000000000000000000000000000000000000000000000000000000000000000000000000000000000000000000000000000000000000000000000000000000000000000000000000000000000000000000000000000000000000000000000000000000000000000000000000000000000000000000000000
310
00
310
00000000000000000000000000000000000000000000000000000000000000000000000000000000000000000000000000000000000000000000000000000000000000000000000000000000000000000000000000000000000000000000000000000000000000000000000000000000000000000000000000000000000000
310
00000000000000000000000000000000000000000000000000000000000000000000000000000000000000000000000000000000000000000000000000000000000000000000000000000000000000000000000000000000000000000000000000000000000000000000000000000000000000000000000000000000000000
310
00
310
00000000000000000000000000000000000000000000000000000000000000000000000000000000000000000000000000000000000000000000000000000000000000000000000000000000000000000000000000000000000000000000000000000000000000000000000000000000000000000000000000000000000000
310
00000000000000000000000000000000000000000000000000000000000000000000000000000000000000000000000000000000000000000000000000000000000000000000000000000000000000000000000000000000000000000000000000000000000000000000000000000000000000000000000000000000000000
310
00
310
00000000000000000000000000000000000000000000000000000000000000000000000000000000000000000000000000000000000000000000000000000000000000000000000000000000000000000000000000000000000000000000000000000000000000000000000000000000000000000000000000000000000000
310
00000000000000000000000000000000000000000000000000000000000000000000000000000000000000000000000000000000000000000000000000000000000000000000000000000000000000000000000000000000000000000000000000000000000000000000000000000000000000000000000000000000000000
310
00
310
00000000000000000000000000000000000000000000000000000000000000000000000000000000000000000000000000000000000000000000000000000000000000000000000000000000000000000000000000000000000000000000000000000000000000000000000000000000000000000000000000000000000000
310
00000000000000000000000000000000000000000000000000000000000000000000000000000000000000000000000000000000000000000000000000000000000000000000000000000000000000000000000000000000000000000000000000000000000000000000000000000000000000000000000000000000000000
310
00
310
00000000000000000000000000000000000000000000000000000000000000000000000000000000000000000000000000000000000000000000000000000000000000000000000000000000000000000000000000000000000000000000000000000000000000000000000000000000000000
  0
XRECORD
  5
4D5
102
{ACAD_REACTORS
330
50E
102
}
330
50E
100
AcDbXrecord
280
     1
310
DF56060034040701D0009A9999999999B93F000000000000000000000000000000000400000009000000000000000200000064000000640000000100000001000000190000007B14AE47E17A843F00000000004060409A9999999999B93F00000000004C2D41000000000070F7400000000000942141000000000000000000
310
0000000000000000000000000000000AD482040000000000000000000000000000F03F000000000000000000000000000030402D431CEBE2362A3F00000000000008400000000000000000009807C000000000000000007C1A61B9A711364020000000050000000A000000200000002000000020000000000000000000F03F
310
00
310
0000000000F03F000000000000F03F333333333333D33F333333333333D33F333333333333D33F000000000000F43F000000000000F43F000000000000F03F0200000064000000000000000000000000000840000000000000F83F00000000000000000000000000000000008056409A9999999999B93F0000000000000000
310
00000000000000000000000000000000000000000000000000000000000000000000000000000000000000000000000000000000000000000000000000000000000000000000000000000000000000000000000000000000000000000000000000000000000000000000000000000000000000000000000000000000000000
310
00
310
0000000000000000000000000000000000000000000000000000000000000000000000000000000000000000000000000000000000000000000000000000000000000000000000000000000000000000000000000000000000000000000000000000000000000000000000000000000000000000000000009A9999999999A9
310
3F9100000000000000000000000000000035A781D547960F40000000000000F03F000000000000F03F666666666666164000000000104068F200000000000000000000000000000000000000000000000000000000000000000000000000000000000000000000000000000000000000000000000000000000000000000000
310
00
310
00000000000000000000000000000000000000000000000000000000000000000000000000000000000000000000000000000000000000000000000000000000000000000000000000000000000000000000000000000000000000000000000000000000000000000000000000000000000000000000000000000000000000
310
000000000000000000000000000000000000000000000000000000000000000000000000000000000000000000000000000000000000000000000000FF000000000000000000000000000000000000000000000000000000000000000000000000000000000000000000000000000000000000000000000000000000000000
310
00
310
0000000000000000000000000000000000000000000000000000000000000000000000000000000000000000000000000000000000000000000000000000000000000000
  0
DICTIONARY
  5
4FF
330
4FE
100
AcDbDictionary
280
     1
281
     1
  3
ADSK_XREC_LAYOUTTHUMBNAIL
360
500
  0
XRECORD
  5
500
102
{ACAD_REACTORS
330
4FF
102
}
330
4FF
100
AcDbXrecord
280
     1
310
28000000B40000008B0000000100080000000000BC61000000000000000000000001000000000000FFFFFF0000000000FFFFFF000000000000000000000000000000000000000000000000000000000000000000330000006600000099000000CC000000FF00000000330000333300006633000099330000CC330000FF3300
310
0000660000336600006666000099660000CC660000FF66000000990000339900006699000099990000CC990000FF99000000CC000033CC000066CC000099CC0000CCCC0000FFCC000000FF000033FF000066FF000099FF0000CCFF0000FFFF000000003300330033006600330099003300CC003300FF003300003333003333
310
33006633330099333300CC333300FF33330000663300336633006666330099663300CC663300FF66330000993300339933006699330099993300CC993300FF99330000CC330033CC330066CC330099CC3300CCCC3300FFCC330000FF330033FF330066FF330099FF3300CCFF3300FFFF330000006600330066006600660099
310
006600CC006600FF00660000336600333366006633660099336600CC336600FF33660000666600336666006666660099666600CC666600FF66660000996600339966006699660099996600CC996600FF99660000CC660033CC660066CC660099CC6600CCCC6600FFCC660000FF660033FF660066FF660099FF6600CCFF6600
310
FFFF660000009900330099006600990099009900CC009900FF00990000339900333399006633990099339900CC339900FF33990000669900336699006666990099669900CC669900FF66990000999900339999006699990099999900CC999900FF99990000CC990033CC990066CC990099CC9900CCCC9900FFCC990000FF99
310
0033FF990066FF990099FF9900CCFF9900FFFF99000000CC003300CC006600CC009900CC00CC00CC00FF00CC000033CC003333CC006633CC009933CC00CC33CC00FF33CC000066CC003366CC006666CC009966CC00CC66CC00FF66CC000099CC003399CC006699CC009999CC00CC99CC00FF99CC0000CCCC0033CCCC0066CC
310
CC0099CCCC00CCCCCC00FFCCCC0000FFCC0033FFCC0066FFCC0099FFCC00CCFFCC00FFFFCC000000FF003300FF006600FF009900FF00CC00FF00FF00FF000033FF003333FF006633FF009933FF00CC33FF00FF33FF000066FF003366FF006666FF009966FF00CC66FF00FF66FF000099FF003399FF006699FF009999FF00CC
310
99FF00FF99FF0000CCFF0033CCFF0066CCFF0099CCFF00CCCCFF00FFCCFF0000FFFF0033FFFF0066FFFF0099FFFF00CCFFFF00FFFFFF00000000000D0D0D001A1A1A00282828003535350043434300505050005D5D5D006B6B6B00787878008686860093939300A1A1A100AEAEAE00BBBBBB00C9C9C900D6D6D600E4E4E400
310
F1F1F100FFFFFF0000000000000000000000000000000000000000000000000000000000000000000000000000000000E2E2E2E2E2E2E2E2E2E2E2E2E2E2E2E2E2E2E2E2E2E2E2E2E2E2E2E2E2E2E2E2E2E2E2E2E2E2E2E2E2E2E2E2E2E2E2E2E2E2E2E2E2E2E2E2E2E2E2E2E2E2E2E2E2E2E2E2E2E2E2E2E2E2E2E2E2E2E2
310
E2E2E2E2E2E2E2E2E2E2E2E2E2E2E2E2E2E2E2E2E2E2E2E2E2E2E2E2E2E2E2E2E2E2E2E2E2E2E2E2E2E2E2E2E2E2E2E2E2E2E2E2E2E2E2E2E2E2E2E2E2E2E2E2E2E2E2E2E2E2E2E2E2E2E2E2E2E2E2E2E2E2E2E2E2E2E2E2E2E2E2E2E2E2E2E2E2E2E2E2EFF5F5F5F5F5F5F5F5F5F5F5F5F5F5F5F5F5F5F5F5F5F5F5F5F5F5
310
F5F5F5F5F5F5F5F5F5F5F5F5F5F5F5F5F5F5F5F5F5F5F5F5F5F5F5F5F5F5F5F5F5F5F5F5F5F5F5F5F5F5F5F5F5F5F5F5F5F5F5F5F5F5F5F5F5F5F5F5F5F5F5F5F5F5F5F5F5F5F5F5F5F5F5F5F5F5F5F5F5F5F5F5F5F5F5F5F5F5F5F5F5F5F5F5F5F5F5F5F5F5F5F5F5F5F5F5F5F5F5F5F5F5F5F5F5F5F5F5F5F5F5F5F5F5F5
310
F5F5F5F5F5F5F5F5F5F5F5F5F5F5F5F5F5F5F5F5F5F5F5F5E2E2EFF5F5F5F5F5F5F5F5F5F5F5F5F5F5F5F5F5F5F5F5F5F5F5F5F5F5F5F5F5F5F5F5F5F5F5F5F5F5F5F5F5F5F5F5F5F5F5F5F5F5F5F5F5F5F5F5F5F5F5F5F5F5F5F5F5F5F5F5F5F5F5F5F5F5F5F5F5F5F5F5F5F5F5F5F5F5F5F5F5F5F5F5F5F5F5F5F5F5F5F5
310
F5F5F5F5F5F5F5F5F5F5F5F5F5F5F5F5F5F5F5F5F5F5F5F5F5F5F5F5F5F5F5F5F5F5F5F5F5F5F5F5F5F5F5F5F5F5F5F5F5F5F5F5F5F5F5F5F5F5F5F5F5F5F5F5F5F5F5F5F5F5F5F5F5F5F5F5F5E2E2EFF5F5F5F5F5F5F5F5F5F5F5F5F5F5F5F5F5F5F5F5F5F5F5F5F5F5F5F5F5F5F5F5F5F5F5F5F5F5F5F5F5F5F5F5F5F5F5
310
F5F5F5F5F5F5F5F5F5F5F5F5F5F5F5F5F5F5F5F5F5F5F5F5F5F5F5F5F5F5F5F5F5F5F5F5F5F5F5F5F5F5F5F5F5F5F5F5F5F5F5F5F5F5F5F5F5F5F5F5F5F5F5F5F5F5F5F5F5F5F5F5F5F5F5F5F5F5F5F5F5F5F5F5F5F5F5F5F5F5F5F5F5F5F5F5F5F5F5F5F5F5F5F5F5F5F5F5F5F5F5F5F5F5F5F5F5F5F5F5F5F5F5F5F5F5F5
310
F5F5F5E2E2EFF5F5F5E2E2E2E2E2E2E2E2F5F5F5F5F5F5F5F5F5E2E2E2E2E2E2E2E2E2E2E2E2E2E2E2E2F5F5F5F5F5F5F5F5E2E2E2E2E2E2E2E2E2E2E2E2E2E2E2E2F5F5F5F5F5F5F5F5F5E2E2E2E2E2E2E2E2E2E2E2E2E2E2E2F5F5F5F5F5F5F5F5F5E2E2E2E2E2E2E2E2E2E2E2E2E2E2E2F5F5F5F5F5F5F5F5F5E2E2E2E2
310
E2E2E2E2E2E2E2E2E2E2E2E2F5F5F5F5F5F5F5F5E2E2E2E2E2E2E2E2E2E2E2E2E2E2E2E2F5F5F5F5F5F5F5F5F5E2E2E2E2E2E2E2E2F5F5F5E2E2EFF5F5F5E2F5F5F5F5F5F5F5F5F5F5F5F5F5F5F5F5F5F5F5F5F5F5F5F5F5F5F5F5F5F5F5F5F5F5F5F5F5F5F5F5F5F5F5F5F5F5F5F5F5F5F5F5F5F5F5F5F5F5F5F5F5F5F5F5
310
F5F5F5F5F5F5F5F5F5F5F5F5F5F5F5F5F5F5F5F5F5F5F5F5F5F5F5F5F5F5F5F5F5F5F5F5F5F5F5F5F5F5F5F5F5F5F5F5F5F5F5F5F5F5F5F5F5F5F5F5F5F5F5F5F5F5F5F5F5F5F5F5F5F5F5F5F5F5F5F5F5F5F5F5F5F5F5F5F5F5F5F5F5F5F5F5F5F5F5F5F5F5F5F5F5E2F5F5F5E2E2EFF5F5F5E2F5F5F5F5F5F5F5F5F5F5F5
310
F5F5F5F5F5F5F5F5F5F5F5F5F5F5F5F5F5F5F5F5F5F5F5F5F5F5F5F5F5F5F5F5F5F5F5F5F5F5F5F5F5F5F5F5F5F5F5F5F5F5F5F5F5F5F5F5F5F5F5F5F5F5F5F5F5F5F5F5F5F5F5F5F5F5F5F5F5F5F5F5F5F5F5F5F5F5F5F5F5F5F5F5F5F5F5F5F5F5F5F5F5F5F5F5F5F5F5F5F5F5F5F5F5F5F5F5F5F5F5F5F5F5F5F5F5F5F5
310
F5F5F5F5F5F5F5F5F5F5F5F5F5F5F5F5F5F5F5F5F5F5F5F5F5F5F5F5F5F5F5E2F5F5F5E2E2EFF5F5F5E2F5F5F5F5F5F5F5F5F5F5F5F5F5F5F5F5F5F5F5F5F5F5F5F5F5F5F5F5F5F5F5F5F5F5F5F5F5F5F5F5F5F5F5F5F5F5F5F5F5F5F5F5F5F5F5F5F5F5F5F5F5F5F5F5F5F5F5F5F5F5F5F5F5F5F5F5F5F5F5F5F5F5F5F5F5
310
F5F5F5F5F5F5F5F5F5F5F5F5F5F5F5F5F5F5F5F5F5F5F5F5F5F5F5F5F5F5F5F5F5F5F5F5F5F5F5F5F5F5F5F5F5F5F5F5F5F5F5F5F5F5F5F5F5F5F5F5F5F5F5F5F5F5F5F5F5F5F5F5F5F5F5F5F5F5F5F5F5F5F5F5E2F5F5F5E2E2EFF5F5F5E2F5F5F5F5F5F5F5F5F5F5F5F5F5F5F5F5F5F5F5F5F5F5F5F5F5F5F5F5F5F5F5F5
310
F5F5F5F5F5F5F5F5F5F5F5F5F5F5F5F5F5F5F5F5F5F5F5F5F5F5F5F5F5F5F5F5F5F5F5F5F5F5F5F5F5F5F5F5F5F5F5F5F5F5F5F5F5F5F5F5F5F5F5F5F5F5F5F5F5F5F5F5F5F5F5F5F5F5F5F5F5F5F5F5F5F5F5F5F5F5F5F5F5F5F5F5F5F5F5F5F5F5F5F5F5F5F5F5F5F5F5F5F5F5F5F5F5F5F5F5F5F5F5F5F5F5F5F5F5F5F5
310
F5F5F5F5F5F5F5F5F5F5E2F5F5F5E2E2EFF5F5F5E2F5F5F5F5F5F5F5F5F5F5F5F5F5F5F5F5F5F5F5F5F5F5F5F5F5F5F5F5F5F5F5F5F5F5F5F5F5F5F5F5F5F5F5F5F5F5F5F5F5F5F5F5F5F5F5F5F5F5F5F5F5F5F5F5F5F5F5F5F5F5F5F5F5F5F5F5F5F5F5F5F5F5F5F5F5F5F5F5F5F5F5F5F5F5F5F5F5F5F5F5F5F5F5F5F5F5
310
F5F5F5F5F5F5F5F5F5F5F5F5F5F5F5F5F5F5F5F5F5F5F5F5F5F5F5F5F5F5F5F5F5F5F5F5F5F5F5F5F5F5F5F5F5F5F5F5F5F5F5F5F5F5F5F5F5F5F5F5F5F5F5E2F5F5F5E2E2EFF5F5F5E2F5F5F5F5F5F5F5F5F5F5F5F5F5F5F5F5F5F5F5F5F5F5F5F5F5F5F5F5F5F5F5F5F5F5F5F5F5F5F5F5F5F5F5F5F5F5F5F5F5F5F5F5F5
310
F5F5F5F5F5F5F5F5F5F5F5F5F5F5F5F5F5F5F5F5F5F5F5F5F5F5F5F5F5F5F5F5F5F5F5F5F5F5F5F5F5F5F5F5F5F5F5F5F5F5F5F5F5F5F5F5F5F5F5F5F5F5F5F5F5F5F5F5F5F5F5F5F5F5F5F5F5F5F5F5F5F5F5F5F5F5F5F5F5F5F5F5F5F5F5F5F5F5F5F5F5F5F5F5F5F5F5F5F5F5F5F5F5F5F5F5E2F5F5F5E2E2EFF5F5F5E2
310
F5F5F5F5F5F5F5F5F5F5F5F5F5F5F5F5F5F5F5F5F5F5F5F5F5F5F5F5F5F5F5F5F5F5F5F5F5F5F5F5F5F5F5F5F5F5F5F5F5F5F5F5F5F5F5F5F5F5F5F5F5F5F5F5F5F5F5F5F5F5F5F5F5F5F5F5F5F5F5F5F5F5F5F5F5F5F5F5F5F5F5F5F5F5F5F5F5F5F5F5F5F5F5F5F5F5F5F5F5F5F5F5F5F5F5F5F5F5F5F5F5F5F5F5F5F5F5
310
F5F5F5F5F5F5F5F5F5F5F5F5F5F5F5F5F5F5F5F5F5F5F5F5F5F5F5F5F5F5F5F5F5F5F5F5F5F5F5F5F5F5E2F5F5F5E2E2EFF5F5F5E2F5F5F5F5F5F5F5F5F5F5F5F5F5F5F5F5F5F5F5F5F5F5F5F5F5F5F5F5F5F5F5F5F5F5F5F5F5F5F5F5F5F5F5F5F5F5F5F5F5F5F5F5F5F5F5F5F5F5F5F5F5F5F5F5F5F5F5F5F5F5F5F5F5F5
310
F5F5F5F5F5F5F5F5F5F5F5F5F5F5F5F5F5F5F5F5F5F5F5F5F5F5F5F5F5F5F5F5F5F5F5F5F5F5F5F5F5F5F5F5F5F5F5F5F5F5F5F5F5F5F5F5F5F5F5F5F5F5F5F5F5F5F5F5F5F5F5F5F5F5F5F5F5F5F5F5F5F5F5F5F5F5F5F5F5F5F5F5F5F5F5E2F5F5F5E2E2EFF5F5F5F5F5F5F5F5F5F5F5F5F5F5F5F5F5F5F5F5F5F5F5F5F5
310
F5F5F5F5F5F5F5F5F5F5F5F5F5F5F5F5F5F5F5F5F5F5F5F5F5F5F5F5F5F5F5F5F5F5F5F5F5F5F5F5F5F5F5F5F5F5F5F5F5F5F5F5F5F5F5F5F5F5F5F5F5F5F5F5F5F5F5F5F5F5F5F5F5F5F5F5F5F5F5F5F5F5F5F5F5F5F5F5F5F5F5F5F5F5F5F5F5F5F5F5F5F5F5F5F5F5F5F5F5F5F5F5F5F5F5F5F5F5F5F5F5F5F5F5F5F5F5
310
F5F5F5F5F5F5F5F5F5F5F5F5F5F5F5F5F5F5F5F5F5F5F5F5F5E2E2EFF5F5F5F5F5F5F5F5F5F5F5F5F5F5F5F5F5F5F5F5F5F5F5F5F5F5F5F5F5F5F5F5F5F5F5F5F5F5F5F5F5F5F5F5F5F5F5F5F5F5F5F5F5F5F5F5F5F5F5F5F5F5F5F5F5F5F5F5F5F5F5F5F5F5F5F5F5F5F5F5F5F5F5F5F5F5F5F5F5F5F5F5F5F5F5F5F5F5F5
310
F5F5F5F5F5F5F5F5F5F5F5F5F5F5F5F5F5F5F5F5F5F5F5F5F5F5F5F5F5F5F5F5F5F5F5F5F5F5F5F5F5F5F5F5F5F5F5F5F5F5F5F5F5F5F5F5F5F5F5F5F5F5F5F5F5F5F5F5F5F5F5F5F5F5F5F5F5F5E2E2EFF5F5F5F5F5F5F5F5F5F5F5F5F5F5F5F5F5F5F5F5F5F5F5F5F5F5F5F5F5F5F5F5F5F5F5F5F5F5F5F5F5F5F5F5F5F5
310
F5F5F5F5F5F5F5F5F5F5F5F5F5F5F5F5F5F5F5F5F5F5F5F5F5F5F5F5F5F5F5F5F5F5F5F5F5F5F5F5F5F5F5F5F5F5F5F5F5F5F5F5F5F5F5F5F5F5F5F5F5F5F5F5F5F5F5F5F5F5F5F5F5F5F5F5F5F5F5F5F5F5F5F5F5F5F5F5F5F5F5F5F5F5F5F5F5F5F5F5F5F5F5F5F5F5F5F5F5F5F5F5F5F5F5F5F5F5F5F5F5F5F5F5F5F5F5
310
F5F5F5F5E2E2EFF5F5F5F5F5F5F5F5F5F5F5F5F5F5F5F5F5F5F5F5F5F5F5F5F5F5F5F5F5F5F5F5F5F5F5F5F5F5F5F5F5F5F5F5F5F5F5F5F5F5F5F5F5F5F5F5F5F5F5F5F5F5F5F5F5F5F5F5F5F5F5F5F5F5F5F5F5F5F5F5F5F5F5F5F5F5F5F5F5F5F5F5F5F5F5F5F5F5F5F5F5F5F5F5F5F5F5F5F5F5F5F5F5F5F5F5F5F5F5F5
310
F5F5F5F5F5F5F5F5F5F5F5F5F5F5F5F5F5F5F5F5F5F5F5F5F5F5F5F5F5F5F5F5F5F5F5F5F5F5F5F5F5F5F5F5F5F5F5F5F5F5F5F5F5F5F5F5F5E2E2EFF5F5F5F5F5F5F5F5F5F5F5F5F5F5F5F5F5F5F5F5E2E2E2E2E2E2E2E2E2E2E2E2E2E2E2E2E2E2E2E2E2E2E2E2E2E2E2E2E2E2E2E2E2E2E2E2E2E2E2E2E2E2E2E2E2E2E2
310
E2E2E2E2E2E2E2E2E2E2E2E2E2E2E2E2E2E2E2E2E2E2E2E2E2E2E2E2E2E2E2E2E2E2E2E2E2E2E2E2E2E2E2E2E2E2E2E2E2E2E2E2E2E2E2E2E2E2E2E2E2E2E2E2E2E2E2E2E2E2E2E2E2E2E2E2E2E2E2E2E2E2E2E2E2E2E2E2E2E2F5F5F5F5F5F5F5F5F5F5F5F5F5F5F5F5F5F5F5F5E2E2EFF5F5F5F5F5F5F5F5F5F5F5F5F5F5
310
F5F5F5F5F5F5E2F5F5F5F5F5F5F5F5F5F5F5F5F5F5F5F5F5F5F5F5F5F5F5F5F5F5F5F5F5F5F5F5F5F5F5F5F5F5F5F5F5F5F5F5F5F5F5F5F5F5F5F5F5F5F5F5F5F5F5F5F5F5F5F5F5F5F5F5F5F5F5F5F5F5F5F5F5F5F5F5F5F5F5F5F5F5F5F5F5F5F5F5F5F5F5F5F5F5F5F5F5F5F5F5F5F5F5F5F5F5F5F5F5F5F5F5F5F5F5F5
310
F5F5F5F5F5F5F5F5F5F5F5F5F5F5F5E2F5F5F5F5F5F5F5F5F5F5F5F5F5F5F5F5F5F5F5F5E2E2EFF5F5F5F5F5F5F5F5F5F5F5F5F5F5F5F5F5F5F5F5E2F5F5F5F5F5F5F5F5F5F5F5F5F5F5F5F5F5F5F5F5F5F5F5F5F5F5F5F5F5F5F5F5F5F5F5F5F5F5F5F5F5F5F5F5F5F5F5F5F5F5F5F5F5F5F5F5F5F5F5F5F5F5F5F5F5F5F5
310
F5F5F5F5F5F5F5F5F5F5F5F5F5F5F5F5F5F5F5F5F5F5F5F5F5F5F5F5F5F5F5F5F5F5F5F5F5F5F5F5F5F5F5F5F5F5F5F5F5F5F5F5F5F5F5F5F5F5F5F5F5F5F5F5F5F5F5F5E2F5F5F5F5F5F5F5F5F5F5F5F5F5F5F5F5F5F5F5F5E2E2EFF5F5F5F5F5F5F5F5F5F5F5F5F5F5F5F5F5F5F5F5E2F5F5F5F5F5F5F5F5F5F5F5F5F5F5
310
F5F5F5F5F5F5F5F5F5F5F5F5F5F5F5F5F5F5F5F5F5F5F5F5F5F5F5F5F5F5F5F5F5F5F5F5F5F5F5F5F5F5F5F5F5F5F5F5F5F5F5F5F5F5F5F5F5F5F5F5F5F5F5F5F5F5F5F5F5F5F5F5F5F5F5F5F5F5F5F5F5F5F5F5F5F5F5F5F5F5F5F5F5F5F5F5F5F5F5F5F5F5F5F5F5F5F5F5F5F5F5F5F5F5F5F5F5F5F5F5F5E2F5F5F5F5F5
310
F5F5F5F5F5F5F5F5F5F5F5F5F5F5F5E2E2EFF5F5F5F5F5F5F5F5F5F5F5F5F5F5F5F5F5F5F5F5E2F5F5F5F5F5F5F5F5F5F5F5F5F5F5F5F5F5F5F5F5F5F5F5F5F5F5F5F5F5F5F5F5F5F5F5F5F5F5F5F5F5F5F5F5F5F5F5F5F5F5F5F5F5F5F5F5F5F5F5F5F5F5F5F5F5F5F5F5F5F5F5F5F5F5F5F5F5F5F5F5F5F5F5F5F5F5F5F5
310
F5F5F5F5F5F5F5F5F5F5F5F5F5F5F5F5F5F5F5F5F5F5F5F5F5F5F5F5F5F5F5F5F5F5F5F5F5F5F5F5F5F5F5F5F5F5F5E2F5F5F5F5F5F5F5F5F5F5F5F5F5F5F5F5F5F5F5F5E2E2EFF5F5F5E2F5F5F5F5F5F5F5F5F5F5F5F5F5F5F5F5E2F5F5F5F5F5F5F5F5F5F5F5F5F5F5F5F5F5F5F5F5F5F5F5F5F5F5F5F5F5F5F5F5F5F5F5
310
F5F5F5F5F5F5F5F5F5F5F5F5F5F5F5F5F5F5F5F5F5F5F5F5F5F5F5F5F5F5F5F5F5F5F5F5F5F5F5F5F5F5F5F5F5F5F5F5F5F5F5F5F5F5F5F5F5F5F5F5F5F5F5F5F5F5F5F5F5F5F5F5F5F5F5F5F5F5F5F5F5F5F5F5F5F5F5F5F5F5F5F5F5F5F5F5F5F5F5F5E2F5F5F5F5F5F5F5F5F5F5F5F5F5F5F5F5E2F5F5F5E2E2EFF5F5F5
310
E2F5F5F5F5F5F5F5F5F5F5F5F5F5F5F5F5E2F5F5F5F5F5F5F5F5F5F5F5F5F5F5F5F5F5F5F5F5F5F5F5F5F5F5F5F5F5F5F5F5F5F5F5F5F5F5F5F5F5F5F5F5F5F5F5F5F5F5F5F5F5F5F5F5F5F5F5F5F5F5F5F5F5F5F5F5F5F5F5F5F5F5F5F5F5F5F5F5F5F5F5F5F5F5F5F5F5F5F5F5F5F5F5F5F5F5F5F5F5F5F5F5F5F5F5F5F5
310
F5F5F5F5F5F5F5F5F5F5F5F5F5F5F5F5F5F5F5F5F5F5F5F5F5F5E2F5F5F5F5F5F5F5F5F5F5F5F5F5F5F5F5E2F5F5F5E2E2EFF5F5F5E2F5F5F5F5F5F5F5F5F5F5F5F5F5F5F5F5E2F5F5F5F5F5F5F5F5F5F5F5F5F5F5F5F5F5F5F5F5F5F5F5F5F5F5F5F5F5F5F5F5F5F5F5F5F5F5F5F5F5F5F5F5F5F5F5F5F5F5F5F5F5F5F5F5
310
F5F5F5F5F5F5F5F5F5F5F5F5F5F5F5F5F5F5F5F5F5F5F5F5F5F5F5F5F5F5F5F5F5F5F5F5F5F5F5F5F5F5F5F5F5F5F5F5F5F5F5F5F5F5F5F5F5F5F5F5F5F5F5F5F5F5F5F5F5F5F5F5F5F5F5F5F5F5F5E2F5F5F5F5F5F5F5F5F5F5F5F5F5F5F5F5E2F5F5F5E2E2EFF5F5F5E2F5F5F5F5F5F5F5F5F5F5F5F5F5F5F5F5E2F5F5F5
310
F5F5F5F5F5F5F5F5F5F5F5F5F5F5F5F5F5F5F5F5F5F5F5F5F5F5F5F5F5F5F5F5F5F5F5F5F5F5F5F5F5F5F5F5F5F5F5F5F5F5F5F5F5F5F5F5F5F5F5F5F5F5F5F5F5F5F5F5F5F5F5F5F5F5F5F5F5F5F5F5F5F5F5F5F5F5F5F5F5F5F5F5F5F5F5F5F5F5F5F5F5F5F5F5F5F5F5F5F5F5F5F5F5F5F5F5F5F5F5F5F5F5F5F5F5F5F5
310
F5F5F5F5F5E2F5F5F5F5F5F5F5F5F5F5F5F5F5F5F5F5E2F5F5F5E2E2EFF5F5F5E2F5F5F5F5F5F5F5F5F5F5F5F5F5F5F5F5E2F5F5F5F5F5F5F5F5F5F5F5F5F5F5F5F5F5F5F5F5F5F5F5F5F5F5F5F5F5F5F5F5F5F5F5F5F5F5F5F5F5F5F5F5F5F5F5F5F5F5F5F5F5F5F5F5F5F5F5F5F5F5F5F5F5F5F5F5F5F5F5F5F5F5F5F5F5
310
F5F5F5F5F5F5F5F5F5F5F5F5F5F5F5F5F5F5F5F5F5F5F5F5F5F5F5F5F5F5F5F5F5F5F5F5F5F5F5F5F5F5F5F5F5F5F5F5F5F5F5F5F5F5F5F5F5F5E2F5F5F5F5F5F5F5F5F5F5F5F5F5F5F5F5E2F5F5F5E2E2EFF5F5F5E2F5F5F5F5F5F5F5F5F5F5F5F5F5F5F5F5E2F5F5F5F5F5F5F5F5F5F5F5F5F5F5F5F5F5F5F5F5F5F5F5F5
310
F5F5F5F5F5F5F5F5F5F5F5F5F5F5F5F5F5F5F5F5F5F5F5F5F5F5F5F5F5F5F5F5F5F5F5F5F5F5F5F5F5F5F5F5F5F5F5F5F5F5F5F5F5F5F5F5F5F5F5F5F5F5F5F5F5F5F5F5F5F5F5F5F5F5F5F5F5F5F5F5F5F5F5F5F5F5F5F5F5F5F5F5F5F5F5F5F5F5F5F5F5F5F5F5F5F5F5F5F5F5F5E2F5F5F5F5F5F5F5F5F5F5F5F5F5F5F5
310
F5E2F5F5F5E2E2EFF5F5F5E2F5F5F5F5F5F5F5F5F5F5F5F5F5F5F5F5E2F5F5F5F5F5F5F5F5F5F5F5F5F5F5F5F5F5F5F5F5F5F5F5F5F5F5F5F5F5F5F5F5F5F5F5F5F5F5F5F5F5F5F5F5F5F5F5F5F5F5F5F5F5F5F5F5F5F5F5F5F5F5F5F5F5F5F5F5F5F5F5F5F5F5F5F5F5F5F5F5F5F5F5F5F5F5F5F5F5F5F5F5F5F5F5F5F5F5
310
F5F5F5F5F5F5F5F5F5F5F5F5F5F5F5F5F5F5F5F5F5F5F5F5F5F5F5F5F5F5F5F5F5F5F5F5F5E2F5F5F5F5F5F5F5F5F5F5F5F5F5F5F5F5E2F5F5F5E2E2EFF5F5F5E2F5F5F5F5F5F5F5F5F5F5F5F5F5F5F5F5E2F5F5F5F5F5F5F5F5F5F5F5F5F5F5F5F5F5F5F5F5F5F5F5F5F5F5F5F5F5F5F5F5F5F5F5F5F5F5F5F5F5F5F5F5F5
310
F5F5F5F5F5F5F5F5F5F5F5F5F5F5F5F5F5F5F5F5F5F5F5F5F5F5F5F5F5F5F5F5F5F5F5F5F5F5F5F5F5F5F5F5F5F5F5F5F5F5F5F5F5F5F5F5F5F5F5F5F5F5F5F5F5F5F5F5F5F5F5F5F5F5F5F5F5F5F5F5F5F5F5F5F5F5F5F5F5F5E2F5F5F5F5F5F5F5F5F5F5F5F5F5F5F5F5E2F5F5F5E2E2EFF5F5F5E2F5F5F5F5F5F5F5F5F5
310
F5F5F5F5F5F5F5E2F5F5F5F5F5F5F5F5F5F5F5F5F5F5F5F5F5F5F5F5F5F5F5F5F5F5F5F5F5F5F5F5F5F5F5F5F5F5F5F5F5F5F5F5F5F5F5F5F5F5F5F5F5F5F5F5F5F5F5F5F5F5F5F5F5F5F5F5F5F5F5F5F5F5F5F5F5F5F5F5F5F5F5F5F5F5F5F5F5F5F5F5F5F5F5F5F5F5F5F5F5F5F5F5F5F5F5F5F5F5F5F5F5F5F5F5F5F5F5
310
F5F5F5F5F5F5F5F5F5F5F5F5F5F5F5F5E2F5F5F5F5F5F5F5F5F5F5F5F5F5F5F5F5E2F5F5F5E2E2EFF5F5F5E2F5F5F5F5F5F5F5F5F5F5F5F5F5F5F5F5E2F5F5F5F5F5F5F5F5F5F5F5F5F5F5F5F5F5F5F5F5F5F5F5F5F5F5F5F5F5F5F5F5F5F5F5F5F5F5F5F5F5F5F5F5F5F5F5F5F5F5F5F5F5F5F5F5F5F5F5F5F5F5F5F5F5F5
310
F5F5F5F5F5F5F5F5F5F5F5F5F5F5F5F5F5F5F5F5F5F5F5F5F5F5F5F5F5F5F5F5F5F5F5F5F5F5F5F5F5F5F5F5F5F5F5F5F5F5F5F5F5F5F5F5F5F5F5F5F5F5F5F5F5F5F5F5F5E2F5F5F5F5F5F5F5F5F5F5F5F5F5F5F5F5E2F5F5F5E2E2EFF5F5F5E2F5F5F5F5F5F5F5F5F5F5F5F5F5F5F5F5E2F5F5F5F5F5F5F5F5F5F5F5F5F5
310
F5F5F5F5F5F5F5F5F5F5F5F5F5F5F5F5F5F5F5F5F5F5F5F5F5F5F5F5F5F5F5F5F5F5F5F5F5F5F5F5F5F5F5F5F5F5F5F5F5F5F5F5F5F5F5F5F5F5F5F5F5F5F5F5F5F5F5F5F5F5F5F5F5F5F5F5F5F5F5F5F5F5F5F5F5F5F5F5F5F5F5F5F5F5F5F5F5F5F5F5F5F5F5F5F5F5F5F5F5F5F5F5F5F5F5F5F5F5F5F5F5F5E2F5F5F5F5
310
F5F5F5F5F5F5F5F5F5F5F5F5E2F5F5F5E2E2EFF5F5F5E2F5F5F5F5F5F5F5F5F5F5F5F5F5F5F5F5E2F5F5F5F5F5F5F5F5F5F5F5F5F5F5F5F5F5F5F5F5F5F5F5F5F5F5F5F5F5F5F5F5F5F5F5F5F5F5F5F5F5F5F5F5F5F5F5F5F5F5F5F5F5F5F5F5F5F5F5F5F5F5F5F5F5F5F5F5F5F5F5F5F5F5F5F5F5F5F5F5F5F5F5F5F5F5F5
310
F5F5F5F5F5F5F5F5F5F5F5F5F5F5F5F5F5F5F5F5F5F5F5F5F5F5F5F5F5F5F5F5F5F5F5F5F5F5F5F5F5F5F5F5F5F5F5F5E2F5F5F5F5F5F5F5F5F5F5F5F5F5F5F5F5E2F5F5F5E2E2EFF5F5F5E2F5F5F5F5F5F5F5F5F5F5F5F5F5F5F5F5E2F5F5F5F5F5F5F5F5F5F5F5F5F5F5F5F5F5F5F5F5F5F5F5F5F5F5F5F5F5F5F5F5F5F5
310
F5F5F5F5F5F5F5F5F5F5F5F5F5F5F5F5F5F5F5F5F5F5F5F5F5F5F5F5F5F5F5F5F5F5F5F5F5F5F5F5F5F5F5F5F5F5F5F5F5F5F5F5F5F5F5F5F5F5F5F5F5F5F5F5F5F5F5F5F5F5F5F5F5F5F5F5F5F5F5F5F5F5F5F5F5F5F5F5F5F5F5F5F5F5F5F5F5F5F5F5F5E2F5F5F5F5F5F5F5F5F5F5F5F5F5F5F5F5E2F5F5F5E2E2EFF5F5
310
F5E2F5F5F5F5F5F5F5F5F5F5F5F5F5F5F5F5E2F5F5F5F5F5F5F5F5F5F5F5F5F5F5F5F5F5F5F5F5F5F5F5F5F5F5F5F5F5F5F5F5F5F5F5F5F5F5F5F5F5F5F5F5F5F5F5F5F5F5F5F5F5F5F5F5F5F5F5F5F5F5F5F5F5F5F5F5F5F5F5F5F5F5F5F5F5F5F5F5F5F5F5F5F5F5F5F5F5F5F5F5F5F5F5F5F5F5F5F5F5F5F5F5F5F5F5F5
310
F5F5F5F5F5F5F5F5F5F5F5F5F5F5F5F5F5F5F5F5F5F5F5F5F5F5F5E2F5F5F5F5F5F5F5F5F5F5F5F5F5F5F5F5E2F5F5F5E2E2EFF5F5F5E2F5F5F5F5F5F5F5F5F5F5F5F5F5F5F5F5E2F5F5F5F5F5F5F5F5F5F5F5F5F5F5F5F5F5F5F5F5F5F5F5F5F5F5F5F5F5F5F5F5F5F5F5F5F5F5F5F5F5F5F5F5F5F5F5F5F5F5F5F5F5F5F5
310
F5F5F5F5F5F5F5F5F5F5F5F5F5F5F5F5F5F5F5F5F5F5F5F5F5F5F5F5F5F5F5F5F5F5F5F5F5F5F5F5F5F5F5F5F5F5F5F5F5F5F5F5F5F5F5F5F5F5F5F5F5F5F5F5F5F5F5F5F5F5F5F5F5F5F5F5F5F5F5F5E2F5F5F5F5F5F5F5F5F5F5F5F5F5F5F5F5E2F5F5F5E2E2EFF5F5F5E2F5F5F5F5F5F5F5F5F5F5F5F5F5F5F5F5E2F5F5
310
F5F5F5F5F5F5F5F5F5F5F5F5F5F5F5F5F5F5F5F5F5F5F5F5F5F5F5F5F5F5F5F5F5F5F5F5F5F5F5F5F5F5F5F5F5F5F5F5F5F5F5F5F5F5F5F5F5F5F5F5F5F5F5F5F5F5F5F5F5F5F5F5F5F5F5F5F5F5F5F5F5F5F5F5F5F5F5F5F5F5F5F5F5F5F5F5F5F5F5F5F5F5F5F5F5F5F5F5F5F5F5F5F5F5F5F5F5F5F5F5F5F5F5F5F5F5F5
310
F5F5F5F5F5F5E2F5F5F5F5F5F5F5F5F5F5F5F5F5F5F5F5E2F5F5F5E2E2EFF5F5F5E2F5F5F5F5F5F5F5F5F5F5F5F5F5F5F5F5E2F5F5F5F5F5F5F5F5F5F5F5F5F5F5F5F5F5F5F5F5F5F5F5F5F5F5F5F5F5F5F5F5F5F5F5F5F5F5F5F5F5F5F5F5F5F5F5F5F5F5F5F5F5F5F5F5F5F5F5F5F5F5F5F5F5F5F5F5F5F5F5F5F5F5F5F5
310
F5F5F5F5F5F5F5F5F5F5F5F5F5F5F5F5F5F5F5F5F5F5F5F5F5F5F5F5F5F5F5F5F5F5F5F5F5F5F5F5F5F5F5F5F5F5F5F5F5F5F5F5F5F5F5F5F5F5F5E2F5F5F5F5F5F5F5F5F5F5F5F5F5F5F5F5E2F5F5F5E2E2EFF5F5F5F5F5F5F5F5F5F5F5F5F5F5F5F5F5F5F5F5E2F5F5F5F5F5F5F5F5F5F5F5F5F5F5F5F5F5F5F5F5F5F5F5
310
F5F5F5F5F5F5F5F5F5F5F5F5F5F5F5F5F5F5F5F5F5F5F5F5F5F5F5F5F5F5F5F5F5F5F5F5F5F5F5F5F5F5F5F5F5F5F5F5F5F5F5F5F5F5F5F5F5F5F5F5F5F5F5F5F5F5F5F5F5F5F5F5F5F5F5F5F5F5F5F5F5F5F5F5F5F5F5F5F5F5F5F5F5F5F5F5F5F5F5F5F5F5F5F5F5F5F5F5F5F5F5F5E2F5F5F5F5F5F5F5F5F5F5F5F5F5F5
310
F5F5F5F5F5F5E2E2EFF5F5F5F5F5F5F5F5F5F5F5F5F5F5F5F5F5F5F5F5E2F5F5F5F5F5F5F5F5F5F5F5F5F5F5F5F5F5F5F5F5F5F5F5F5F5F5F5F5F5F5F5F5F5F5F5F5F5F5F5F5F5F5F5F5F5F5F5F5F5F5F5F5F5F5F5F5F5F5F5F5F5F5F5F5F5F5F5F5F5F5F5F5F5F5F5F5F5F5F5F5F5F5F5F5F5F5F5F5F5F5F5F5F5F5F5F5F5
310
F5F5F5F5F5F5F5F5F5F5F5F5F5F5F5F5F5F5F5F5F5F5F5F5F5F5F5F5F5F5F5F5F5F5F5F5F5F5E2F5F5F5F5F5F5F5F5F5F5F5F5F5F5F5F5F5F5F5F5E2E2EFF5F5F5F5F5F5F5F5F5F5F5F5F5F5F5F5F5F5F5F5E2F5F5F5F5F5F5F5F5F5F5F5F5F5F5F5F5F5F5F5F5F5F5F5F5F5F5F5F5F5F5F5F5F5F5F5F5F5F5F5F5F5F5F5F5
310
F5F5F5F5F5F5F5F5F5F5F5F5F5F5F5F5F5F5F5F5F5F5F5F5F5F5F5F5F5F5F5F5F5F5F5F5F5F5F5F5F5F5F5F5F5F5F5F5F5F5F5F5F5F5F5F5F5F5F5F5F5F5F5F5F5F5F5F5F5F5F5F5F5F5F5F5F5F5F5F5F5F5F5F5F5F5F5F5F5F5F5E2F5F5F5F5F5F5F5F5F5F5F5F5F5F5F5F5F5F5F5F5E2E2EFF5F5F5F5F5F5F5F5F5F5F5F5
310
F5F5F5F5F5F5F5F5E2F5F5F5F5F5F5F5F5F5F5F5F5F5F5F5F5F5F5F5F5F5F5F5F5F5F5F5F5F5F5F5F5F5F5F5F5F5F5F5F5F5F5F5F5F5F5F5F5F5F5F5F5F5F5F5F5F5F5F5F5F5F5F5F5F5F5F5F5F5F5F5F5F5F5F5F5F5F5F5F5F5F5F5F5F5F5F5F5F5F5F5F5F5F5F5F5F5F5F5F5F5F5F5F5F5F5F5F5F5F5F5F5F5F5F5F5F5F5
310
F5F5F5F5F5F5F5F5F5F5F5F5F5F5F5F5F5E2F5F5F5F5F5F5F5F5F5F5F5F5F5F5F5F5F5F5F5F5E2E2EFF5F5F5F5F5F5F5F5F5F5F5F5F5F5F5F5F5F5F5F5E2F5F5F5F5F5F5F5F5F5F5F5F5F5F5F5F5F5F5F5F5F5F5F5F5F5F5F5F5F5F5F5F5F5F5F5F5F5F5F5F5F5F5F5F5F5F5F5F5F5F5F5F5F5F5F5F5F5F5F5F5F5F5F5F5F5
310
F5F5F5F5F5F5F5F5F5F5F5F5F5F5F5F5F5F5F5F5F5F5F5F5F5F5F5F5F5F5F5F5F5F5F5F5F5F5F5F5F5F5F5F5F5F5F5F5F5F5F5F5F5F5F5F5F5F5F5F5F5F5F5F5F5F5F5F5F5F5E2F5F5F5F5F5F5F5F5F5F5F5F5F5F5F5F5F5F5F5F5E2E2EFF5F5F5F5F5F5F5F5F5F5F5F5F5F5F5F5F5F5F5F5E2F5F5F5F5F5F5F5F5F5F5F5F5
310
F5F5F5F5F5F5F5F5F5F5F5F5F5F5F5F5F5F5F5F5F5F5F5F5F5F5F5F5F5F5F5F5F5F5F5F5F5F5F5F5F5F5F5F5F5F5F5F5F5F5F5F5F5F5F5F5F5F5F5F5F5F5F5F5F5F5F5F5F5F5F5F5F5F5F5F5F5F5F5F5F5F5F5F5F5F5F5F5F5F5F5F5F5F5F5F5F5F5F5F5F5F5F5F5F5F5F5F5F5F5F5F5F5F5F5F5F5F5F5F5F5F5F5E2F5F5F5
310
F5F5F5F5F5F5F5F5F5F5F5F5F5F5F5F5F5E2E2EFF5F5F5F5F5F5F5F5F5F5F5F5F5F5F5F5F5F5F5F5E2F5F5F5F5F5F5F5F5F5F5F5F5F5F5F5F5F5F5F5F5F5F5F5F5F5F5F5F5F5F5F5F5F5F5F5F5F5F5F5F5F5F5F5F5F5F5F5F5F5F5F5F5F5F5F5F5F5F5F5F5F5F5F5F5F5F5F5F5F5F5F5F5F5F5F5F5F5F5F5F5F5F5F5F5F5F5
310
F5F5F5F5F5F5F5F5F5F5F5F5F5F5F5F5F5F5F5F5F5F5F5F5F5F5F5F5F5F5F5F5F5F5F5F5F5F5F5F5F5F5F5F5F5F5F5F5F5E2F5F5F5F5F5F5F5F5F5F5F5F5F5F5F5F5F5F5F5F5E2E2EFF5F5F5F5F5F5F5F5F5F5F5F5F5F5F5F5F5F5F5F5E2F5F5F5F5F5F5F5F5F5F5F5F5F5F5F5F5F5F5F5F5F5F5F5F5F5F5F5F5F5F5F5F5F5
310
F5F5F5F5F5F5F5F5F5F5F5F5F5F5F5F5F5F5F5F5F5F5F5F5F5F5F5F5F5F5F5F5F5F5F5F5F5F5F5F5F5F5F5F5F5F5F5F5F5F5F5F5F5F5F5F5F5F5F5F5F5F5F5F5F5F5F5F5F5F5F5F5F5F5F5F5F5F5F5F5F5F5F5F5F5F5F5F5F5F5F5F5F5F5F5F5F5F5F5F5F5F5E2F5F5F5F5F5F5F5F5F5F5F5F5F5F5F5F5F5F5F5F5E2E2EFF5
310
F5F5F5F5F5F5F5F5F5F5F5F5F5F5F5F5F5F5F5E2F5F5F5F5F5F5F5F5F5F5F5F5F5F5F5F5F5F5F5F5F5F5F5F5F5F5F5F5F5F5F5F5F5F5F5F5F5F5F5F5F5F5F5F5F5F5F5F5F5F5F5F5F5F5F5F5F5F5F5F5F5F5F5F5F5F5F5F5F5F5F5F5F5F5F5F5F5F5F5F5F5F5F5F5F5F5F5F5F5F5F5F5F5F5F5F5F5F5F5F5F5F5F5F5F5F5F5
310
F5F5F5F5F5F5F5F5F5F5F5F5F5F5F5F5F5F5F5F5F5F5F5F5F5F5F5F5E2F5F5F5F5F5F5F5F5F5F5F5F5F5F5F5F5F5F5F5F5E2E2EFF5F5F5E2F5F5F5F5F5F5F5F5F5F5F5F5F5F5F5F5E2F5F5F5F5F5F5F5F5F5F5F5F5F5F5F5F5F5F5F5F5F5F5F5F5F5F5F5F5F5F5F5F5F5F5F5F5F5F5F5F5F5F5F5F5F5F5F5F5F5F5F5F5F5F5
310
F5F5F5F5F5F5F5F5F5F5F5F5F5F5F5F5F5F5F5F5F5F5F5F5F5F5F5F5F5F5F5F5F5F5F5F5F5F5F5F5F5F5F5F5F5F5F5F5F5F5F5F5F5F5F5F5F5F5F5F5F5F5F5F5F5F5F5F5F5F5F5F5F5F5F5F5F5F5F5F5F5E2F5F5F5F5F5F5F5F5F5F5F5F5F5F5F5F5E2F5F5F5E2E2EFF5F5F5E2F5F5F5F5F5F5F5F5F5F5F5F5F5F5F5F5E2F5
310
F5F5F5F5F5F5F5F5F5F5F5F5F5F5F5F5F5F5F5F5F5F5F5F5F5F5F5F5F5F5F5F5F5F5F5F5F5F5F5F5F5F5F5F5F5F5F5F5F5F5F5F5F5F5F5F5F5F5F5F5F5F5F5F5F5F5F5F5F5F5F5F5F5F5F5F5F5F5F5F5F5F5F5F5F5F5F5F5F5F5F5F5F5F5F5F5F5F5F5F5F5F5F5F5F5F5F5F5F5F5F5F5F5F5F5F5F5F5F5F5F5F5F5F5F5F5F5
310
F5F5F5F5F5F5F5E2F5F5F5F5F5F5F5F5F5F5F5F5F5F5F5F5E2F5F5F5E2E2EFF5F5F5E2F5F5F5F5F5F5F5F5F5F5F5F5F5F5F5F5E2F5F5F5F5F5F5F5F5F5F5F5F5F5F5F5F5F5F5F5F5F5F5F5F5F5F5F5F5F5F5F5F5F5F5F5F5F5F5F5F5F5F5F5F5F5F5F5F5F5F5F5F5F5F5F5F5F5F5F5F5F5F5F5F5F5F5F5F5F5F5F5F5F5F5F5
310
F5F5F5F5F5F5F5F5F5F5F5F5F5F5F5F5F5F5F5F5F5F5F5F5F5F5F5F5F5F5F5F5F5F5F5F5F5F5F5F5F5F5F5F5F5F5F5F5F5F5F5F5F5F5F5F5F5F5F5F5E2F5F5F5F5F5F5F5F5F5F5F5F5F5F5F5F5E2F5F5F5E2E2EFF5F5F5E2F5F5F5F5F5F5F5F5F5F5F5F5F5F5F5F5E2F5F5F5F5F5F5F5F5F5F5F5F5F5F5F5F5F5F5F5F5F5F5
310
F5F5F5F5F5F5F5F5F5F5F5F5F5F5F5F5F5F5F5F5F5F5F5F5F5F5F5F5F5F5F5F5F5F5F5F5F5F5F5F5F5F5F5F5F5F5F5F5F5F5F5F5F5F5F5F5F5F5F5F5F5F5F5F5F5F5F5F5F5F5F5F5F5F5F5F5F5F5F5F5F5F5F5F5F5F5F5F5F5F5F5F5F5F5F5F5F5F5F5F5F5F5F5F5F5F5F5F5F5F5F5F5F5E2F5F5F5F5F5F5F5F5F5F5F5F5F5
310
F5F5F5E2F5F5F5E2E2EFF5F5F5E2F5F5F5F5F5F5F5F5F5F5F5F5F5F5F5F5E2F5F5F5F5F5F5F5F5F5F5F5F5F5F5F5F5F5F5F5F5F5F5F5F5F5F5F5F5F5F5F5F5F5F5F5F5F5F5F5F5F5F5F5F5F5F5F5F5F5F5F5F5F5F5F5F5F5F5F5F5F5F5F5F5F5F5F5F5F5F5F5F5F5F5F5F5F5F5F5F5F5F5F5F5F5F5F5F5F5F5F5F5F5F5F5F5
310
F5F5F5F5F5F5F5F5F5F5F5F5F5F5F5F5F5F5F5F5F5F5F5F5F5F5F5F5F5F5F5F5F5F5F5F5F5F5F5E2F5F5F5F5F5F5F5F5F5F5F5F5F5F5F5F5E2F5F5F5E2E2EFF5F5F5E2F5F5F5F5F5F5F5F5F5F5F5F5F5F5F5F5E2F5F5F5F5F5F5F5F5F5F5F5F5F5F5F5F5F5F5F5F5F5F5F5F5F5F5F5F5F5F5F5F5F5F5F5F5F5F5F5F5F5F5F5
310
F5F5F5F5F5F5F5F5F5F5F5F5F5F5F5F5F5F5F5F5F5F5F5F5F5F5F5F5F5F5F5F5F5F5F5F5F5F5F5F5F5F5F5F5F5F5F5F5F5F5F5F5F5F5F5F5F5F5F5F5F5F5F5F5F5F5F5F5F5F5F5F5F5F5F5F5F5F5F5F5F5F5F5F5F5F5F5F5F5F5F5F5E2F5F5F5F5F5F5F5F5F5F5F5F5F5F5F5F5E2F5F5F5E2E2EFF5F5F5E2F5F5F5F5F5F5F5
310
F5F5F5F5F5F5F5F5F5E2F5F5F5F5F5F5F5F5F5F5F5F5F5F5F5F5F5F5F5F5F5F5F5F5F5F5F5F5F5F5F5F5F5F5F5F5F5F5F5F5F5F5F5F5F5F5F5F5F5F5F5F5F5F5F5F5F5F5F5F5F5F5F5F5F5F5F5F5F5F5F5F5F5F5F5F5F5F5F5F5F5F5F5F5F5F5F5F5F5F5F5F5F5F5F5F5F5F5F5F5F5F5F5F5F5F5F5F5F5F5F5F5F5F5F5F5F5
310
F5F5F5F5F5F5F5F5F5F5F5F5F5F5F5F5F5F5E2F5F5F5F5F5F5F5F5F5F5F5F5F5F5F5F5E2F5F5F5E2E2EFF5F5F5E2F5F5F5F5F5F5F5F5F5F5F5F5F5F5F5F5E2F5F5F5F5F5F5F5F5F5F5F5F5F5F5F5F5F5F5F5F5F5F5F5F5F5F5F5F5F5F5F5F5F5F5F5F5F5F5F5F5F5F5F5F5F5F5F5F5F5F5F5F5F5F5F5F5F5F5F5F5F5F5F5F5
310
F5F5F5F5F5F5F5F5F5F5F5F5F5F5F5F5F5F5F5F5F5F5F5F5F5F5F5F5F5F5F5F5F5F5F5F5F5F5F5F5F5F5F5F5F5F5F5F5F5F5F5F5F5F5F5F5F5F5F5F5F5F5F5F5F5F5F5F5F5F5F5E2F5F5F5F5F5F5F5F5F5F5F5F5F5F5F5F5E2F5F5F5E2E2EFF5F5F5E2F5F5F5F5F5F5F5F5F5F5F5F5F5F5F5F5E2F5F5F5F5F5F5F5F5F5F5F5
310
F5F5F5F5F5F5F5F5F5F5F5F5F5F5F5F5F5F5F5F5F5F5F5F5F5F5F5F5F5F5F5F5F5F5F5F5F5F5F5F5F5F5F5F5F5F5F5F5F5F5F5F5F5F5F5F5F5F5F5F5F5F5F5F5F5F5F5F5F5F5F5F5F5F5F5F5F5F5F5F5F5F5F5F5F5F5F5F5F5F5F5F5F5F5F5F5F5F5F5F5F5F5F5F5F5F5F5F5F5F5F5F5F5F5F5F5F5F5F5F5F5F5F5F5E2F5F5
310
F5F5F5F5F5F5F5F5F5F5F5F5F5F5E2F5F5F5E2E2EFF5F5F5E2F5F5F5F5F5F5F5F5F5F5F5F5F5F5F5F5E2F5F5F5F5F5F5F5F5F5F5F5F5F5F5F5F5F5F5F5F5F5F5F5F5F5F5F5F5F5F5F5F5F5F5F5F5F5F5F5F5F5F5F5F5F5F5F5F5F5F5F5F5F5F5F5F5F5F5F5F5F5F5F5F5F5F5F5F5F5F5F5F5F5F5F5F5F5F5F5F5F5F5F5F5F5
310
F5F5F5F5F5F5F5F5F5F5F5F5F5F5F5F5F5F5F5F5F5F5F5F5F5F5F5F5F5F5F5F5F5F5F5F5F5F5F5F5F5F5F5F5F5F5F5F5F5F5E2F5F5F5F5F5F5F5F5F5F5F5F5F5F5F5F5E2F5F5F5E2E2EFF5F5F5E2F5F5F5F5F5F5F5F5F5F5F5F5F5F5F5F5E2F5F5F5F5F5F5F5F5F5F5F5F5F5F5F5F5F5F5F5F5F5F5F5F5F5F5F5F5F5F5F5F5
310
F5F5F5F5F5F5F5F5F5F5F5F5F5F5F5F5F5F5F5F5F5F5F5F5F5F5F5F5F5F5F5F5F5F5F5F5F5F5F5F5F5F5F5F5F5F5F5F5F5F5F5F5F5F5F5F5F5F5F5F5F5F5F5F5F5F5F5F5F5F5F5F5F5F5F5F5F5F5F5F5F5F5F5F5F5F5F5F5F5F5F5F5F5F5F5F5F5F5F5F5F5F5F5E2F5F5F5F5F5F5F5F5F5F5F5F5F5F5F5F5E2F5F5F5E2E2EF
310
F5F5F5E2F5F5F5F5F5F5F5F5F5F5F5F5F5F5F5F5E2F5F5F5F5F5F5F5F5F5F5F5F5F5F5F5F5F5F5F5F5F5F5F5F5F5F5F5F5F5F5F5F5F5F5F5F5F5F5F5F5F5F5F5F5F5F5F5F5F5F5F5F5F5F5F5F5F5F5F5F5F5F5F5F5F5F5F5F5F5F5F5F5F5F5F5F5F5F5F5F5F5F5F5F5F5F5F5F5F5F5F5F5F5F5F5F5F5F5F5F5F5F5F5F5F5F5
310
F5F5F5F5F5F5F5F5F5F5F5F5F5F5F5F5F5F5F5F5F5F5F5F5F5F5F5F5F5E2F5F5F5F5F5F5F5F5F5F5F5F5F5F5F5F5E2F5F5F5E2E2EFF5F5F5E2F5F5F5F5F5F5F5F5F5F5F5F5F5F5F5F5E2F5F5F5F5F5F5F5F5F5F5F5F5F5F5F5F5F5F5F5F5F5F5F5F5F5F5F5F5F5F5F5F5F5F5F5F5F5F5F5F5F5F5F5F5F5F5F5F5F5F5F5F5F5
310
F5F5F5F5F5F5F5F5F5F5F5F5F5F5F5F5F5F5F5F5F5F5F5F5F5F5F5F5F5F5F5F5F5F5F5F5F5F5F5F5F5F5F5F5F5F5F5F5F5F5F5F5F5F5F5F5F5F5F5F5F5F5F5F5F5F5F5F5F5F5F5F5F5F5F5F5F5F5F5F5F5F5E2F5F5F5F5F5F5F5F5F5F5F5F5F5F5F5F5E2F5F5F5E2E2EFF5F5F5E2F5F5F5F5F5F5F5F5F5F5F5F5F5F5F5F5E2
310
F5F5F5F5F5F5F5F5F5F5F5F5F5F5F5F5F5F5F5F5F5F5F5F5F5F5F5F5F5F5F5F5F5F5F5F5F5F5F5F5F5F5F5F5F5F5F5F5F5F5F5F5F5F5F5F5F5F5F5F5F5F5F5F5F5F5F5F5F5F5F5F5F5F5F5F5F5F5F5F5F5F5F5F5F5F5F5F5F5F5F5F5F5F5F5F5F5F5F5F5F5F5F5F5F5F5F5F5F5F5F5F5F5F5F5F5F5F5F5F5F5F5F5F5F5F5F5
310
F5F5F5F5F5F5F5F5E2F5F5F5F5F5F5F5F5F5F5F5F5F5F5F5F5E2F5F5F5E2E2EFF5F5F5E2F5F5F5F5F5F5F5F5F5F5F5F5F5F5F5F5E2F5F5F5F5F5F5F5F5F5F5F5F5F5F5F5F5F5F5F5F5F5F5F5F5F5F5F5F5F5F5F5F5F5F5F5F5F5F5F5F5F5F5F5F5F5F5F5F5F5F5F5F5F5F5F5F5F5F5F5F5F5F5F5F5F5F5F5F5F5F5F5F5F5F5
310
F5F5F5F5F5F5F5F5F5F5F5F5F5F5F5F5F5F5F5F5F5F5F5F5F5F5F5F5F5F5F5F5F5F5F5F5F5F5F5F5F5F5F5F5F5F5F5F5F5F5F5F5F5F5F5F5F5F5F5F5F5E2F5F5F5F5F5F5F5F5F5F5F5F5F5F5F5F5E2F5F5F5E2E2EFF5F5F5E2F5F5F5F5F5F5F5F5F5F5F5F5F5F5F5F5E2F5F5F5F5F5F5F5F5F5F5F5F5F5F5F5F5F5F5F5F5F5
310
F5F5F5F5F5F5F5F5F5F5F5F5F5F5F5F5F5F5F5F5F5F5F5F5F5F5F5F5F5F5F5F5F5F5F5F5F5F5F5F5F5F5F5F5F5F5F5F5F5F5F5F5F5F5F5F5F5F5F5F5F5F5F5F5F5F5F5F5F5F5F5F5F5F5F5F5F5F5F5F5F5F5F5F5F5F5F5F5F5F5F5F5F5F5F5F5F5F5F5F5F5F5F5F5F5F5F5F5F5F5F5F5F5F5E2F5F5F5F5F5F5F5F5F5F5F5F5
310
F5F5F5F5E2F5F5F5E2E2EFF5F5F5E2F5F5F5F5F5F5F5F5F5F5F5F5F5F5F5F5E2F5F5F5F5F5F5F5F5F5F5F5F5F5F5F5F5F5F5F5F5F5F5F5F5F5F5F5F5F5F5F5F5F5F5F5F5F5F5F5F5F5F5F5F5F5F5F5F5F5F5F5F5F5F5F5F5F5F5F5F5F5F5F5F5F5F5F5F5F5F5F5F5F5F5F5F5F5F5F5F5F5F5F5F5F5F5F5F5F5F5F5F5F5F5F5
310
F5F5F5F5F5F5F5F5F5F5F5F5F5F5F5F5F5F5F5F5F5F5F5F5F5F5F5F5F5F5F5F5F5F5F5F5F5F5F5F5E2F5F5F5F5F5F5F5F5F5F5F5F5F5F5F5F5E2F5F5F5E2E2EFF5F5F5F5F5F5F5F5F5F5F5F5F5F5F5F5F5F5F5F5E2F5F5F5F5F5F5F5F5F5F5F5F5F5F5F5F5F5F5F5F5F5F5F5F5F5F5F5F5F5F5F5F5F5F5F5F5F5F5F5F5F5F5
310
F5F5F5F5F5F5F5F5F5F5F5F5F5F5F5F5F5F5F5F5F5F5F5F5F5F5F5F5F5F5F5F5F5F5F5F5F5F5F5F5F5F5F5F5F5F5F5F5F5F5F5F5F5F5F5F5F5F5F5F5F5F5F5F5F5F5F5F5F5F5F5F5F5F5F5F5F5F5F5F5F5F5F5F5F5F5F5F5F5F5F5F5F5E2F5F5F5F5F5F5F5F5F5F5F5F5F5F5F5F5F5F5F5F5E2E2EFF5F5F5F5F5F5F5F5F5F5
310
F5F5F5F5F5F5F5F5F5F5E2F5F5F5F5F5F5F5F5F5F5F5F5F5F5F5F5F5F5F5F5F5F5F5F5F5F5F5F5F5F5F5F5F5F5F5F5F5F5F5F5F5F5F5F5F5F5F5F5F5F5F5F5F5F5F5F5F5F5F5F5F5F5F5F5F5F5F5F5F5F5F5F5F5F5F5F5F5F5F5F5F5F5F5F5F5F5F5F5F5F5F5F5F5F5F5F5F5F5F5F5F5F5F5F5F5F5F5F5F5F5F5F5F5F5F5F5
310
F5F5F5F5F5F5F5F5F5F5F5F5F5F5F5F5F5F5F5E2F5F5F5F5F5F5F5F5F5F5F5F5F5F5F5F5F5F5F5F5E2E2EFF5F5F5F5F5F5F5F5F5F5F5F5F5F5F5F5F5F5F5F5E2F5F5F5F5F5F5F5F5F5F5F5F5F5F5F5F5F5F5F5F5F5F5F5F5F5F5F5F5F5F5F5F5F5F5F5F5F5F5F5F5F5F5F5F5F5F5F5F5F5F5F5F5F5F5F5F5F5F5F5F5F5F5F5
310
F5F5F5F5F5F5F5F5F5F5F5F5F5F5F5F5F5F5F5F5F5F5F5F5F5F5F5F5F5F5F5F5F5F5F5F5F5F5F5F5F5F5F5F5F5F5F5F5F5F5F5F5F5F5F5F5F5F5F5F5F5F5F5F5F5F5F5F5F5F5F5F5E2F5F5F5F5F5F5F5F5F5F5F5F5F5F5F5F5F5F5F5F5E2E2EFF5F5F5F5F5F5F5F5F5F5F5F5F5F5F5F5F5F5F5F5E2F5F5F5F5F5F5F5F5F5F5
310
F5F5F5F5F5F5F5F5F5F5F5F5F5F5F5F5F5F5F5F5F5F5F5F5F5F5F5F5F5F5F5F5F5F5F5F5F5F5F5F5F5F5F5F5F5F5F5F5F5F5F5F5F5F5F5F5F5F5F5F5F5F5F5F5F5F5F5F5F5F5F5F5F5F5F5F5F5F5F5F5F5F5F5F5F5F5F5F5F5F5F5F5F5F5F5F5F5F5F5F5F5F5F5F5F5F5F5F5F5F5F5F5F5F5F5F5F5F5F5F5F5F5F5F5F5E2F5
310
F5F5F5F5F5F5F5F5F5F5F5F5F5F5F5F5F5F5F5E2E2EFF5F5F5F5F5F5F5F5F5F5F5F5F5F5F5F5F5F5F5F5E2F5F5F5F5F5F5F5F5F5F5F5F5F5F5F5F5F5F5F5F5F5F5F5F5F5F5F5F5F5F5F5F5F5F5F5F5F5F5F5F5F5F5F5F5F5F5F5F5F5F5F5F5F5F5F5F5F5F5F5F5F5F5F5F5F5F5F5F5F5F5F5F5F5F5F5F5F5F5F5F5F5F5F5F5
310
F5F5F5F5F5F5F5F5F5F5F5F5F5F5F5F5F5F5F5F5F5F5F5F5F5F5F5F5F5F5F5F5F5F5F5F5F5F5F5F5F5F5F5F5F5F5F5F5F5F5F5E2F5F5F5F5F5F5F5F5F5F5F5F5F5F5F5F5F5F5F5F5E2E2EFF5F5F5F5F5F5F5F5F5F5F5F5F5F5F5F5F5F5F5F5E2F5F5F5F5F5F5F5F5F5F5F5F5F5F5F5F5F5F5F5F5F5F5F5F5F5F5F5F5F5F5F5
310
F5F5F5F5F5F5F5F5F5F5F5F5F5F5F5F5F5F5F5F5F5F5F5F5F5F5F5F5F5F5F5F5F5F5F5F5F5F5F5F5F5F5F5F5F5F5F5F5F5F5F5F5F5F5F5F5F5F5F5F5F5F5F5F5F5F5F5F5F5F5F5F5F5F5F5F5F5F5F5F5F5F5F5F5F5F5F5F5F5F5F5F5F5F5F5F5F5F5F5F5F5F5F5F5E2F5F5F5F5F5F5F5F5F5F5F5F5F5F5F5F5F5F5F5F5E2E2
310
EFF5F5F5F5F5F5F5F5F5F5F5F5F5F5F5F5F5F5F5F5E2F5F5F5F5F5F5F5F5F5F5F5F5F5F5F5F5F5F5F5F5F5F5F5F5F5F5F5F5F5F5F5F5F5F5F5F5F5F5F5F5F5F5F5F5F5F5F5F5F5F5F5F5F5F5F5F5F5F5F5F5F5F5F5F5F5F5F5F5F5F5F5F5F5F5F5F5F5F5F5F5F5F5F5F5F5F5F5F5F5F5F5F5F5F5F5F5F5F5F5F5F5F5F5F5F5
310
F5F5F5F5F5F5F5F5F5F5F5F5F5F5F5F5F5F5F5F5F5F5F5F5F5F5F5F5F5F5E2F5F5F5F5F5F5F5F5F5F5F5F5F5F5F5F5F5F5F5F5E2E2EFF5F5F5F5F5F5F5F5F5F5F5F5F5F5F5F5F5F5F5F5E2F5F5F5F5F5F5F5F5F5F5F5F5F5F5F5F5F5F5F5F5F5F5F5F5F5F5F5F5F5F5F5F5F5F5F5F5F5F5F5F5F5F5F5F5F5F5F5F5F5F5F5F5
310
F5F5F5F5F5F5F5F5F5F5F5F5F5F5F5F5F5F5F5F5F5F5F5F5F5F5F5F5F5F5F5F5F5F5F5F5F5F5F5F5F5F5F5F5F5F5F5F5F5F5F5F5F5F5F5F5F5F5F5F5F5F5F5F5F5F5F5F5F5F5F5F5F5F5F5F5F5F5F5F5F5F5F5E2F5F5F5F5F5F5F5F5F5F5F5F5F5F5F5F5F5F5F5F5E2E2EFF5F5F5F5F5F5F5F5F5F5F5F5F5F5F5F5F5F5F5F5
310
E2F5F5F5F5F5F5F5F5F5F5F5F5F5F5F5F5F5F5F5F5F5F5F5F5F5F5F5F5F5F5F5F5F5F5F5F5F5F5F5F5F5F5F5F5F5F5F5F5F5F5F5F5F5F5F5F5F5F5F5F5F5F5F5F5F5F5F5F5F5F5F5F5F5F5F5F5F5F5F5F5F5F5F5F5F5F5F5F5F5F5F5F5F5F5F5F5F5F5F5F5F5F5F5F5F5F5F5F5F5F5F5F5F5F5F5F5F5F5F5F5F5F5F5F5F5F5
310
F5F5F5F5F5F5F5F5F5E2F5F5F5F5F5F5F5F5F5F5F5F5F5F5F5F5F5F5F5F5E2E2EFF5F5F5E2F5F5F5F5F5F5F5F5F5F5F5F5F5F5F5F5E2F5F5F5F5F5F5F5F5F5F5F5F5F5F5F5F5F5F5F5F5F5F5F5F5F5F5F5F5F5F5F5F5F5F5F5F5F5F5F5F5F5F5F5F5F5F5F5F5F5F5F5F5F5F5F5F5F5F5F5F5F5F5F5F5F5F5F5F5F5F5F5F5F5
310
F5F5F5F5F5F5F5F5F5F5F5F5F5F5F5F5F5F5F5F5F5F5F5F5F5F5F5F5F5F5F5F5F5F5F5F5F5F5F5F5F5F5F5F5F5F5F5F5F5F5F5F5F5F5F5F5F5F5F5F5F5F5E2F5F5F5F5F5F5F5F5F5F5F5F5F5F5F5F5E2F5F5F5E2E2EFF5F5F5E2F5F5F5F5F5F5F5F5F5F5F5F5F5F5F5F5E2F5F5F5F5F5F5F5F5F5F5F5F5F5F5F5F5F5F5F5F5
310
F5F5F5F5F5F5F5F5F5F5F5F5F5F5F5F5F5F5F5F5F5F5F5F5F5F5F5F5F5F5F5F5F5F5F5F5F5F5F5F5F5F5F5F5F5F5F5F5F5F5F5F5F5F5F5F5F5F5F5F5F5F5F5F5F5F5F5F5F5F5F5F5F5F5F5F5F5F5F5F5F5F5F5F5F5F5F5F5F5F5F5F5F5F5F5F5F5F5F5F5F5F5F5F5F5F5F5F5F5F5F5F5F5F5F5E2F5F5F5F5F5F5F5F5F5F5F5
310
F5F5F5F5F5E2F5F5F5E2E2EFF5F5F5E2F5F5F5F5F5F5F5F5F5F5F5F5F5F5F5F5E2F5F5F5F5F5F5F5F5F5F5F5F5F5F5F5F5F5F5F5F5F5F5F5F5F5F5F5F5F5F5F5F5F5F5F5F5F5F5F5F5F5F5F5F5F5F5F5F5F5F5F5F5F5F5F5F5F5F5F5F5F5F5F5F5F5F5F5F5F5F5F5F5F5F5F5F5F5F5F5F5F5F5F5F5F5F5F5F5F5F5F5F5F5F5
310
F5F5F5F5F5F5F5F5F5F5F5F5F5F5F5F5F5F5F5F5F5F5F5F5F5F5F5F5F5F5F5F5F5F5F5F5F5F5F5F5F5E2F5F5F5F5F5F5F5F5F5F5F5F5F5F5F5F5E2F5F5F5E2E2EFF5F5F5E2F5F5F5F5F5F5F5F5F5F5F5F5F5F5F5F5E2F5F5F5F5F5F5F5F5F5F5F5F5F5F5F5F5F5F5F5F5F5F5F5F5F5F5F5F5F5F5F5F5F5F5F5F5F5F5F5F5F5
310
F5F5F5F5F5F5F5F5F5F5F5F5F5F5F5F5F5F5F5F5F5F5F5F5F5F5F5F5F5F5F5F5F5F5F5F5F5F5F5F5F5F5F5F5F5F5F5F5F5F5F5F5F5F5F5F5F5F5F5F5F5F5F5F5F5F5F5F5F5F5F5F5F5F5F5F5F5F5F5F5F5F5F5F5F5F5F5F5F5F5F5F5F5F5E2F5F5F5F5F5F5F5F5F5F5F5F5F5F5F5F5E2F5F5F5E2E2EFF5F5F5E2F5F5F5F5F5
310
F5F5F5F5F5F5F5F5F5F5F5E2F5F5F5F5F5F5F5F5F5F5F5F5F5F5F5F5F5F5F5F5F5F5F5F5F5F5F5F5F5F5F5F5F5F5F5F5F5F5F5F5F5F5F5F5F5F5F5F5F5F5F5F5F5F5F5F5F5F5F5F5F5F5F5F5F5F5F5F5F5F5F5F5F5F5F5F5F5F5F5F5F5F5F5F5F5F5F5F5F5F5F5F5F5F5F5F5F5F5F5F5F5F5F5F5F5F5F5F5F5F5F5F5F5F5F5
310
F5F5F5F5F5F5F5F5F5F5F5F5F5F5F5F5F5F5F5F5E2F5F5F5F5F5F5F5F5F5F5F5F5F5F5F5F5E2F5F5F5E2E2EFF5F5F5E2F5F5F5F5F5F5F5F5F5F5F5F5F5F5F5F5E2F5F5F5F5F5F5F5F5F5F5F5F5F5F5F5F5F5F5F5F5F5F5F5F5F5F5F5F5F5F5F5F5F5F5F5F5F5F5F5F5F5F5F5F5F5F5F5F5F5F5F5F5F5F5F5F5F5F5F5F5F5F5
310
F5F5F5F5F5F5F5F5F5F5F5F5F5F5F5F5F5F5F5F5F5F5F5F5F5F5F5F5F5F5F5F5F5F5F5F5F5F5F5F5F5F5F5F5F5F5F5F5F5F5F5F5F5F5F5F5F5F5F5F5F5F5F5F5F5F5F5F5F5F5F5F5F5E2F5F5F5F5F5F5F5F5F5F5F5F5F5F5F5F5E2F5F5F5E2E2EFF5F5F5E2F5F5F5F5F5F5F5F5F5F5F5F5F5F5F5F5E2F5F5F5F5F5F5F5F5F5
310
F5F5F5F5F5F5F5F5F5F5F5F5F5F5F5F5F5F5F5F5F5F5F5F5F5F5F5F5F5F5F5F5F5F5F5F5F5F5F5F5F5F5F5F5F5F5F5F5F5F5F5F5F5F5F5F5F5F5F5F5F5F5F5F5F5F5F5F5F5F5F5F5F5F5F5F5F5F5F5F5F5F5F5F5F5F5F5F5F5F5F5F5F5F5F5F5F5F5F5F5F5F5F5F5F5F5F5F5F5F5F5F5F5F5F5F5F5F5F5F5F5F5F5F5F5F5E2
310
F5F5F5F5F5F5F5F5F5F5F5F5F5F5F5F5E2F5F5F5E2E2EFF5F5F5E2F5F5F5F5F5F5F5F5F5F5F5F5F5F5F5F5E2F5F5F5F5F5F5F5F5F5F5F5F5F5F5F5F5F5F5F5F5F5F5F5F5F5F5F5F5F5F5F5F5F5F5F5F5F5F5F5F5F5F5F5F5F5F5F5F5F5F5F5F5F5F5F5F5F5F5F5F5F5F5F5F5F5F5F5F5F5F5F5F5F5F5F5F5F5F5F5F5F5F5F5
310
F5F5F5F5F5F5F5F5F5F5F5F5F5F5F5F5F5F5F5F5F5F5F5F5F5F5F5F5F5F5F5F5F5F5F5F5F5F5F5F5F5F5F5F5F5F5F5F5F5F5F5F5E2F5F5F5F5F5F5F5F5F5F5F5F5F5F5F5F5E2F5F5F5E2E2EFF5F5F5E2F5F5F5F5F5F5F5F5F5F5F5F5F5F5F5F5E2F5F5F5F5F5F5F5F5F5F5F5F5F5F5F5F5F5F5F5F5F5F5F5F5F5F5F5F5F5F5
310
F5F5F5F5F5F5F5F5F5F5F5F5F5F5F5F5F5F5F5F5F5F5F5F5F5F5F5F5F5F5F5F5F5F5F5F5F5F5F5F5F5F5F5F5F5F5F5F5F5F5F5F5F5F5F5F5F5F5F5F5F5F5F5F5F5F5F5F5F5F5F5F5F5F5F5F5F5F5F5F5F5F5F5F5F5F5F5F5F5F5F5F5F5F5F5F5F5F5F5F5F5F5F5F5F5E2F5F5F5F5F5F5F5F5F5F5F5F5F5F5F5F5E2F5F5F5E2
310
E2EFF5F5F5E2F5F5F5F5F5F5F5F5F5F5F5F5F5F5F5F5E2F5F5F5F5F5F5F5F5F5F5F5F5F5F5F5F5F5F5F5F5F5F5F5F5F5F5F5F5F5F5F5F5F5F5F5F5F5F5F5F5F5F5F5F5F5F5F5F5F5F5F5F5F5F5F5F5F5F5F5F5F5F5F5F5F5F5F5F5F5F5F5F5F5F5F5F5F5F5F5F5F5F5F5F5F5F5F5F5F5F5F5F5F5F5F5F5F5F5F5F5F5F5F5F5
310
F5F5F5F5F5F5F5F5F5F5F5F5F5F5F5F5F5F5F5F5F5F5F5F5F5F5F5F5F5F5F5E2F5F5F5F5F5F5F5F5F5F5F5F5F5F5F5F5E2F5F5F5E2E2EFF5F5F5E2F5F5F5F5F5F5F5F5F5F5F5F5F5F5F5F5E2F5F5F5F5F5F5F5F5F5F5F5F5F5F5F5F5F5F5F5F5F5F5F5F5F5F5F5F5F5F5F5F5F5F5F5F5F5F5F5F5F5F5F5F5F5F5F5F5F5F5F5
310
F5F5F5F5F5F5F5F5F5F5F5F5F5F5F5F5F5F5F5F5F5F5F5F5F5F5F5F5F5F5F5F5F5F5F5F5F5F5F5F5F5F5F5F5F5F5F5F5F5F5F5F5F5F5F5F5F5F5F5F5F5F5F5F5F5F5F5F5F5F5F5F5F5F5F5F5F5F5F5F5F5F5F5F5E2F5F5F5F5F5F5F5F5F5F5F5F5F5F5F5F5E2F5F5F5E2E2EFF5F5F5E2F5F5F5F5F5F5F5F5F5F5F5F5F5F5F5
310
F5E2F5F5F5F5F5F5F5F5F5F5F5F5F5F5F5F5F5F5F5F5F5F5F5F5F5F5F5F5F5F5F5F5F5F5F5F5F5F5F5F5F5F5F5F5F5F5F5F5F5F5F5F5F5F5F5F5F5F5F5F5F5F5F5F5F5F5F5F5F5F5F5F5F5F5F5F5F5F5F5F5F5F5F5F5F5F5F5F5F5F5F5F5F5F5F5F5F5F5F5F5F5F5F5F5F5F5F5F5F5F5F5F5F5F5F5F5F5F5F5F5F5F5F5F5F5
310
F5F5F5F5F5F5F5F5F5F5E2F5F5F5F5F5F5F5F5F5F5F5F5F5F5F5F5E2F5F5F5E2E2EFF5F5F5E2F5F5F5F5F5F5F5F5F5F5F5F5F5F5F5F5E2F5F5F5F5F5F5F5F5F5F5F5F5F5F5F5F5F5F5F5F5F5F5F5F5F5F5F5F5F5F5F5F5F5F5F5F5F5F5F5F5F5F5F5F5F5F5F5F5F5F5F5F5F5F5F5F5F5F5F5F5F5F5F5F5F5F5F5F5F5F5F5F5
310
F5F5F5F5F5F5F5F5F5F5F5F5F5F5F5F5F5F5F5F5F5F5F5F5F5F5F5F5F5F5F5F5F5F5F5F5F5F5F5F5F5F5F5F5F5F5F5F5F5F5F5F5F5F5F5F5F5F5F5F5F5F5F5E2F5F5F5F5F5F5F5F5F5F5F5F5F5F5F5F5E2F5F5F5E2E2EFF5F5F5E2F5F5F5F5F5F5F5F5F5F5F5F5F5F5F5F5E2F5F5F5F5F5F5F5F5F5F5F5F5F5F5F5F5F5F5F5
310
F5F5F5F5F5F5F5F5F5F5F5F5F5F5F5F5F5F5F5F5F5F5F5F5F5F5F5F5F5F5F5F5F5F5F5F5F5F5F5F5F5F5F5F5F5F5F5F5F5F5F5F5F5F5F5F5F5F5F5F5F5F5F5F5F5F5F5F5F5F5F5F5F5F5F5F5F5F5F5F5F5F5F5F5F5F5F5F5F5F5F5F5F5F5F5F5F5F5F5F5F5F5F5F5F5F5F5F5F5F5F5F5F5F5F5F5E2F5F5F5F5F5F5F5F5F5F5
310
F5F5F5F5F5F5E2F5F5F5E2E2EFF5F5F5E2F5F5F5F5F5F5F5F5F5F5F5F5F5F5F5F5E2F5F5F5F5F5F5F5F5F5F5F5F5F5F5F5F5F5F5F5F5F5F5F5F5F5F5F5F5F5F5F5F5F5F5F5F5F5F5F5F5F5F5F5F5F5F5F5F5F5F5F5F5F5F5F5F5F5F5F5F5F5F5F5F5F5F5F5F5F5F5F5F5F5F5F5F5F5F5F5F5F5F5F5F5F5F5F5F5F5F5F5F5F5
310
F5F5F5F5F5F5F5F5F5F5F5F5F5F5F5F5F5F5F5F5F5F5F5F5F5F5F5F5F5F5F5F5F5F5F5F5F5F5F5F5F5F5E2F5F5F5F5F5F5F5F5F5F5F5F5F5F5F5F5E2F5F5F5E2E2EFF5F5F5E2F5F5F5F5F5F5F5F5F5F5F5F5F5F5F5F5E2F5F5F5F5F5F5F5F5F5F5F5F5F5F5F5F5F5F5F5F5F5F5F5F5F5F5F5F5F5F5F5F5F5F5F5F5F5F5F5F5
310
F5F5F5F5F5F5F5F5F5F5F5F5F5F5F5F5F5F5F5F5F5F5F5F5F5F5F5F5F5F5F5F5F5F5F5F5F5F5F5F5F5F5F5F5F5F5F5F5F5F5F5F5F5F5F5F5F5F5F5F5F5F5F5F5F5F5F5F5F5F5F5F5F5F5F5F5F5F5F5F5F5F5F5F5F5F5F5F5F5F5F5F5F5F5F5E2F5F5F5F5F5F5F5F5F5F5F5F5F5F5F5F5E2F5F5F5E2E2EFF5F5F5E2F5F5F5F5
310
F5F5F5F5F5F5F5F5F5F5F5F5E2F5F5F5F5F5F5F5F5F5F5F5F5F5F5F5F5F5F5F5F5F5F5F5F5F5F5F5F5F5F5F5F5F5F5F5F5F5F5F5F5F5F5F5F5F5F5F5F5F5F5F5F5F5F5F5F5F5F5F5F5F5F5F5F5F5F5F5F5F5F5F5F5F5F5F5F5F5F5F5F5F5F5F5F5F5F5F5F5F5F5F5F5F5F5F5F5F5F5F5F5F5F5F5F5F5F5F5F5F5F5F5F5F5F5
310
F5F5F5F5F5F5F5F5F5F5F5F5F5F5F5F5F5F5F5F5F5E2F5F5F5F5F5F5F5F5F5F5F5F5F5F5F5F5E2F5F5F5E2E2EFF5F5F5F5F5F5F5F5F5F5F5F5F5F5F5F5F5F5F5F5E2F5F5F5F5F5F5F5F5F5F5F5F5F5F5F5F5F5F5F5F5F5F5F5F5F5F5F5F5F5F5F5F5F5F5F5F5F5F5F5F5F5F5F5F5F5F5F5F5F5F5F5F5F5F5F5F5F5F5F5F5F5
310
F5F5F5F5F5F5F5F5F5F5F5F5F5F5F5F5F5F5F5F5F5F5F5F5F5F5F5F5F5F5F5F5F5F5F5F5F5F5F5F5F5F5F5F5F5F5F5F5F5F5F5F5F5F5F5F5F5F5F5F5F5F5F5F5F5F5F5F5F5F5F5F5F5F5E2F5F5F5F5F5F5F5F5F5F5F5F5F5F5F5F5F5F5F5F5E2E2EFF5F5F5F5F5F5F5F5F5F5F5F5F5F5F5F5F5F5F5F5E2F5F5F5F5F5F5F5F5
310
F5F5F5F5F5F5F5F5F5F5F5F5F5F5F5F5F5F5F5F5F5F5F5F5F5F5F5F5F5F5F5F5F5F5F5F5F5F5F5F5F5F5F5F5F5F5F5F5F5F5F5F5F5F5F5F5F5F5F5F5F5F5F5F5F5F5F5F5F5F5F5F5F5F5F5F5F5F5F5F5F5F5F5F5F5F5F5F5F5F5F5F5F5F5F5F5F5F5F5F5F5F5F5F5F5F5F5F5F5F5F5F5F5F5F5F5F5F5F5F5F5F5F5F5F5F5F5
310
E2F5F5F5F5F5F5F5F5F5F5F5F5F5F5F5F5F5F5F5F5E2E2EFF5F5F5F5F5F5F5F5F5F5F5F5F5F5F5F5F5F5F5F5E2F5F5F5F5F5F5F5F5F5F5F5F5F5F5F5F5F5F5F5F5F5F5F5F5F5F5F5F5F5F5F5F5F5F5F5F5F5F5F5F5F5F5F5F5F5F5F5F5F5F5F5F5F5F5F5F5F5F5F5F5F5F5F5F5F5F5F5F5F5F5F5F5F5F5F5F5F5F5F5F5F5F5
310
F5F5F5F5F5F5F5F5F5F5F5F5F5F5F5F5F5F5F5F5F5F5F5F5F5F5F5F5F5F5F5F5F5F5F5F5F5F5F5F5F5F5F5F5F5F5F5F5F5F5F5F5F5E2F5F5F5F5F5F5F5F5F5F5F5F5F5F5F5F5F5F5F5F5E2E2EFF5F5F5F5F5F5F5F5F5F5F5F5F5F5F5F5F5F5F5F5E2F5F5F5F5F5F5F5F5F5F5F5F5F5F5F5F5F5F5F5F5F5F5F5F5F5F5F5F5F5
310
F5F5F5F5F5F5F5F5F5F5F5F5F5F5F5F5F5F5F5F5F5F5F5F5F5F5F5F5F5F5F5F5F5F5F5F5F5F5F5F5F5F5F5F5F5F5F5F5F5F5F5F5F5F5F5F5F5F5F5F5F5F5F5F5F5F5F5F5F5F5F5F5F5F5F5F5F5F5F5F5F5F5F5F5F5F5F5F5F5F5F5F5F5F5F5F5F5F5F5F5F5F5F5F5F5F5E2F5F5F5F5F5F5F5F5F5F5F5F5F5F5F5F5F5F5F5F5
310
E2E2EFF5F5F5F5F5F5F5F5F5F5F5F5F5F5F5F5F5F5F5F5E2F5F5F5F5F5F5F5F5F5F5F5F5F5F5F5F5F5F5F5F5F5F5F5F5F5F5F5F5F5F5F5F5F5F5F5F5F5F5F5F5F5F5F5F5F5F5F5F5F5F5F5F5F5F5F5F5F5F5F5F5F5F5F5F5F5F5F5F5F5F5F5F5F5F5F5F5F5F5F5F5F5F5F5F5F5F5F5F5F5F5F5F5F5F5F5F5F5F5F5F5F5F5F5
310
F5F5F5F5F5F5F5F5F5F5F5F5F5F5F5F5F5F5F5F5F5F5F5F5F5F5F5F5F5F5F5F5E2F5F5F5F5F5F5F5F5F5F5F5F5F5F5F5F5F5F5F5F5E2E2EFF5F5F5F5F5F5F5F5F5F5F5F5F5F5F5F5F5F5F5F5E2F5F5F5F5F5F5F5F5F5F5F5F5F5F5F5F5F5F5F5F5F5F5F5F5F5F5F5F5F5F5F5F5F5F5F5F5F5F5F5F5F5F5F5F5F5F5F5F5F5F5
310
F5F5F5F5F5F5F5F5F5F5F5F5F5F5F5F5F5F5F5F5F5F5F5F5F5F5F5F5F5F5F5F5F5F5F5F5F5F5F5F5F5F5F5F5F5F5F5F5F5F5F5F5F5F5F5F5F5F5F5F5F5F5F5F5F5F5F5F5F5F5F5F5F5F5F5F5F5F5F5F5F5F5F5F5F5E2F5F5F5F5F5F5F5F5F5F5F5F5F5F5F5F5F5F5F5F5E2E2EFF5F5F5F5F5F5F5F5F5F5F5F5F5F5F5F5F5F5
310
F5F5E2F5F5F5F5F5F5F5F5F5F5F5F5F5F5F5F5F5F5F5F5F5F5F5F5F5F5F5F5F5F5F5F5F5F5F5F5F5F5F5F5F5F5F5F5F5F5F5F5F5F5F5F5F5F5F5F5F5F5F5F5F5F5F5F5F5F5F5F5F5F5F5F5F5F5F5F5F5F5F5F5F5F5F5F5F5F5F5F5F5F5F5F5F5F5F5F5F5F5F5F5F5F5F5F5F5F5F5F5F5F5F5F5F5F5F5F5F5F5F5F5F5F5F5F5
310
F5F5F5F5F5F5F5F5F5F5F5E2F5F5F5F5F5F5F5F5F5F5F5F5F5F5F5F5F5F5F5F5E2E2EFF5F5F5F5F5F5F5F5F5F5F5F5F5F5F5F5F5F5F5F5E2F5F5F5F5F5F5F5F5F5F5F5F5F5F5F5F5F5F5F5F5F5F5F5F5F5F5F5F5F5F5F5F5F5F5F5F5F5F5F5F5F5F5F5F5F5F5F5F5F5F5F5F5F5F5F5F5F5F5F5F5F5F5F5F5F5F5F5F5F5F5F5
310
F5F5F5F5F5F5F5F5F5F5F5F5F5F5F5F5F5F5F5F5F5F5F5F5F5F5F5F5F5F5F5F5F5F5F5F5F5F5F5F5F5F5F5F5F5F5F5F5F5F5F5F5F5F5F5F5F5F5F5F5F5F5F5F5E2F5F5F5F5F5F5F5F5F5F5F5F5F5F5F5F5F5F5F5F5E2E2EFF5F5F5F5F5F5F5F5F5F5F5F5F5F5F5F5F5F5F5F5E2F5F5F5F5F5F5F5F5F5F5F5F5F5F5F5F5F5F5
310
F5F5F5F5F5F5F5F5F5F5F5F5F5F5F5F5F5F5F5F5F5F5F5F5F5F5F5F5F5F5F5F5F5F5F5F5F5F5F5F5F5F5F5F5F5F5F5F5F5F5F5F5F5F5F5F5F5F5F5F5F5F5F5F5F5F5F5F5F5F5F5F5F5F5F5F5F5F5F5F5F5F5F5F5F5F5F5F5F5F5F5F5F5F5F5F5F5F5F5F5F5F5F5F5F5F5F5F5F5F5F5F5F5F5F5F5F5E2F5F5F5F5F5F5F5F5F5
310
F5F5F5F5F5F5F5F5F5F5F5E2E2EFF5F5F5E2F5F5F5F5F5F5F5F5F5F5F5F5F5F5F5F5E2F5F5F5F5F5F5F5F5F5F5F5F5F5F5F5F5F5F5F5F5F5F5F5F5F5F5F5F5F5F5F5F5F5F5F5F5F5F5F5F5F5F5F5F5F5F5F5F5F5F5F5F5F5F5F5F5F5F5F5F5F5F5F5F5F5F5F5F5F5F5F5F5F5F5F5F5F5F5F5F5F5F5F5F5F5F5F5F5F5F5F5F5
310
F5F5F5F5F5F5F5F5F5F5F5F5F5F5F5F5F5F5F5F5F5F5F5F5F5F5F5F5F5F5F5F5F5F5F5F5F5F5F5F5F5F5F5E2F5F5F5F5F5F5F5F5F5F5F5F5F5F5F5F5E2F5F5F5E2E2EFF5F5F5E2F5F5F5F5F5F5F5F5F5F5F5F5F5F5F5F5E2F5F5F5F5F5F5F5F5F5F5F5F5F5F5F5F5F5F5F5F5F5F5F5F5F5F5F5F5F5F5F5F5F5F5F5F5F5F5F5
310
F5F5F5F5F5F5F5F5F5F5F5F5F5F5F5F5F5F5F5F5F5F5F5F5F5F5F5F5F5F5F5F5F5F5F5F5F5F5F5F5F5F5F5F5F5F5F5F5F5F5F5F5F5F5F5F5F5F5F5F5F5F5F5F5F5F5F5F5F5F5F5F5F5F5F5F5F5F5F5F5F5F5F5F5F5F5F5F5F5F5F5F5F5F5F5F5E2F5F5F5F5F5F5F5F5F5F5F5F5F5F5F5F5E2F5F5F5E2E2EFF5F5F5E2F5F5F5
310
F5F5F5F5F5F5F5F5F5F5F5F5F5E2F5F5F5F5F5F5F5F5F5F5F5F5F5F5F5F5F5F5F5F5F5F5F5F5F5F5F5F5F5F5F5F5F5F5F5F5F5F5F5F5F5F5F5F5F5F5F5F5F5F5F5F5F5F5F5F5F5F5F5F5F5F5F5F5F5F5F5F5F5F5F5F5F5F5F5F5F5F5F5F5F5F5F5F5F5F5F5F5F5F5F5F5F5F5F5F5F5F5F5F5F5F5F5F5F5F5F5F5F5F5F5F5F5
310
F5F5F5F5F5F5F5F5F5F5F5F5F5F5F5F5F5F5F5F5F5F5E2F5F5F5F5F5F5F5F5F5F5F5F5F5F5F5F5E2F5F5F5E2E2EFF5F5F5E2F5F5F5F5F5F5F5F5F5F5F5F5F5F5F5F5E2F5F5F5F5F5F5F5F5F5F5F5F5F5F5F5F5F5F5F5F5F5F5F5F5F5F5F5F5F5F5F5F5F5F5F5F5F5F5F5F5F5F5F5F5F5F5F5F5F5F5F5F5F5F5F5F5F5F5F5F5
310
F5F5F5F5F5F5F5F5F5F5F5F5F5F5F5F5F5F5F5F5F5F5F5F5F5F5F5F5F5F5F5F5F5F5F5F5F5F5F5F5F5F5F5F5F5F5F5F5F5F5F5F5F5F5F5F5F5F5F5F5F5F5F5F5F5F5F5F5F5F5F5F5F5F5F5E2F5F5F5F5F5F5F5F5F5F5F5F5F5F5F5F5E2F5F5F5E2E2EFF5F5F5E2F5F5F5F5F5F5F5F5F5F5F5F5F5F5F5F5E2F5F5F5F5F5F5F5
310
F5F5F5F5F5F5F5F5F5F5F5F5F5F5F5F5F5F5F5F5F5F5F5F5F5F5F5F5F5F5F5F5F5F5F5F5F5F5F5F5F5F5F5F5F5F5F5F5F5F5F5F5F5F5F5F5F5F5F5F5F5F5F5F5F5F5F5F5F5F5F5F5F5F5F5F5F5F5F5F5F5F5F5F5F5F5F5F5F5F5F5F5F5F5F5F5F5F5F5F5F5F5F5F5F5F5F5F5F5F5F5F5F5F5F5F5F5F5F5F5F5F5F5F5F5F5F5
310
F5E2F5F5F5F5F5F5F5F5F5F5F5F5F5F5F5F5E2F5F5F5E2E2EFF5F5F5E2F5F5F5F5F5F5F5F5F5F5F5F5F5F5F5F5E2F5F5F5F5F5F5F5F5F5F5F5F5F5F5F5F5F5F5F5F5F5F5F5F5F5F5F5F5F5F5F5F5F5F5F5F5F5F5F5F5F5F5F5F5F5F5F5F5F5F5F5F5F5F5F5F5F5F5F5F5F5F5F5F5F5F5F5F5F5F5F5F5F5F5F5F5F5F5F5F5F5
310
F5F5F5F5F5F5F5F5F5F5F5F5F5F5F5F5F5F5F5F5F5F5F5F5F5F5F5F5F5F5F5F5F5F5F5F5F5F5F5F5F5F5F5F5F5F5F5F5F5F5F5F5F5F5E2F5F5F5F5F5F5F5F5F5F5F5F5F5F5F5F5E2F5F5F5E2E2EFF5F5F5E2F5F5F5F5F5F5F5F5F5F5F5F5F5F5F5F5E2F5F5F5F5F5F5F5F5F5F5F5F5F5F5F5F5F5F5F5F5F5F5F5F5F5F5F5F5
310
F5F5F5F5F5F5F5F5F5F5F5F5F5F5F5F5F5F5F5F5F5F5F5F5F5F5F5F5F5F5F5F5F5F5F5F5F5F5F5F5F5F5F5F5F5F5F5F5F5F5F5F5F5F5F5F5F5F5F5F5F5F5F5F5F5F5F5F5F5F5F5F5F5F5F5F5F5F5F5F5F5F5F5F5F5F5F5F5F5F5F5F5F5F5F5F5F5F5F5F5F5F5F5F5F5F5F5E2F5F5F5F5F5F5F5F5F5F5F5F5F5F5F5F5E2F5F5
310
F5E2E2EFF5F5F5E2F5F5F5F5F5F5F5F5F5F5F5F5F5F5F5F5E2F5F5F5F5F5F5F5F5F5F5F5F5F5F5F5F5F5F5F5F5F5F5F5F5F5F5F5F5F5F5F5F5F5F5F5F5F5F5F5F5F5F5F5F5F5F5F5F5F5F5F5F5F5F5F5F5F5F5F5F5F5F5F5F5F5F5F5F5F5F5F5F5F5F5F5F5F5F5F5F5F5F5F5F5F5F5F5F5F5F5F5F5F5F5F5F5F5F5F5F5F5F5
310
F5F5F5F5F5F5F5F5F5F5F5F5F5F5F5F5F5F5F5F5F5F5F5F5F5F5F5F5F5F5F5F5F5E2F5F5F5F5F5F5F5F5F5F5F5F5F5F5F5F5E2F5F5F5E2E2EFF5F5F5E2F5F5F5F5F5F5F5F5F5F5F5F5F5F5F5F5E2F5F5F5F5F5F5F5F5F5F5F5F5F5F5F5F5F5F5F5F5F5F5F5F5F5F5F5F5F5F5F5F5F5F5F5F5F5F5F5F5F5F5F5F5F5F5F5F5F5
310
F5F5F5F5F5F5F5F5F5F5F5F5F5F5F5F5F5F5F5F5F5F5F5F5F5F5F5F5F5F5F5F5F5F5F5F5F5F5F5F5F5F5F5F5F5F5F5F5F5F5F5F5F5F5F5F5F5F5F5F5F5F5F5F5F5F5F5F5F5F5F5F5F5F5F5F5F5F5F5F5F5F5F5F5F5F5E2F5F5F5F5F5F5F5F5F5F5F5F5F5F5F5F5E2F5F5F5E2E2EFF5F5F5E2F5F5F5F5F5F5F5F5F5F5F5F5F5
310
F5F5F5E2F5F5F5F5F5F5F5F5F5F5F5F5F5F5F5F5F5F5F5F5F5F5F5F5F5F5F5F5F5F5F5F5F5F5F5F5F5F5F5F5F5F5F5F5F5F5F5F5F5F5F5F5F5F5F5F5F5F5F5F5F5F5F5F5F5F5F5F5F5F5F5F5F5F5F5F5F5F5F5F5F5F5F5F5F5F5F5F5F5F5F5F5F5F5F5F5F5F5F5F5F5F5F5F5F5F5F5F5F5F5F5F5F5F5F5F5F5F5F5F5F5F5F5
310
F5F5F5F5F5F5F5F5F5F5F5F5E2F5F5F5F5F5F5F5F5F5F5F5F5F5F5F5F5E2F5F5F5E2E2EFF5F5F5E2F5F5F5F5F5F5F5F5F5F5F5F5F5F5F5F5E2F5F5F5F5F5F5F5F5F5F5F5F5F5F5F5F5F5F5F5F5F5F5F5F5F5F5F5F5F5F5F5F5F5F5F5F5F5F5F5F5F5F5F5F5F5F5F5F5F5F5F5F5F5F5F5F5F5F5F5F5F5F5F5F5F5F5F5F5F5F5
310
F5F5F5F5F5F5F5F5F5F5F5F5F5F5F5F5F5F5F5F5F5F5F5F5F5F5F5F5F5F5F5F5F5F5F5F5F5F5F5F5F5F5F5F5F5F5F5F5F5F5F5F5F5F5F5F5F5F5F5F5F5F5F5F5F5E2F5F5F5F5F5F5F5F5F5F5F5F5F5F5F5F5E2F5F5F5E2E2EFF5F5F5E2F5F5F5F5F5F5F5F5F5F5F5F5F5F5F5F5E2F5F5F5F5F5F5F5F5F5F5F5F5F5F5F5F5F5
310
F5F5F5F5F5F5F5F5F5F5F5F5F5F5F5F5F5F5F5F5F5F5F5F5F5F5F5F5F5F5F5F5F5F5F5F5F5F5F5F5F5F5F5F5F5F5F5F5F5F5F5F5F5F5F5F5F5F5F5F5F5F5F5F5F5F5F5F5F5F5F5F5F5F5F5F5F5F5F5F5F5F5F5F5F5F5F5F5F5F5F5F5F5F5F5F5F5F5F5F5F5F5F5F5F5F5F5F5F5F5F5F5F5F5F5F5F5F5E2F5F5F5F5F5F5F5F5
310
F5F5F5F5F5F5F5F5E2F5F5F5E2E2EFF5F5F5E2F5F5F5F5F5F5F5F5F5F5F5F5F5F5F5F5E2F5F5F5F5F5F5F5F5F5F5F5F5F5F5F5F5F5F5F5F5F5F5F5F5F5F5F5F5F5F5F5F5F5F5F5F5F5F5F5F5F5F5F5F5F5F5F5F5F5F5F5F5F5F5F5F5F5F5F5F5F5F5F5F5F5F5F5F5F5F5F5F5F5F5F5F5F5F5F5F5F5F5F5F5F5F5F5F5F5F5F5
310
F5F5F5F5F5F5F5F5F5F5F5F5F5F5F5F5F5F5F5F5F5F5F5F5F5F5F5F5F5F5F5F5F5F5F5F5F5F5F5F5F5F5F5F5E2F5F5F5F5F5F5F5F5F5F5F5F5F5F5F5F5E2F5F5F5E2E2EFF5F5F5E2F5F5F5F5F5F5F5F5F5F5F5F5F5F5F5F5E2F5F5F5F5F5F5F5F5F5F5F5F5F5F5F5F5F5F5F5F5F5F5F5F5F5F5F5F5F5F5F5F5F5F5F5F5F5F5
310
F5F5F5F5F5F5F5F5F5F5F5F5F5F5F5F5F5F5F5F5F5F5F5F5F5F5F5F5F5F5F5F5F5F5F5F5F5F5F5F5F5F5F5F5F5F5F5F5F5F5F5F5F5F5F5F5F5F5F5F5F5F5F5F5F5F5F5F5F5F5F5F5F5F5F5F5F5F5F5F5F5F5F5F5F5F5F5F5F5F5F5F5F5F5F5F5F5E2F5F5F5F5F5F5F5F5F5F5F5F5F5F5F5F5E2F5F5F5E2E2EFF5F5F5E2F5F5
310
F5F5F5F5F5F5F5F5F5F5F5F5F5F5E2F5F5F5F5F5F5F5F5F5F5F5F5F5F5F5F5F5F5F5F5F5F5F5F5F5F5F5F5F5F5F5F5F5F5F5F5F5F5F5F5F5F5F5F5F5F5F5F5F5F5F5F5F5F5F5F5F5F5F5F5F5F5F5F5F5F5F5F5F5F5F5F5F5F5F5F5F5F5F5F5F5F5F5F5F5F5F5F5F5F5F5F5F5F5F5F5F5F5F5F5F5F5F5F5F5F5F5F5F5F5F5F5
310
F5F5F5F5F5F5F5F5F5F5F5F5F5F5F5F5F5F5F5F5F5F5F5E2F5F5F5F5F5F5F5F5F5F5F5F5F5F5F5F5E2F5F5F5E2E2EFF5F5F5E2F5F5F5F5F5F5F5F5F5F5F5F5F5F5F5F5E2F5F5F5F5F5F5F5F5F5F5F5F5F5F5F5F5F5F5F5F5F5F5F5F5F5F5F5F5F5F5F5F5F5F5F5F5F5F5F5F5F5F5F5F5F5F5F5F5F5F5F5F5F5F5F5F5F5F5F5
310
F5F5F5F5F5F5F5F5F5F5F5F5F5F5F5F5F5F5F5F5F5F5F5F5F5F5F5F5F5F5F5F5F5F5F5F5F5F5F5F5F5F5F5F5F5F5F5F5F5F5F5F5F5F5F5F5F5F5F5F5F5F5F5F5F5F5F5F5F5F5F5F5F5F5F5F5E2F5F5F5F5F5F5F5F5F5F5F5F5F5F5F5F5E2F5F5F5E2E2EFF5F5F5E2F5F5F5F5F5F5F5F5F5F5F5F5F5F5F5F5E2F5F5F5F5F5F5
310
F5F5F5F5F5F5F5F5F5F5F5F5F5F5F5F5F5F5F5F5F5F5F5F5F5F5F5F5F5F5F5F5F5F5F5F5F5F5F5F5F5F5F5F5F5F5F5F5F5F5F5F5F5F5F5F5F5F5F5F5F5F5F5F5F5F5F5F5F5F5F5F5F5F5F5F5F5F5F5F5F5F5F5F5F5F5F5F5F5F5F5F5F5F5F5F5F5F5F5F5F5F5F5F5F5F5F5F5F5F5F5F5F5F5F5F5F5F5F5F5F5F5F5F5F5F5F5
310
F5F5E2F5F5F5F5F5F5F5F5F5F5F5F5F5F5F5F5E2F5F5F5E2E2EFF5F5F5F5F5F5F5F5F5F5F5F5F5F5F5F5F5F5F5F5E2F5F5F5F5F5F5F5F5F5F5F5F5F5F5F5F5F5F5F5F5F5F5F5F5F5F5F5F5F5F5F5F5F5F5F5F5F5F5F5F5F5F5F5F5F5F5F5F5F5F5F5F5F5F5F5F5F5F5F5F5F5F5F5F5F5F5F5F5F5F5F5F5F5F5F5F5F5F5F5F5
310
F5F5F5F5F5F5F5F5F5F5F5F5F5F5F5F5F5F5F5F5F5F5F5F5F5F5F5F5F5F5F5F5F5F5F5F5F5F5F5F5F5F5F5F5F5F5F5F5F5F5F5F5F5F5F5E2F5F5F5F5F5F5F5F5F5F5F5F5F5F5F5F5F5F5F5F5E2E2EFF5F5F5F5F5F5F5F5F5F5F5F5F5F5F5F5F5F5F5F5E2F5F5F5F5F5F5F5F5F5F5F5F5F5F5F5F5F5F5F5F5F5F5F5F5F5F5F5
310
F5F5F5F5F5F5F5F5F5F5F5F5F5F5F5F5F5F5F5F5F5F5F5F5F5F5F5F5F5F5F5F5F5F5F5F5F5F5F5F5F5F5F5F5F5F5F5F5F5F5F5F5F5F5F5F5F5F5F5F5F5F5F5F5F5F5F5F5F5F5F5F5F5F5F5F5F5F5F5F5F5F5F5F5F5F5F5F5F5F5F5F5F5F5F5F5F5F5F5F5F5F5F5F5F5F5F5F5E2F5F5F5F5F5F5F5F5F5F5F5F5F5F5F5F5F5F5
310
F5F5E2E2EFF5F5F5F5F5F5F5F5F5F5F5F5F5F5F5F5F5F5F5F5E2F5F5F5F5F5F5F5F5F5F5F5F5F5F5F5F5F5F5F5F5F5F5F5F5F5F5F5F5F5F5F5F5F5F5F5F5F5F5F5F5F5F5F5F5F5F5F5F5F5F5F5F5F5F5F5F5F5F5F5F5F5F5F5F5F5F5F5F5F5F5F5F5F5F5F5F5F5F5F5F5F5F5F5F5F5F5F5F5F5F5F5F5F5F5F5F5F5F5F5F5F5
310
F5F5F5F5F5F5F5F5F5F5F5F5F5F5F5F5F5F5F5F5F5F5F5F5F5F5F5F5F5F5F5F5F5F5E2F5F5F5F5F5F5F5F5F5F5F5F5F5F5F5F5F5F5F5F5E2E2EFF5F5F5F5F5F5F5F5F5F5F5F5F5F5F5F5F5F5F5F5E2F5F5F5F5F5F5F5F5F5F5F5F5F5F5F5F5F5F5F5F5F5F5F5F5F5F5F5F5F5F5F5F5F5F5F5F5F5F5F5F5F5F5F5F5F5F5F5F5
310
F5F5F5F5F5F5F5F5F5F5F5F5F5F5F5F5F5F5F5F5F5F5F5F5F5F5F5F5F5F5F5F5F5F5F5F5F5F5F5F5F5F5F5F5F5F5F5F5F5F5F5F5F5F5F5F5F5F5F5F5F5F5F5F5F5F5F5F5F5F5F5F5F5F5F5F5F5F5F5F5F5F5F5F5F5F5F5E2F5F5F5F5F5F5F5F5F5F5F5F5F5F5F5F5F5F5F5F5E2E2EFF5F5F5F5F5F5F5F5F5F5F5F5F5F5F5F5
310
F5F5F5F5E2E2E2E2E2E2E2E2E2E2E2E2E2E2E2E2E2E2E2E2E2E2E2E2E2E2E2E2E2E2E2E2E2E2E2E2E2E2E2E2E2E2E2E2E2E2E2E2E2E2E2E2E2E2E2E2E2E2E2E2E2E2E2E2E2E2E2E2E2E2E2E2E2E2E2E2E2E2E2E2E2E2E2E2E2E2E2E2E2E2E2E2E2E2E2E2E2E2E2E2E2E2E2E2E2E2E2E2E2E2E2E2E2E2E2E2E2E2E2E2E2E2E2
310
E2E2E2E2E2E2E2E2E2E2E2E2E2E2F5F5F5F5F5F5F5F5F5F5F5F5F5F5F5F5F5F5F5F5E2E2EFF5F5F5F5F5F5F5F5F5F5F5F5F5F5F5F5F5F5F5F5F5F5F5F5F5F5F5F5F5F5F5F5F5F5F5F5F5F5F5F5F5F5F5F5F5F5F5F5F5F5F5F5F5F5F5F5F5F5F5F5F5F5F5F5F5F5F5F5F5F5F5F5F5F5F5F5F5F5F5F5F5F5F5F5F5F5F5F5F5F5
310
F5F5F5F5F5F5F5F5F5F5F5F5F5F5F5F5F5F5F5F5F5F5F5F5F5F5F5F5F5F5F5F5F5F5F5F5F5F5F5F5F5F5F5F5F5F5F5F5F5F5F5F5F5F5F5F5F5F5F5F5F5F5F5F5F5F5F5F5F5F5F5F5F5F5F5F5F5F5F5F5F5F5F5F5F5F5F5E2E2EFF5F5F5F5F5F5F5F5F5F5F5F5F5F5F5F5F5F5F5F5F5F5F5F5F5F5F5F5F5F5F5F5F5F5F5F5F5
310
F5F5F5F5F5F5F5F5F5F5F5F5F5F5F5F5F5F5F5F5F5F5F5F5F5F5F5F5F5F5F5F5F5F5F5F5F5F5F5F5F5F5F5F5F5F5F5F5F5F5F5F5F5F5F5F5F5F5F5F5F5F5F5F5F5F5F5F5F5F5F5F5F5F5F5F5F5F5F5F5F5F5F5F5F5F5F5F5F5F5F5F5F5F5F5F5F5F5F5F5F5F5F5F5F5F5F5F5F5F5F5F5F5F5F5F5F5F5F5F5F5F5F5F5F5F5F5
310
F5F5F5F5F5F5F5F5F5F5F5F5F5E2E2EFF5F5F5F5F5F5F5F5F5F5F5F5F5F5F5F5F5F5F5F5F5F5F5F5F5F5F5F5F5F5F5F5F5F5F5F5F5F5F5F5F5F5F5F5F5F5F5F5F5F5F5F5F5F5F5F5F5F5F5F5F5F5F5F5F5F5F5F5F5F5F5F5F5F5F5F5F5F5F5F5F5F5F5F5F5F5F5F5F5F5F5F5F5F5F5F5F5F5F5F5F5F5F5F5F5F5F5F5F5F5F5
310
F5F5F5F5F5F5F5F5F5F5F5F5F5F5F5F5F5F5F5F5F5F5F5F5F5F5F5F5F5F5F5F5F5F5F5F5F5F5F5F5F5F5F5F5F5F5F5F5F5F5F5F5F5F5F5F5F5F5F5F5F5F5F5F5F5F5E2E2EFF5F5F5F5F5F5F5F5F5F5F5F5F5F5F5F5F5F5F5F5F5F5F5F5F5F5F5F5F5F5F5F5F5F5F5F5F5F5F5F5F5F5F5F5F5F5F5F5F5F5F5F5F5F5F5F5F5F5
310
F5F5F5F5F5F5F5F5F5F5F5F5F5F5F5F5F5F5F5F5F5F5F5F5F5F5F5F5F5F5F5F5F5F5F5F5F5F5F5F5F5F5F5F5F5F5F5F5F5F5F5F5F5F5F5F5F5F5F5F5F5F5F5F5F5F5F5F5F5F5F5F5F5F5F5F5F5F5F5F5F5F5F5F5F5F5F5F5F5F5F5F5F5F5F5F5F5F5F5F5F5F5F5F5F5F5F5F5F5F5F5F5F5F5F5F5F5F5F5E2E2EFF5F5F5E2F5
310
F5F5F5F5F5F5F5F5F5F5F5F5F5F5F5F5F5F5F5F5F5F5F5F5F5F5F5F5F5F5F5F5F5F5F5F5F5F5F5F5F5F5F5F5F5F5F5F5F5F5F5F5F5F5F5F5F5F5F5F5F5F5F5F5F5F5F5F5F5F5F5F5F5F5F5F5F5F5F5F5F5F5F5F5F5F5F5F5F5F5F5F5F5F5F5F5F5F5F5F5F5F5F5F5F5F5F5F5F5F5F5F5F5F5F5F5F5F5F5F5F5F5F5F5F5F5F5
310
F5F5F5F5F5F5F5F5F5F5F5F5F5F5F5F5F5F5F5F5F5F5F5F5F5F5F5F5F5F5F5F5F5F5F5F5F5F5F5F5F5E2F5F5F5E2E2EFF5F5F5E2F5F5F5F5F5F5F5F5F5F5F5F5F5F5F5F5F5F5F5F5F5F5F5F5F5F5F5F5F5F5F5F5F5F5F5F5F5F5F5F5F5F5F5F5F5F5F5F5F5F5F5F5F5F5F5F5F5F5F5F5F5F5F5F5F5F5F5F5F5F5F5F5F5F5F5
310
F5F5F5F5F5F5F5F5F5F5F5F5F5F5F5F5F5F5F5F5F5F5F5F5F5F5F5F5F5F5F5F5F5F5F5F5F5F5F5F5F5F5F5F5F5F5F5F5F5F5F5F5F5F5F5F5F5F5F5F5F5F5F5F5F5F5F5F5F5F5F5F5F5F5F5F5F5F5F5F5F5F5F5F5F5F5F5F5F5F5F5F5F5F5E2F5F5F5E2E2EFF5F5F5E2F5F5F5F5F5F5F5F5F5F5F5F5F5F5F5F5F5F5F5F5F5F5
310
F5F5F5F5F5F5F5F5F5F5F5F5F5F5F5F5F5F5F5F5F5F5F5F5F5F5F5F5F5F5F5F5F5F5F5F5F5F5F5F5F5F5F5F5F5F5F5F5F5F5F5F5F5F5F5F5F5F5F5F5F5F5F5F5F5F5F5F5F5F5F5F5F5F5F5F5F5F5F5F5F5F5F5F5F5F5F5F5F5F5F5F5F5F5F5F5F5F5F5F5F5F5F5F5F5F5F5F5F5F5F5F5F5F5F5F5F5F5F5F5F5F5F5F5F5F5F5
310
F5F5F5F5F5F5F5F5F5F5F5F5F5F5F5F5F5F5F5F5E2F5F5F5E2E2EFF5F5F5E2F5F5F5F5F5F5F5F5F5F5F5F5F5F5F5F5F5F5F5F5F5F5F5F5F5F5F5F5F5F5F5F5F5F5F5F5F5F5F5F5F5F5F5F5F5F5F5F5F5F5F5F5F5F5F5F5F5F5F5F5F5F5F5F5F5F5F5F5F5F5F5F5F5F5F5F5F5F5F5F5F5F5F5F5F5F5F5F5F5F5F5F5F5F5F5F5
310
F5F5F5F5F5F5F5F5F5F5F5F5F5F5F5F5F5F5F5F5F5F5F5F5F5F5F5F5F5F5F5F5F5F5F5F5F5F5F5F5F5F5F5F5F5F5F5F5F5F5F5F5F5F5F5F5F5F5F5F5F5F5F5F5F5F5F5F5F5F5F5F5F5E2F5F5F5E2E2EFF5F5F5E2F5F5F5F5F5F5F5F5F5F5F5F5F5F5F5F5F5F5F5F5F5F5F5F5F5F5F5F5F5F5F5F5F5F5F5F5F5F5F5F5F5F5F5
310
F5F5F5F5F5F5F5F5F5F5F5F5F5F5F5F5F5F5F5F5F5F5F5F5F5F5F5F5F5F5F5F5F5F5F5F5F5F5F5F5F5F5F5F5F5F5F5F5F5F5F5F5F5F5F5F5F5F5F5F5F5F5F5F5F5F5F5F5F5F5F5F5F5F5F5F5F5F5F5F5F5F5F5F5F5F5F5F5F5F5F5F5F5F5F5F5F5F5F5F5F5F5F5F5F5F5F5F5F5F5F5F5F5F5F5F5F5F5F5F5F5F5F5F5F5F5E2
310
F5F5F5E2E2EFF5F5F5E2F5F5F5F5F5F5F5F5F5F5F5F5F5F5F5F5F5F5F5F5F5F5F5F5F5F5F5F5F5F5F5F5F5F5F5F5F5F5F5F5F5F5F5F5F5F5F5F5F5F5F5F5F5F5F5F5F5F5F5F5F5F5F5F5F5F5F5F5F5F5F5F5F5F5F5F5F5F5F5F5F5F5F5F5F5F5F5F5F5F5F5F5F5F5F5F5F5F5F5F5F5F5F5F5F5F5F5F5F5F5F5F5F5F5F5F5F5
310
F5F5F5F5F5F5F5F5F5F5F5F5F5F5F5F5F5F5F5F5F5F5F5F5F5F5F5F5F5F5F5F5F5F5F5F5F5F5F5F5F5F5F5F5F5F5F5F5F5F5F5F5E2F5F5F5E2E2EFF5F5F5E2F5F5F5F5F5F5F5F5F5F5F5F5F5F5F5F5F5F5F5F5F5F5F5F5F5F5F5F5F5F5F5F5F5F5F5F5F5F5F5F5F5F5F5F5F5F5F5F5F5F5F5F5F5F5F5F5F5F5F5F5F5F5F5F5
310
F5F5F5F5F5F5F5F5F5F5F5F5F5F5F5F5F5F5F5F5F5F5F5F5F5F5F5F5F5F5F5F5F5F5F5F5F5F5F5F5F5F5F5F5F5F5F5F5F5F5F5F5F5F5F5F5F5F5F5F5F5F5F5F5F5F5F5F5F5F5F5F5F5F5F5F5F5F5F5F5F5F5F5F5F5F5F5F5F5F5F5F5F5F5F5F5F5F5F5F5F5F5F5F5F5E2F5F5F5E2E2EFF5F5F5E2F5F5F5F5F5F5F5F5F5F5F5
310
F5F5F5F5F5F5F5F5F5F5F5F5F5F5F5F5F5F5F5F5F5F5F5F5F5F5F5F5F5F5F5F5F5F5F5F5F5F5F5F5F5F5F5F5F5F5F5F5F5F5F5F5F5F5F5F5F5F5F5F5F5F5F5F5F5F5F5F5F5F5F5F5F5F5F5F5F5F5F5F5F5F5F5F5F5F5F5F5F5F5F5F5F5F5F5F5F5F5F5F5F5F5F5F5F5F5F5F5F5F5F5F5F5F5F5F5F5F5F5F5F5F5F5F5F5F5F5
310
F5F5F5F5F5F5F5F5F5F5F5F5F5F5F5F5F5F5F5F5F5F5F5F5F5F5F5F5F5F5F5E2F5F5F5E2E2EFF5F5F5E2E2E2E2E2E2E2E2F5F5F5F5F5F5F5F5F5E2E2E2E2E2E2E2E2E2E2E2E2E2E2E2E2F5F5F5F5F5F5F5F5E2E2E2E2E2E2E2E2E2E2E2E2E2E2E2E2F5F5F5F5F5F5F5F5F5E2E2E2E2E2E2E2E2E2E2E2E2E2E2E2F5F5F5F5F5
310
F5F5F5F5E2E2E2E2E2E2E2E2E2E2E2E2E2E2E2F5F5F5F5F5F5F5F5F5E2E2E2E2E2E2E2E2E2E2E2E2E2E2E2E2F5F5F5F5F5F5F5F5E2E2E2E2E2E2E2E2E2E2E2E2E2E2E2E2F5F5F5F5F5F5F5F5F5E2E2E2E2E2E2E2E2F5F5F5E2E2EFF5F5F5F5F5F5F5F5F5F5F5F5F5F5F5F5F5F5F5F5F5F5F5F5F5F5F5F5F5F5F5F5F5F5F5F5
310
F5F5F5F5F5F5F5F5F5F5F5F5F5F5F5F5F5F5F5F5F5F5F5F5F5F5F5F5F5F5F5F5F5F5F5F5F5F5F5F5F5F5F5F5F5F5F5F5F5F5F5F5F5F5F5F5F5F5F5F5F5F5F5F5F5F5F5F5F5F5F5F5F5F5F5F5F5F5F5F5F5F5F5F5F5F5F5F5F5F5F5F5F5F5F5F5F5F5F5F5F5F5F5F5F5F5F5F5F5F5F5F5F5F5F5F5F5F5F5F5F5F5F5F5F5F5F5
310
F5F5F5F5F5F5F5F5F5F5F5F5F5F5E2E2EFF5F5F5F5F5F5F5F5F5F5F5F5F5F5F5F5F5F5F5F5F5F5F5F5F5F5F5F5F5F5F5F5F5F5F5F5F5F5F5F5F5F5F5F5F5F5F5F5F5F5F5F5F5F5F5F5F5F5F5F5F5F5F5F5F5F5F5F5F5F5F5F5F5F5F5F5F5F5F5F5F5F5F5F5F5F5F5F5F5F5F5F5F5F5F5F5F5F5F5F5F5F5F5F5F5F5F5F5F5F5
310
F5F5F5F5F5F5F5F5F5F5F5F5F5F5F5F5F5F5F5F5F5F5F5F5F5F5F5F5F5F5F5F5F5F5F5F5F5F5F5F5F5F5F5F5F5F5F5F5F5F5F5F5F5F5F5F5F5F5F5F5F5F5F5F5F5F5F5E2EFEFF5F5F5F5F5F5F5F5F5F5F5F5F5F5F5F5F5F5F5F5F5F5F5F5F5F5F5F5F5F5F5F5F5F5F5F5F5F5F5F5F5F5F5F5F5F5F5F5F5F5F5F5F5F5F5F5F5
310
F5F5F5F5F5F5F5F5F5F5F5F5F5F5F5F5F5F5F5F5F5F5F5F5F5F5F5F5F5F5F5F5F5F5F5F5F5F5F5F5F5F5F5F5F5F5F5F5F5F5F5F5F5F5F5F5F5F5F5F5F5F5F5F5F5F5F5F5F5F5F5F5F5F5F5F5F5F5F5F5F5F5F5F5F5F5F5F5F5F5F5F5F5F5F5F5F5F5F5F5F5F5F5F5F5F5F5F5F5F5F5F5F5F5F5F5F5F5F5F5E2EFEFE2E2E2E2
310
E2E2E2E2E2E2E2E2E2E2E2E2E2E2E2E2E2E2E2E2E2E2E2E2E2E2E2E2E2E2E2E2E2E2E2E2E2E2E2E2E2E2E2E2E2E2E2E2E2E2E2E2E2E2E2E2E2E2E2E2E2E2E2E2E2E2E2E2E2E2E2E2E2E2E2E2E2E2E2E2E2E2E2E2E2E2E2E2E2E2E2E2E2E2E2E2E2E2E2E2E2E2E2E2E2E2E2E2E2E2E2E2E2E2E2E2E2E2E2E2E2E2E2E2E2E2E2
310
E2E2E2E2E2E2E2E2E2E2E2E2E2E2E2E2E2E2E2E2E2E2E2E2E2E2E2E2E2E2E2E2E2E2E2E2E2E2E2E2E2E2E2E2E2E2E2EFEF
  0
ENDSEC
  0
EOF
