  0
SECTION
  2
HEADER
  9
$ACADVER
  1
AC1018
  9
$ACADMAINTVER
 70
     0
  9
$DWGCODEPAGE
  3
ANSI_1252
  9
$AUTHOR
  1
g6edxjah
  9
$LASTSAVEDBY
  1
g6edxjah
  9
$INSBASE
 10
0.0
 20
0.0
 30
0.0
  9
$EXTMIN
 10
44.043458
 20
-0.081542
 30
0.0
  9
$EXTMAX
 10
52.456542
 20
11.081542
 30
0.0
  9
$LIMMIN
 10
20.293291
 20
-22.456709
  9
$LIMMAX
 10
76.206709
 20
33.456709
  9
$ORTHOMODE
 70
     0
  9
$REGENMODE
 70
     1
  9
$FILLMODE
 70
     1
  9
$QTEXTMODE
 70
     0
  9
$MIRRTEXT
 70
     0
  9
$LTSCALE
 40
1.0
  9
$ATTMODE
 70
     1
  9
$TEXTSIZE
 40
0.1
  9
$TRACEWID
 40
0.05
  9
$TEXTSTYLE
  7
Standard
  9
$CLAYER
  8
2-19C
  9
$CELTYPE
  6
Continuous
  9
$CECOLOR
 62
     7
  9
$CELTSCALE
 40
1.0
  9
$DISPSILH
 70
     0
  9
$DIMSCALE
 40
1.0
  9
$DIMASZ
 40
0.1
  9
$DIMEXO
 40
0.05
  9
$DIMDLI
 40
0.0
  9
$DIMRND
 40
0.0
  9
$DIMDLE
 40
0.0
  9
$DIMEXE
 40
0.05
  9
$DIMTP
 40
0.0
  9
$DIMTM
 40
0.0
  9
$DIMTXT
 40
0.1
  9
$DIMCEN
 40
0.09
  9
$DIMTSZ
 40
0.0
  9
$DIMTOL
 70
     0
  9
$DIMLIM
 70
     0
  9
$DIMTIH
 70
     0
  9
$DIMTOH
 70
     0
  9
$DIMSE1
 70
     0
  9
$DIMSE2
 70
     0
  9
$DIMTAD
 70
     1
  9
$DIMZIN
 70
    11
  9
$DIMBLK
  1
TerminatorOpen_0.5
  9
$DIMASO
 70
     1
  9
$DIMSHO
 70
     1
  9
$DIMPOST
  1

  9
$DIMAPOST
  1

  9
$DIMALT
 70
     0
  9
$DIMALTD
 70
     4
  9
$DIMALTF
 40
25.4
  9
$DIMLFAC
 40
1.0
  9
$DIMTOFL
 70
     0
  9
$DIMTVP
 40
0.0
  9
$DIMTIX
 70
     0
  9
$DIMSOXD
 70
     0
  9
$DIMSAH
 70
     0
  9
$DIMBLK1
  1

  9
$DIMBLK2
  1

  9
$DIMSTYLE
  2
Standard
  9
$DIMCLRD
 70
     0
  9
$DIMCLRE
 70
     0
  9
$DIMCLRT
 70
     0
  9
$DIMTFAC
 40
1.0
  9
$DIMGAP
 40
0.05
  9
$DIMJUST
 70
     0
  9
$DIMSD1
 70
     0
  9
$DIMSD2
 70
     0
  9
$DIMTOLJ
 70
     0
  9
$DIMTZIN
 70
    11
  9
$DIMALTZ
 70
    15
  9
$DIMALTTZ
 70
    15
  9
$DIMUPT
 70
     0
  9
$DIMDEC
 70
     4
  9
$DIMTDEC
 70
     4
  9
$DIMALTU
 70
     2
  9
$DIMALTTD
 70
     4
  9
$DIMTXSTY
  7
Style-Arial
  9
$DIMAUNIT
 70
     0
  9
$DIMADEC
 70
     4
  9
$DIMALTRND
 40
0.0
  9
$DIMAZIN
 70
     3
  9
$DIMDSEP
 70
    46
  9
$DIMATFIT
 70
     1
  9
$DIMFRAC
 70
     0
  9
$DIMLDRBLK
  1
TerminatorOpen_0.5
  9
$DIMLUNIT
 70
     2
  9
$DIMLWD
 70
    -2
  9
$DIMLWE
 70
    -2
  9
$DIMTMOVE
 70
     0
  9
$LUNITS
 70
     2
  9
$LUPREC
 70
     4
  9
$SKETCHINC
 40
0.1
  9
$FILLETRAD
 40
0.0
  9
$AUNITS
 70
     0
  9
$AUPREC
 70
     4
  9
$MENU
  1
.
  9
$ELEVATION
 40
0.0
  9
$PELEVATION
 40
0.0
  9
$THICKNESS
 40
0.0
  9
$LIMCHECK
 70
     0
  9
$CHAMFERA
 40
0.0
  9
$CHAMFERB
 40
0.0
  9
$CHAMFERC
 40
0.0
  9
$CHAMFERD
 40
0.0
  9
$SKPOLY
 70
     0
  9
$TDCREATE
 40
2455344.332384051
  9
$TDUCREATE
 40
2455344.540717384
  9
$TDUPDATE
 40
2455344.332384051
  9
$TDUUPDATE
 40
2455344.540717384
  9
$TDINDWG
 40
0.0
  9
$TDUSRTIMER
 40
0.0006630093
  9
$USRTIMER
 70
     1
  9
$ANGBASE
 50
0.0
  9
$ANGDIR
 70
     0
  9
$PDMODE
 70
     0
  9
$PDSIZE
 40
0.0
  9
$PLINEWID
 40
0.0
  9
$SPLFRAME
 70
     0
  9
$SPLINETYPE
 70
     6
  9
$SPLINESEGS
 70
     8
  9
$HANDSEED
  5
592
  9
$SURFTAB1
 70
     6
  9
$SURFTAB2
 70
     6
  9
$SURFTYPE
 70
     6
  9
$SURFU
 70
     6
  9
$SURFV
 70
     6
  9
$UCSBASE
  2

  9
$UCSNAME
  2

  9
$UCSORG
 10
0.0
 20
0.0
 30
0.0
  9
$UCSXDIR
 10
1.0
 20
0.0
 30
0.0
  9
$UCSYDIR
 10
0.0
 20
1.0
 30
0.0
  9
$UCSORTHOREF
  2

  9
$UCSORTHOVIEW
 70
     0
  9
$UCSORGTOP
 10
0.0
 20
0.0
 30
0.0
  9
$UCSORGBOTTOM
 10
0.0
 20
0.0
 30
0.0
  9
$UCSORGLEFT
 10
0.0
 20
0.0
 30
0.0
  9
$UCSORGRIGHT
 10
0.0
 20
0.0
 30
0.0
  9
$UCSORGFRONT
 10
0.0
 20
0.0
 30
0.0
  9
$UCSORGBACK
 10
0.0
 20
0.0
 30
0.0
  9
$PUCSBASE
  2

  9
$PUCSNAME
  2

  9
$PUCSORG
 10
0.0
 20
0.0
 30
0.0
  9
$PUCSXDIR
 10
1.0
 20
0.0
 30
0.0
  9
$PUCSYDIR
 10
0.0
 20
1.0
 30
0.0
  9
$PUCSORTHOREF
  2

  9
$PUCSORTHOVIEW
 70
     0
  9
$PUCSORGTOP
 10
0.0
 20
0.0
 30
0.0
  9
$PUCSORGBOTTOM
 10
0.0
 20
0.0
 30
0.0
  9
$PUCSORGLEFT
 10
0.0
 20
0.0
 30
0.0
  9
$PUCSORGRIGHT
 10
0.0
 20
0.0
 30
0.0
  9
$PUCSORGFRONT
 10
0.0
 20
0.0
 30
0.0
  9
$PUCSORGBACK
 10
0.0
 20
0.0
 30
0.0
  9
$USERI1
 70
     0
  9
$USERI2
 70
     0
  9
$USERI3
 70
     0
  9
$USERI4
 70
     0
  9
$USERI5
 70
     0
  9
$USERR1
 40
0.0
  9
$USERR2
 40
0.0
  9
$USERR3
 40
0.0
  9
$USERR4
 40
0.0
  9
$USERR5
 40
0.0
  9
$WORLDVIEW
 70
     1
  9
$SHADEDGE
 70
     3
  9
$SHADEDIF
 70
    70
  9
$TILEMODE
 70
     1
  9
$MAXACTVP
 70
    64
  9
$PINSBASE
 10
0.0
 20
0.0
 30
0.0
  9
$PLIMCHECK
 70
     0
  9
$PEXTMIN
 10
1.049744
 20
0.799667
 30
-0.001526
  9
$PEXTMAX
 10
9.450623
 20
7.200577
 30
0.0
  9
$PLIMMIN
 10
-0.25
 20
-0.25
  9
$PLIMMAX
 10
10.75
 20
8.25
  9
$UNITMODE
 70
     0
  9
$VISRETAIN
 70
     1
  9
$PLINEGEN
 70
     0
  9
$PSLTSCALE
 70
     0
  9
$TREEDEPTH
 70
  3020
  9
$CMLSTYLE
  2
Standard
  9
$CMLJUST
 70
     0
  9
$CMLSCALE
 40
1.0
  9
$PROXYGRAPHICS
 70
     1
  9
$MEASUREMENT
 70
     0
  9
$CELWEIGHT
370
    53
  9
$ENDCAPS
280
     0
  9
$JOINSTYLE
280
     0
  9
$LWDISPLAY
290
     1
  9
$INSUNITS
 70
     2
  9
$HYPERLINKBASE
  1

  9
$STYLESHEET
  1

  9
$XEDIT
290
     1
  9
$CEPSNTYPE
380
     0
  9
$PSTYLEMODE
290
     1
  9
$FINGERPRINTGUID
  2
{02C0BBB5-38A7-4FBF-829E-00875EC88963}
  9
$VERSIONGUID
  2
{82C521FC-BF81-46B3-825E-420B6BD93A99}
  9
$EXTNAMES
290
     1
  9
$PSVPSCALE
 40
0.0
  9
$OLESTARTUP
290
     0
  9
$SORTENTS
280
   127
  9
$INDEXCTL
280
     0
  9
$HIDETEXT
280
     1
  9
$XCLIPFRAME
290
     0
  9
$HALOGAP
280
     0
  9
$OBSCOLOR
 70
   257
  9
$OBSLTYPE
280
     0
  9
$INTERSECTIONDISPLAY
280
     0
  9
$INTERSECTIONCOLOR
 70
   257
  9
$DIMASSOC
280
     1
  9
$PROJECTNAME
  1

  0
ENDSEC
  0
SECTION
  2
CLASSES
  0
CLASS
  1
ACDBDICTIONARYWDFLT
  2
AcDbDictionaryWithDefault
  3
ObjectDBX Classes
 90
        0
 91
        3
280
     0
281
     0
  0
CLASS
  1
SORTENTSTABLE
  2
AcDbSortentsTable
  3
ObjectDBX Classes
 90
        0
 91
        3
280
     0
281
     0
  0
ENDSEC
  0
SECTION
  2
TABLES
  0
TABLE
  2
VPORT
  5
576
330
0
100
AcDbSymbolTable
 70
     4
  0
VPORT
  5
49
330
576
100
AcDbSymbolTableRecord
100
AcDbViewportTableRecord
  2
*ACTIVE
 70
     0
 10
0.0
 20
0.0
 11
1.0
 21
1.0
 12
48.25
 22
5.5
 13
0.0
 23
0.0
 14
0.083333
 24
0.083333
 15
0.083333
 25
0.083333
 16
0.0
 26
0.0
 36
1.0
 17
0.0
 27
0.0
 37
0.0
 40
11.609607
 41
1.884937
 42
50.0
 43
0.0
 44
0.0
 50
0.0
 51
0.0
 71
     0
 72
   100
 73
     1
 74
     2
 75
     0
 76
     0
 77
     0
 78
     1
281
     0
 65
     1
110
0.0
120
0.0
130
0.0
111
1.0
121
0.0
131
0.0
112
0.0
122
1.0
132
0.0
 79
     0
146
0.0
  0
ENDTAB
  0
TABLE
  2
LTYPE
  5
55D
330
0
100
AcDbSymbolTable
 70
     1
  0
LTYPE
  5
55E
330
55D
100
AcDbSymbolTableRecord
100
AcDbLinetypeTableRecord
  2
ByBlock
 70
     0
  3

 72
    65
 73
     0
 40
0.0
  0
LTYPE
  5
55F
330
55D
100
AcDbSymbolTableRecord
100
AcDbLinetypeTableRecord
  2
ByLayer
 70
     0
  3

 72
    65
 73
     0
 40
0.0
  0
LTYPE
  5
55C
330
55D
100
AcDbSymbolTableRecord
100
AcDbLinetypeTableRecord
  2
Continuous
 70
     0
  3
Solid line
 72
    65
 73
     0
 40
0.0
  0
ENDTAB
  0
TABLE
  2
LAYER
  5
556
102
{ACAD_XDICTIONARY
360
557
102
}
330
0
100
AcDbSymbolTable
 70
    64
  0
LAYER
  5
555
330
556
100
AcDbSymbolTableRecord
100
AcDbLayerTableRecord
  2
0
 70
     0
 62
     7
  6
Continuous
370
    -3
390
559
  0
LAYER
  5
7
330
556
100
AcDbSymbolTableRecord
100
AcDbLayerTableRecord
  2
Level 1
 70
     0
 62
     7
  6
Continuous
370
     0
390
559
  0
LAYER
  5
8
330
556
100
AcDbSymbolTableRecord
100
AcDbLayerTableRecord
  2
2-19C
 70
     0
 62
     7
  6
Continuous
370
     0
390
559
1001
AcAecLayerStandard
1000

1000
2-19C
  0
LAYER
  5
9
330
556
100
AcDbSymbolTableRecord
100
AcDbLayerTableRecord
  2
BORDER
 70
     0
 62
     7
  6
Continuous
370
     0
390
559
1001
AcAecLayerStandard
1000

1000
BORDER
  0
LAYER
  5
A
330
556
100
AcDbSymbolTableRecord
100
AcDbLayerTableRecord
  2
DEFPOINTS
 70
     0
 62
     7
  6
Continuous
290
     0
370
     0
390
559
1001
AcAecLayerStandard
1000

1000
DEFPOINTS
  0
LAYER
  5
B
330
556
100
AcDbSymbolTableRecord
100
AcDbLayerTableRecord
  2
DIM
 70
     0
 62
     7
  6
Continuous
370
     0
390
559
1001
AcAecLayerStandard
1000

1000
DIM
  0
LAYER
  5
C
330
556
100
AcDbSymbolTableRecord
100
AcDbLayerTableRecord
  2
HATCH
 70
     0
 62
     7
  6
Continuous
370
     0
390
559
1001
AcAecLayerStandard
1000

1000
HATCH
  0
LAYER
  5
D
330
556
100
AcDbSymbolTableRecord
100
AcDbLayerTableRecord
  2
NOTES
 70
     0
 62
     7
  6
Continuous
370
     0
390
559
1001
AcAecLayerStandard
1000

1000
NOTES
  0
LAYER
  5
E
330
556
100
AcDbSymbolTableRecord
100
AcDbLayerTableRecord
  2
REF
 70
     0
 62
     7
  6
Continuous
370
     0
390
559
1001
AcAecLayerStandard
1000

1000
REF
  0
LAYER
  5
F
330
556
100
AcDbSymbolTableRecord
100
AcDbLayerTableRecord
  2
TEXT
 70
     0
 62
     7
  6
Continuous
370
     0
390
559
1001
AcAecLayerStandard
1000

1000
TEXT
  0
LAYER
  5
10
330
556
100
AcDbSymbolTableRecord
100
AcDbLayerTableRecord
  2
TITLE
 70
     0
 62
     7
  6
Continuous
370
     0
390
559
1001
AcAecLayerStandard
1000

1000
TITLE
  0
LAYER
  5
11
330
556
100
AcDbSymbolTableRecord
100
AcDbLayerTableRecord
  2
Level 11
 70
     0
 62
     7
  6
Continuous
370
     0
390
559
  0
LAYER
  5
12
330
556
100
AcDbSymbolTableRecord
100
AcDbLayerTableRecord
  2
Level 12
 70
     0
 62
     7
  6
Continuous
370
     0
390
559
  0
LAYER
  5
13
330
556
100
AcDbSymbolTableRecord
100
AcDbLayerTableRecord
  2
Level 13
 70
     0
 62
     7
  6
Continuous
370
     0
390
559
  0
LAYER
  5
14
330
556
100
AcDbSymbolTableRecord
100
AcDbLayerTableRecord
  2
Level 14
 70
     0
 62
     7
  6
Continuous
370
     0
390
559
  0
LAYER
  5
15
330
556
100
AcDbSymbolTableRecord
100
AcDbLayerTableRecord
  2
Level 15
 70
     0
 62
     7
  6
Continuous
370
     0
390
559
  0
LAYER
  5
16
330
556
100
AcDbSymbolTableRecord
100
AcDbLayerTableRecord
  2
Level 16
 70
     0
 62
     7
  6
Continuous
370
     0
390
559
  0
LAYER
  5
17
330
556
100
AcDbSymbolTableRecord
100
AcDbLayerTableRecord
  2
Level 17
 70
     0
 62
     7
  6
Continuous
370
     0
390
559
  0
LAYER
  5
18
330
556
100
AcDbSymbolTableRecord
100
AcDbLayerTableRecord
  2
Level 18
 70
     0
 62
     7
  6
Continuous
370
     0
390
559
  0
LAYER
  5
19
330
556
100
AcDbSymbolTableRecord
100
AcDbLayerTableRecord
  2
Level 19
 70
     0
 62
     7
  6
Continuous
370
     0
390
559
  0
LAYER
  5
1A
330
556
100
AcDbSymbolTableRecord
100
AcDbLayerTableRecord
  2
Level 20
 70
     0
 62
     7
  6
Continuous
370
     0
390
559
  0
LAYER
  5
1B
330
556
100
AcDbSymbolTableRecord
100
AcDbLayerTableRecord
  2
Level 21
 70
     0
 62
     7
  6
Continuous
370
     0
390
559
  0
LAYER
  5
1C
330
556
100
AcDbSymbolTableRecord
100
AcDbLayerTableRecord
  2
Level 22
 70
     0
 62
     7
  6
Continuous
370
     0
390
559
  0
LAYER
  5
1D
330
556
100
AcDbSymbolTableRecord
100
AcDbLayerTableRecord
  2
Level 23
 70
     0
 62
     7
  6
Continuous
370
     0
390
559
  0
LAYER
  5
1E
330
556
100
AcDbSymbolTableRecord
100
AcDbLayerTableRecord
  2
Level 24
 70
     0
 62
     7
  6
Continuous
370
     0
390
559
  0
LAYER
  5
1F
330
556
100
AcDbSymbolTableRecord
100
AcDbLayerTableRecord
  2
Level 25
 70
     0
 62
     7
  6
Continuous
370
     0
390
559
  0
LAYER
  5
20
330
556
100
AcDbSymbolTableRecord
100
AcDbLayerTableRecord
  2
Level 26
 70
     0
 62
     7
  6
Continuous
370
     0
390
559
  0
LAYER
  5
21
330
556
100
AcDbSymbolTableRecord
100
AcDbLayerTableRecord
  2
Level 27
 70
     0
 62
     7
  6
Continuous
370
     0
390
559
  0
LAYER
  5
22
330
556
100
AcDbSymbolTableRecord
100
AcDbLayerTableRecord
  2
Level 28
 70
     0
 62
     7
  6
Continuous
370
     0
390
559
  0
LAYER
  5
23
330
556
100
AcDbSymbolTableRecord
100
AcDbLayerTableRecord
  2
Level 29
 70
     0
 62
     7
  6
Continuous
370
     0
390
559
  0
LAYER
  5
24
330
556
100
AcDbSymbolTableRecord
100
AcDbLayerTableRecord
  2
Level 30
 70
     0
 62
     7
  6
Continuous
370
     0
390
559
  0
LAYER
  5
25
330
556
100
AcDbSymbolTableRecord
100
AcDbLayerTableRecord
  2
Level 31
 70
     0
 62
     7
  6
Continuous
370
     0
390
559
  0
LAYER
  5
26
330
556
100
AcDbSymbolTableRecord
100
AcDbLayerTableRecord
  2
Level 32
 70
     0
 62
     7
  6
Continuous
370
     0
390
559
  0
LAYER
  5
27
330
556
100
AcDbSymbolTableRecord
100
AcDbLayerTableRecord
  2
Level 33
 70
     0
 62
     7
  6
Continuous
370
     0
390
559
  0
LAYER
  5
28
330
556
100
AcDbSymbolTableRecord
100
AcDbLayerTableRecord
  2
Level 34
 70
     0
 62
     7
  6
Continuous
370
     0
390
559
  0
LAYER
  5
29
330
556
100
AcDbSymbolTableRecord
100
AcDbLayerTableRecord
  2
Level 35
 70
     0
 62
     7
  6
Continuous
370
     0
390
559
  0
LAYER
  5
2A
330
556
100
AcDbSymbolTableRecord
100
AcDbLayerTableRecord
  2
Level 36
 70
     0
 62
     7
  6
Continuous
370
     0
390
559
  0
LAYER
  5
2B
330
556
100
AcDbSymbolTableRecord
100
AcDbLayerTableRecord
  2
Level 37
 70
     0
 62
     7
  6
Continuous
370
     0
390
559
  0
LAYER
  5
2C
330
556
100
AcDbSymbolTableRecord
100
AcDbLayerTableRecord
  2
Level 38
 70
     0
 62
     7
  6
Continuous
370
     0
390
559
  0
LAYER
  5
2D
330
556
100
AcDbSymbolTableRecord
100
AcDbLayerTableRecord
  2
Level 39
 70
     0
 62
     7
  6
Continuous
370
     0
390
559
  0
LAYER
  5
2E
330
556
100
AcDbSymbolTableRecord
100
AcDbLayerTableRecord
  2
Level 40
 70
     0
 62
     7
  6
Continuous
370
     0
390
559
  0
LAYER
  5
2F
330
556
100
AcDbSymbolTableRecord
100
AcDbLayerTableRecord
  2
Level 41
 70
     0
 62
     7
  6
Continuous
370
     0
390
559
  0
LAYER
  5
30
330
556
100
AcDbSymbolTableRecord
100
AcDbLayerTableRecord
  2
Level 42
 70
     0
 62
     7
  6
Continuous
370
     0
390
559
  0
LAYER
  5
31
330
556
100
AcDbSymbolTableRecord
100
AcDbLayerTableRecord
  2
Level 43
 70
     0
 62
     7
  6
Continuous
370
     0
390
559
  0
LAYER
  5
32
330
556
100
AcDbSymbolTableRecord
100
AcDbLayerTableRecord
  2
Level 44
 70
     0
 62
     7
  6
Continuous
370
     0
390
559
  0
LAYER
  5
33
330
556
100
AcDbSymbolTableRecord
100
AcDbLayerTableRecord
  2
Level 45
 70
     0
 62
     7
  6
Continuous
370
     0
390
559
  0
LAYER
  5
34
330
556
100
AcDbSymbolTableRecord
100
AcDbLayerTableRecord
  2
Level 46
 70
     0
 62
     7
  6
Continuous
370
     0
390
559
  0
LAYER
  5
35
330
556
100
AcDbSymbolTableRecord
100
AcDbLayerTableRecord
  2
Level 47
 70
     0
 62
     7
  6
Continuous
370
     0
390
559
  0
LAYER
  5
36
330
556
100
AcDbSymbolTableRecord
100
AcDbLayerTableRecord
  2
Level 48
 70
     0
 62
     7
  6
Continuous
370
     0
390
559
  0
LAYER
  5
37
330
556
100
AcDbSymbolTableRecord
100
AcDbLayerTableRecord
  2
Level 49
 70
     0
 62
     7
  6
Continuous
370
     0
390
559
  0
LAYER
  5
38
330
556
100
AcDbSymbolTableRecord
100
AcDbLayerTableRecord
  2
Level 50
 70
     0
 62
     7
  6
Continuous
370
     0
390
559
  0
LAYER
  5
39
330
556
100
AcDbSymbolTableRecord
100
AcDbLayerTableRecord
  2
Level 51
 70
     0
 62
     7
  6
Continuous
370
     0
390
559
  0
LAYER
  5
3A
330
556
100
AcDbSymbolTableRecord
100
AcDbLayerTableRecord
  2
Level 52
 70
     0
 62
     7
  6
Continuous
370
     0
390
559
  0
LAYER
  5
3B
330
556
100
AcDbSymbolTableRecord
100
AcDbLayerTableRecord
  2
Level 53
 70
     0
 62
     7
  6
Continuous
370
     0
390
559
  0
LAYER
  5
3C
330
556
100
AcDbSymbolTableRecord
100
AcDbLayerTableRecord
  2
Level 54
 70
     0
 62
     7
  6
Continuous
370
     0
390
559
  0
LAYER
  5
3D
330
556
100
AcDbSymbolTableRecord
100
AcDbLayerTableRecord
  2
Level 55
 70
     0
 62
     7
  6
Continuous
370
     0
390
559
  0
LAYER
  5
3E
330
556
100
AcDbSymbolTableRecord
100
AcDbLayerTableRecord
  2
Level 56
 70
     0
 62
     7
  6
Continuous
370
     0
390
559
  0
LAYER
  5
3F
330
556
100
AcDbSymbolTableRecord
100
AcDbLayerTableRecord
  2
Level 57
 70
     0
 62
     7
  6
Continuous
370
     0
390
559
  0
LAYER
  5
40
330
556
100
AcDbSymbolTableRecord
100
AcDbLayerTableRecord
  2
Level 58
 70
     0
 62
     7
  6
Continuous
370
     0
390
559
  0
LAYER
  5
41
330
556
100
AcDbSymbolTableRecord
100
AcDbLayerTableRecord
  2
Level 59
 70
     0
 62
     7
  6
Continuous
370
     0
390
559
  0
LAYER
  5
42
330
556
100
AcDbSymbolTableRecord
100
AcDbLayerTableRecord
  2
Level 60
 70
     0
 62
     7
  6
Continuous
370
     0
390
559
  0
LAYER
  5
43
330
556
100
AcDbSymbolTableRecord
100
AcDbLayerTableRecord
  2
Level 61
 70
     0
 62
     7
  6
Continuous
370
     0
390
559
  0
LAYER
  5
44
330
556
100
AcDbSymbolTableRecord
100
AcDbLayerTableRecord
  2
Level 62
 70
     0
 62
     7
  6
Continuous
370
     0
390
559
  0
LAYER
  5
45
330
556
100
AcDbSymbolTableRecord
100
AcDbLayerTableRecord
  2
_0
 70
     0
 62
     7
  6
Continuous
370
     0
390
559
1001
AcAecLayerStandard
1000

1000
0
  0
ENDTAB
  0
TABLE
  2
STYLE
  5
561
330
0
100
AcDbSymbolTable
 70
     2
  0
STYLE
  5
560
330
561
100
AcDbSymbolTableRecord
100
AcDbTextStyleTableRecord
  2
Standard
 70
     0
 40
0.0
 41
1.0
 50
0.0
 71
     0
 42
0.1
  3
txt
  4

  0
STYLE
  5
580
330
561
100
AcDbSymbolTableRecord
100
AcDbTextStyleTableRecord
  2
Style-Arial
 70
     0
 40
0.0
 41
1.0
 50
0.0
 71
     0
 42
0.2
  3

  4

1001
ACAD
1000
Arial
1071
       39
  0
ENDTAB
  0
TABLE
  2
VIEW
  5
574
330
0
100
AcDbSymbolTable
 70
     0
  0
ENDTAB
  0
TABLE
  2
UCS
  5
575
330
0
100
AcDbSymbolTable
 70
     0
  0
ENDTAB
  0
TABLE
  2
APPID
  5
573
330
0
100
AcDbSymbolTable
 70
     3
  0
APPID
  5
57B
330
573
100
AcDbSymbolTableRecord
100
AcDbRegAppTableRecord
  2
ACAD
 70
     0
  0
APPID
  5
572
330
573
100
AcDbSymbolTableRecord
100
AcDbRegAppTableRecord
  2
ACAD_PSEXT
 70
     0
  0
APPID
  5
57D
330
573
100
AcDbSymbolTableRecord
100
AcDbRegAppTableRecord
  2
AcAecLayerStandard
 70
     0
  0
ENDTAB
  0
TABLE
  2
DIMSTYLE
  5
563
330
0
100
AcDbSymbolTable
 70
     1
100
AcDbDimStyleTable
  0
DIMSTYLE
105
562
330
563
100
AcDbSymbolTableRecord
100
AcDbDimStyleTableRecord
  2
Standard
 70
     0
340
560
  0
ENDTAB
  0
TABLE
  2
BLOCK_RECORD
  5
566
330
0
100
AcDbSymbolTable
 70
     2
  0
BLOCK_RECORD
  5
567
102
{ACAD_XDICTIONARY
360
58D
102
}
330
566
100
AcDbSymbolTableRecord
100
AcDbBlockTableRecord
  2
*Model_Space
340
56A
  0
BLOCK_RECORD
  5
56C
330
566
100
AcDbSymbolTableRecord
100
AcDbBlockTableRecord
  2
*Paper_Space
340
56F
  0
BLOCK_RECORD
  5
581
330
566
100
AcDbSymbolTableRecord
100
AcDbBlockTableRecord
  2
TerminatorOpen_0.5
340
0
  0
BLOCK_RECORD
  5
58A
330
566
100
AcDbSymbolTableRecord
100
AcDbBlockTableRecord
  2
LARROW
340
0
102
{BLKREFS
331
4B0
331
4B2
331
4B4
331
4B6
331
4B8
331
4BA
331
4BC
331
4BE
331
4C0
331
4C2
331
4C4
331
4C6
331
4D5
331
4DA
331
4DF
331
4E1
102
}
  0
ENDTAB
  0
ENDSEC
  0
SECTION
  2
BLOCKS
  0
BLOCK
  5
568
330
567
100
AcDbEntity
  8
0
100
AcDbBlockBegin
  2
*Model_Space
 70
     0
 71
     0
 10
0.0
 20
0.0
 30
0.0
  3
*Model_Space
  1

  0
ENDBLK
  5
569
330
567
100
AcDbEntity
  8
0
100
AcDbBlockEnd
  0
BLOCK
  5
56D
330
56C
100
AcDbEntity
 67
     1
  8
0
100
AcDbBlockBegin
  2
*Paper_Space
 70
     0
 71
     0
 10
0.0
 20
0.0
 30
0.0
  3
*Paper_Space
  1

  0
ENDBLK
  5
56E
330
56C
100
AcDbEntity
 67
     1
  8
0
100
AcDbBlockEnd
  0
BLOCK
  5
585
330
581
100
AcDbEntity
  8
0
100
AcDbBlockBegin
  2
TerminatorOpen_0.5
 70
     0
 71
     0
 10
0.0
 20
0.0
 30
0.0
  3
TerminatorOpen_0.5
  1

  0
LINE
  5
582
330
581
100
AcDbEntity
  8
0
  6
ByBlock
 62
     0
370
    -2
100
AcDbLine
 10
0.0
 20
0.0
 30
0.0
 11
-1.0
 21
0.0
 31
0.0
  0
LINE
  5
583
330
581
100
AcDbEntity
  8
0
  6
ByBlock
 62
     0
370
    -2
100
AcDbLine
 10
0.0
 20
0.0
 30
0.0
 11
-1.0
 21
0.25
 31
0.0
  0
LINE
  5
584
330
581
100
AcDbEntity
  8
0
  6
ByBlock
 62
     0
370
    -2
100
AcDbLine
 10
0.0
 20
0.0
 30
0.0
 11
-1.0
 21
-0.25
 31
0.0
  0
ENDBLK
  5
586
330
581
100
AcDbEntity
  8
0
100
AcDbBlockEnd
  0
BLOCK
  5
58B
330
58A
100
AcDbEntity
  8
0
100
AcDbBlockBegin
  2
LARROW
 70
     0
 71
     0
 10
0.0
 20
0.0
 30
0.0
  3
LARROW
  1

  0
LWPOLYLINE
  5
4B1
330
58A
100
AcDbEntity
  8
DIM
  6
Continuous
 62
     7
370
    13
100
AcDbPolyline
 90
       63
 70
   128
 43
0.0
 10
-0.013031
 20
0.001885
 10
0.0
 20
0.0
 10
-0.013021
 20
-0.001885
 10
-0.012615
 20
-0.001573
 10
-0.012042
 20
-0.00101
 10
-0.01176
 20
-0.00049
 10
-0.011687
 20
0.0
 10
-0.011792
 20
0.000552
 10
-0.012094
 20
0.001094
 10
-0.012677
 20
0.001625
 10
-0.013031
 20
0.001885
 10
-0.000385
 20
0.000021
 10
-0.012604
 20
-0.00176
 10
-0.012229
 20
-0.001479
 10
-0.011625
 20
-0.000906
 10
-0.011427
 20
-0.000167
 10
-0.011563
 20
0.000573
 10
-0.011917
 20
0.001083
 10
-0.012344
 20
0.0015
 10
-0.012635
 20
0.001729
 10
-0.001073
 20
0.000021
 10
-0.012052
 20
-0.001552
 10
-0.011667
 20
-0.001302
 10
-0.011469
 20
-0.000979
 10
-0.01125
 20
-0.000563
 10
-0.011135
 20
0.000021
 10
-0.011198
 20
0.0005
 10
-0.011427
 20
0.000875
 10
-0.011896
 20
0.001177
 10
-0.012208
 20
0.001542
 10
-0.001875
 20
0.000021
 10
-0.011448
 20
-0.001323
 10
-0.011021
 20
-0.000792
 10
-0.010896
 20
-0.000146
 10
-0.010958
 20
0.000573
 10
-0.011781
 20
0.001354
 10
-0.002771
 20
0.000062
 10
-0.010896
 20
-0.001073
 10
-0.010781
 20
-0.000698
 10
-0.010531
 20
-0.000094
 10
-0.010687
 20
0.000552
 10
-0.011333
 20
0.001125
 10
-0.003594
 20
0.000062
 10
-0.010604
 20
-0.000833
 10
-0.010375
 20
-0.000375
 10
-0.010271
 20
0.000115
 10
-0.01076
 20
0.000875
 10
-0.004573
 20
0.000062
 10
-0.010177
 20
-0.000625
 10
-0.010021
 20
-0.000281
 10
-0.009979
 20
0.000115
 10
-0.010375
 20
0.000667
 10
-0.00574
 20
0.000062
 10
-0.009823
 20
-0.000396
 10
-0.009708
 20
0.000135
 10
-0.010083
 20
0.000458
 10
-0.006698
 20
0.000062
 10
-0.009552
 20
-0.00024
 10
-0.009615
 20
0.000271
 10
-0.007677
 20
0.000062
 10
-0.009438
 20
-0.000073
 10
-0.00949
 20
0.000083
 10
-0.008885
 20
0.000083
  0
ENDBLK
  5
58C
330
58A
100
AcDbEntity
  8
0
100
AcDbBlockEnd
  0
ENDSEC
  0
SECTION
  2
ENTITIES
  0
LINE
  5
5B
330
567
100
AcDbEntity
  8
BORDER
  6
Continuous
 62
     7
370
    30
100
AcDbLine
 10
44.625
 20
10.086906
 30
0.0
 11
51.875
 21
10.086906
 31
0.0
  0
LINE
  5
5C
330
567
100
AcDbEntity
  8
BORDER
  6
Continuous
 62
     7
370
    30
100
AcDbLine
 10
44.625
 20
0.986906
 30
0.0
 11
44.625
 21
10.086906
 31
0.0
  0
LINE
  5
5D
330
567
100
AcDbEntity
  8
BORDER
  6
Continuous
 62
     7
370
    30
100
AcDbLine
 10
44.625
 20
0.986906
 30
0.0
 11
51.875
 21
0.986906
 31
0.0
  0
LINE
  5
5E
330
567
100
AcDbEntity
  8
BORDER
  6
Continuous
 62
     7
370
    30
100
AcDbLine
 10
51.875
 20
0.986906
 30
0.0
 11
51.875
 21
10.086906
 31
0.0
  0
LINE
  5
5F
330
567
100
AcDbEntity
  8
BORDER
  6
Continuous
 62
     7
370
    30
100
AcDbLine
 10
44.625
 20
1.486906
 30
0.0
 11
51.875
 21
1.486906
 31
0.0
  0
LINE
  5
60
330
567
100
AcDbEntity
  8
BORDER
  6
Continuous
 62
     7
370
    30
100
AcDbLine
 10
50.775
 20
0.986906
 30
0.0
 11
50.775
 21
1.486906
 31
0.0
  0
LINE
  5
61
330
567
100
AcDbEntity
  8
BORDER
  6
Continuous
 62
     7
370
    30
100
AcDbLine
 10
49.675
 20
0.986906
 30
0.0
 11
49.675
 21
1.486906
 31
0.0
  0
LINE
  5
67
330
567
100
AcDbEntity
  8
_0
  6
Continuous
 62
     7
370
    30
100
AcDbLine
 10
50.878208
 20
8.538969
 30
0.0
 11
45.63
 21
8.538969
 31
0.0
  0
LINE
  5
68
330
567
100
AcDbEntity
  8
_0
  6
Continuous
 62
     7
370
    30
100
AcDbLine
 10
46.754125
 20
8.088969
 30
0.0
 11
46.754125
 21
8.988969
 31
0.0
  0
LINE
  5
69
330
567
100
AcDbEntity
  8
_0
  6
Continuous
 62
     7
370
    30
100
AcDbLine
 10
46.904125
 20
8.088969
 30
0.0
 11
46.904125
 21
8.988969
 31
0.0
  0
LINE
  5
6A
330
567
100
AcDbEntity
  8
_0
  6
Continuous
 62
     7
370
    30
100
AcDbLine
 10
47.054125
 20
8.088969
 30
0.0
 11
47.054125
 21
8.988969
 31
0.0
  0
LINE
  5
6B
330
567
100
AcDbEntity
  8
_0
  6
Continuous
 62
     7
370
    30
100
AcDbLine
 10
47.204125
 20
8.088969
 30
0.0
 11
47.204125
 21
8.988969
 31
0.0
  0
LINE
  5
6C
330
567
100
AcDbEntity
  8
_0
  6
Continuous
 62
     7
370
    30
100
AcDbLine
 10
47.354125
 20
8.088969
 30
0.0
 11
47.354125
 21
8.988969
 31
0.0
  0
LINE
  5
6D
330
567
100
AcDbEntity
  8
_0
  6
Continuous
 62
     7
370
    30
100
AcDbLine
 10
47.504125
 20
8.088969
 30
0.0
 11
47.504125
 21
8.988969
 31
0.0
  0
LINE
  5
6E
330
567
100
AcDbEntity
  8
_0
  6
Continuous
 62
     7
370
    30
100
AcDbLine
 10
47.654125
 20
8.088969
 30
0.0
 11
47.654125
 21
8.988969
 31
0.0
  0
LINE
  5
6F
330
567
100
AcDbEntity
  8
_0
  6
Continuous
 62
     7
370
    30
100
AcDbLine
 10
47.804125
 20
8.088969
 30
0.0
 11
47.804125
 21
8.988969
 31
0.0
  0
LINE
  5
70
330
567
100
AcDbEntity
  8
_0
  6
Continuous
 62
     7
370
    30
100
AcDbLine
 10
47.954125
 20
8.088969
 30
0.0
 11
47.954125
 21
8.988969
 31
0.0
  0
LINE
  5
71
330
567
100
AcDbEntity
  8
_0
  6
Continuous
 62
     7
370
    30
100
AcDbLine
 10
48.104125
 20
8.088969
 30
0.0
 11
48.104125
 21
8.988969
 31
0.0
  0
LINE
  5
72
330
567
100
AcDbEntity
  8
_0
  6
Continuous
 62
     7
370
    30
100
AcDbLine
 10
48.254125
 20
8.088969
 30
0.0
 11
48.254125
 21
8.988969
 31
0.0
  0
LINE
  5
73
330
567
100
AcDbEntity
  8
_0
  6
Continuous
 62
     7
370
    30
100
AcDbLine
 10
48.404125
 20
8.088969
 30
0.0
 11
48.404125
 21
8.988969
 31
0.0
  0
LINE
  5
74
330
567
100
AcDbEntity
  8
_0
  6
Continuous
 62
     7
370
    30
100
AcDbLine
 10
48.554125
 20
8.088969
 30
0.0
 11
48.554125
 21
8.988969
 31
0.0
  0
LINE
  5
75
330
567
100
AcDbEntity
  8
_0
  6
Continuous
 62
     7
370
    30
100
AcDbLine
 10
48.704125
 20
8.088969
 30
0.0
 11
48.704125
 21
8.988969
 31
0.0
  0
LINE
  5
76
330
567
100
AcDbEntity
  8
_0
  6
Continuous
 62
     7
370
    30
100
AcDbLine
 10
48.854125
 20
8.088969
 30
0.0
 11
48.854125
 21
8.988969
 31
0.0
  0
LINE
  5
77
330
567
100
AcDbEntity
  8
_0
  6
Continuous
 62
     7
370
    30
100
AcDbLine
 10
49.004125
 20
8.088969
 30
0.0
 11
49.004125
 21
8.988969
 31
0.0
  0
LINE
  5
78
330
567
100
AcDbEntity
  8
_0
  6
Continuous
 62
     7
370
    30
100
AcDbLine
 10
49.154125
 20
8.088969
 30
0.0
 11
49.154125
 21
8.988969
 31
0.0
  0
LINE
  5
79
330
567
100
AcDbEntity
  8
_0
  6
Continuous
 62
     7
370
    30
100
AcDbLine
 10
49.304125
 20
8.088969
 30
0.0
 11
49.304125
 21
8.988969
 31
0.0
  0
LINE
  5
7A
330
567
100
AcDbEntity
  8
_0
  6
Continuous
 62
     7
370
    30
100
AcDbLine
 10
49.454125
 20
8.088969
 30
0.0
 11
49.454125
 21
8.988969
 31
0.0
  0
LINE
  5
7B
330
567
100
AcDbEntity
  8
_0
  6
Continuous
 62
     7
370
    30
100
AcDbLine
 10
49.604125
 20
8.088969
 30
0.0
 11
49.604125
 21
8.988969
 31
0.0
  0
LINE
  5
7C
330
567
100
AcDbEntity
  8
_0
  6
Continuous
 62
     7
370
    30
100
AcDbLine
 10
49.754125
 20
8.088969
 30
0.0
 11
49.754125
 21
8.988969
 31
0.0
  0
LINE
  5
7D
330
567
100
AcDbEntity
  8
_0
  6
Continuous
 62
     7
370
    30
100
AcDbLine
 10
50.804125
 20
9.038969
 30
0.0
 11
45.704125
 21
9.038969
 31
0.0
  0
LINE
  5
7E
330
567
100
AcDbEntity
  8
_0
  6
Continuous
 62
     7
370
    30
100
AcDbLine
 10
50.804125
 20
8.038969
 30
0.0
 11
45.704125
 21
8.038969
 31
0.0
  0
LINE
  5
80
330
567
100
AcDbEntity
  8
_0
  6
Continuous
 62
     7
370
    30
100
AcDbLine
 10
47.335833
 20
8.038969
 30
0.0
 11
47.589156
 21
8.038969
 31
0.0
  0
LINE
  5
81
330
567
100
AcDbEntity
  8
2-19C
  6
Continuous
 62
     7
370
    30
100
AcDbLine
 10
47.335833
 20
7.888969
 30
0.0
 11
47.589156
 21
7.888969
 31
0.0
  0
LINE
  5
84
330
567
100
AcDbEntity
  8
_0
  6
Continuous
 62
     7
370
    30
100
AcDbLine
 10
47.246344
 20
6.285833
 30
0.0
 11
50.049281
 21
6.285833
 31
0.0
  0
LINE
  5
85
330
567
100
AcDbEntity
  8
_0
  6
Continuous
 62
     7
370
    30
100
AcDbLine
 10
47.243406
 20
6.685833
 30
0.0
 11
47.446344
 21
6.685833
 31
0.0
  0
LINE
  5
86
330
567
100
AcDbEntity
  8
_0
  6
Continuous
 62
     7
370
    30
100
AcDbLine
 10
47.446344
 20
6.535833
 30
0.0
 11
47.596344
 21
6.535833
 31
0.0
  0
LINE
  5
87
330
567
100
AcDbEntity
  8
_0
  6
Continuous
 62
     7
370
    30
100
AcDbLine
 10
47.446344
 20
6.685833
 30
0.0
 11
47.446344
 21
6.535833
 31
0.0
  0
LINE
  5
88
330
567
100
AcDbEntity
  8
_0
  6
Continuous
 62
     7
370
    30
100
AcDbLine
 10
47.596344
 20
6.685833
 30
0.0
 11
47.596344
 21
6.535833
 31
0.0
  0
LINE
  5
89
330
567
100
AcDbEntity
  8
_0
  6
Continuous
 62
     7
370
    30
100
AcDbLine
 10
48.196344
 20
6.685833
 30
0.0
 11
48.196344
 21
6.535833
 31
0.0
  0
LINE
  5
8A
330
567
100
AcDbEntity
  8
_0
  6
Continuous
 62
     7
370
    30
100
AcDbLine
 10
48.346344
 20
6.685833
 30
0.0
 11
48.346344
 21
6.535833
 31
0.0
  0
LINE
  5
8B
330
567
100
AcDbEntity
  8
_0
  6
Continuous
 62
     7
370
    30
100
AcDbLine
 10
48.946344
 20
6.685833
 30
0.0
 11
48.946344
 21
6.535833
 31
0.0
  0
LINE
  5
8C
330
567
100
AcDbEntity
  8
_0
  6
Continuous
 62
     7
370
    30
100
AcDbLine
 10
49.096344
 20
6.685833
 30
0.0
 11
49.096344
 21
6.535833
 31
0.0
  0
LINE
  5
8D
330
567
100
AcDbEntity
  8
_0
  6
Continuous
 62
     7
370
    30
100
AcDbLine
 10
49.696344
 20
6.685833
 30
0.0
 11
49.696344
 21
6.535833
 31
0.0
  0
LINE
  5
8E
330
567
100
AcDbEntity
  8
_0
  6
Continuous
 62
     7
370
    30
100
AcDbLine
 10
49.846344
 20
6.685833
 30
0.0
 11
49.846344
 21
6.535833
 31
0.0
  0
LINE
  5
8F
330
567
100
AcDbEntity
  8
_0
  6
Continuous
 62
     7
370
    30
100
AcDbLine
 10
47.596344
 20
6.685833
 30
0.0
 11
48.196344
 21
6.685833
 31
0.0
  0
LINE
  5
90
330
567
100
AcDbEntity
  8
_0
  6
Continuous
 62
     7
370
    30
100
AcDbLine
 10
48.346344
 20
6.685833
 30
0.0
 11
48.946344
 21
6.685833
 31
0.0
  0
LINE
  5
91
330
567
100
AcDbEntity
  8
_0
  6
Continuous
 62
     7
370
    30
100
AcDbLine
 10
49.096344
 20
6.685833
 30
0.0
 11
49.696344
 21
6.685833
 31
0.0
  0
LINE
  5
92
330
567
100
AcDbEntity
  8
_0
  6
Continuous
 62
     7
370
    30
100
AcDbLine
 10
49.846344
 20
6.685833
 30
0.0
 11
50.046344
 21
6.685833
 31
0.0
  0
LINE
  5
93
330
567
100
AcDbEntity
  8
_0
  6
Continuous
 62
     7
370
    30
100
AcDbLine
 10
48.196344
 20
6.535833
 30
0.0
 11
48.346344
 21
6.535833
 31
0.0
  0
LINE
  5
94
330
567
100
AcDbEntity
  8
_0
  6
Continuous
 62
     7
370
    30
100
AcDbLine
 10
48.946344
 20
6.535833
 30
0.0
 11
49.096344
 21
6.535833
 31
0.0
  0
LINE
  5
95
330
567
100
AcDbEntity
  8
_0
  6
Continuous
 62
     7
370
    30
100
AcDbLine
 10
49.696344
 20
6.535833
 30
0.0
 11
49.846344
 21
6.535833
 31
0.0
  0
LINE
  5
96
330
567
100
AcDbEntity
  8
DIM
  6
Continuous
 62
     7
370
    13
100
AcDbLine
 10
48.396344
 20
6.535833
 30
0.0
 11
48.471427
 21
6.535833
 31
0.0
  0
LINE
  5
97
330
567
100
AcDbEntity
  8
2-19C
  6
Continuous
 62
     7
370
    30
100
AcDbLine
 10
48.396344
 20
6.685833
 30
0.0
 11
48.471427
 21
6.685833
 31
0.0
  0
LINE
  5
99
330
567
100
AcDbEntity
  8
DIM
  6
Continuous
 62
     7
370
    13
100
AcDbLine
 10
49.021344
 20
6.585833
 30
0.0
 11
49.021344
 21
6.8255
 31
0.0
  0
LINE
  5
9A
330
567
100
AcDbEntity
  8
DIM
  6
Continuous
 62
     7
370
    13
100
AcDbLine
 10
49.771344
 20
6.585833
 30
0.0
 11
49.771344
 21
6.8255
 31
0.0
  0
LINE
  5
9B
330
567
100
AcDbEntity
  8
DIM
  6
Continuous
 62
     7
370
    13
100
AcDbLine
 10
47.524406
 20
6.585833
 30
0.0
 11
47.524406
 21
6.8255
 31
0.0
  0
LINE
  5
9D
330
567
100
AcDbEntity
  8
DIM
  6
Continuous
 62
     7
370
    13
100
AcDbLine
 10
48.274406
 20
6.585833
 30
0.0
 11
48.274406
 21
6.8255
 31
0.0
  0
LINE
  5
9E
330
567
100
AcDbEntity
  8
DIM
  6
Continuous
 62
     7
370
    13
100
AcDbLine
 10
47.446344
 20
6.485833
 30
0.0
 11
47.446344
 21
6.427062
 31
0.0
  0
LINE
  5
9F
330
567
100
AcDbEntity
  8
DIM
  6
Continuous
 62
     7
370
    13
100
AcDbLine
 10
47.596344
 20
6.485833
 30
0.0
 11
47.596344
 21
6.427062
 31
0.0
  0
LWPOLYLINE
  5
A3
330
567
100
AcDbEntity
  8
_0
  6
Continuous
 62
     7
370
    13
100
AcDbPolyline
 90
        6
 70
   128
 43
0.0
 10
47.246344
 20
6.285833
 10
47.246344
 20
6.400323
 10
47.11324
 20
6.46001
 10
47.328021
 20
6.494115
 10
47.243406
 20
6.545271
 10
47.243406
 20
6.685833
  0
LWPOLYLINE
  5
A4
330
567
100
AcDbEntity
  8
_0
  6
Continuous
 62
     7
370
    13
100
AcDbPolyline
 90
        6
 70
   128
 43
0.0
 10
50.049281
 20
6.285833
 10
50.049281
 20
6.396687
 10
49.916177
 20
6.456375
 10
50.130948
 20
6.490479
 10
50.046344
 20
6.541635
 10
50.046344
 20
6.685833
  0
POINT
  5
A5
330
567
100
AcDbEntity
  8
HATCH
  6
Continuous
 62
     7
370
    30
100
AcDbPoint
 10
47.211969
 20
6.470979
 30
0.0
  0
POINT
  5
A6
330
567
100
AcDbEntity
  8
HATCH
  6
Continuous
 62
     7
370
    30
100
AcDbPoint
 10
47.243219
 20
6.470979
 30
0.0
  0
POINT
  5
A7
330
567
100
AcDbEntity
  8
HATCH
  6
Continuous
 62
     7
370
    30
100
AcDbPoint
 10
47.274469
 20
6.470979
 30
0.0
  0
POINT
  5
A8
330
567
100
AcDbEntity
  8
HATCH
  6
Continuous
 62
     7
370
    30
100
AcDbPoint
 10
47.305719
 20
6.470979
 30
0.0
  0
POINT
  5
A9
330
567
100
AcDbEntity
  8
HATCH
  6
Continuous
 62
     7
370
    30
100
AcDbPoint
 10
47.336969
 20
6.470979
 30
0.0
  0
POINT
  5
AA
330
567
100
AcDbEntity
  8
HATCH
  6
Continuous
 62
     7
370
    30
100
AcDbPoint
 10
47.368219
 20
6.470979
 30
0.0
  0
POINT
  5
AB
330
567
100
AcDbEntity
  8
HATCH
  6
Continuous
 62
     7
370
    30
100
AcDbPoint
 10
47.399469
 20
6.470979
 30
0.0
  0
POINT
  5
AC
330
567
100
AcDbEntity
  8
HATCH
  6
Continuous
 62
     7
370
    30
100
AcDbPoint
 10
47.430719
 20
6.470979
 30
0.0
  0
POINT
  5
AD
330
567
100
AcDbEntity
  8
HATCH
  6
Continuous
 62
     7
370
    30
100
AcDbPoint
 10
47.461969
 20
6.470979
 30
0.0
  0
POINT
  5
AE
330
567
100
AcDbEntity
  8
HATCH
  6
Continuous
 62
     7
370
    30
100
AcDbPoint
 10
47.493219
 20
6.470979
 30
0.0
  0
POINT
  5
AF
330
567
100
AcDbEntity
  8
HATCH
  6
Continuous
 62
     7
370
    30
100
AcDbPoint
 10
47.524469
 20
6.470979
 30
0.0
  0
POINT
  5
B0
330
567
100
AcDbEntity
  8
HATCH
  6
Continuous
 62
     7
370
    30
100
AcDbPoint
 10
47.555719
 20
6.470979
 30
0.0
  0
POINT
  5
B1
330
567
100
AcDbEntity
  8
HATCH
  6
Continuous
 62
     7
370
    30
100
AcDbPoint
 10
47.586969
 20
6.470979
 30
0.0
  0
POINT
  5
B2
330
567
100
AcDbEntity
  8
HATCH
  6
Continuous
 62
     7
370
    30
100
AcDbPoint
 10
47.618219
 20
6.470979
 30
0.0
  0
POINT
  5
B3
330
567
100
AcDbEntity
  8
HATCH
  6
Continuous
 62
     7
370
    30
100
AcDbPoint
 10
47.649469
 20
6.470979
 30
0.0
  0
POINT
  5
B4
330
567
100
AcDbEntity
  8
HATCH
  6
Continuous
 62
     7
370
    30
100
AcDbPoint
 10
47.680719
 20
6.470979
 30
0.0
  0
POINT
  5
B5
330
567
100
AcDbEntity
  8
HATCH
  6
Continuous
 62
     7
370
    30
100
AcDbPoint
 10
47.711969
 20
6.470979
 30
0.0
  0
POINT
  5
B6
330
567
100
AcDbEntity
  8
HATCH
  6
Continuous
 62
     7
370
    30
100
AcDbPoint
 10
47.743219
 20
6.470979
 30
0.0
  0
POINT
  5
B7
330
567
100
AcDbEntity
  8
HATCH
  6
Continuous
 62
     7
370
    30
100
AcDbPoint
 10
47.774469
 20
6.470979
 30
0.0
  0
POINT
  5
B8
330
567
100
AcDbEntity
  8
HATCH
  6
Continuous
 62
     7
370
    30
100
AcDbPoint
 10
47.805719
 20
6.470979
 30
0.0
  0
POINT
  5
B9
330
567
100
AcDbEntity
  8
HATCH
  6
Continuous
 62
     7
370
    30
100
AcDbPoint
 10
47.836969
 20
6.470979
 30
0.0
  0
POINT
  5
BA
330
567
100
AcDbEntity
  8
HATCH
  6
Continuous
 62
     7
370
    30
100
AcDbPoint
 10
47.868219
 20
6.470979
 30
0.0
  0
POINT
  5
BB
330
567
100
AcDbEntity
  8
HATCH
  6
Continuous
 62
     7
370
    30
100
AcDbPoint
 10
47.899469
 20
6.470979
 30
0.0
  0
POINT
  5
BC
330
567
100
AcDbEntity
  8
HATCH
  6
Continuous
 62
     7
370
    30
100
AcDbPoint
 10
47.930719
 20
6.470979
 30
0.0
  0
POINT
  5
BD
330
567
100
AcDbEntity
  8
HATCH
  6
Continuous
 62
     7
370
    30
100
AcDbPoint
 10
47.961969
 20
6.470979
 30
0.0
  0
POINT
  5
BE
330
567
100
AcDbEntity
  8
HATCH
  6
Continuous
 62
     7
370
    30
100
AcDbPoint
 10
47.993219
 20
6.470979
 30
0.0
  0
POINT
  5
BF
330
567
100
AcDbEntity
  8
HATCH
  6
Continuous
 62
     7
370
    30
100
AcDbPoint
 10
48.024469
 20
6.470979
 30
0.0
  0
POINT
  5
C0
330
567
100
AcDbEntity
  8
HATCH
  6
Continuous
 62
     7
370
    30
100
AcDbPoint
 10
48.055719
 20
6.470979
 30
0.0
  0
POINT
  5
C1
330
567
100
AcDbEntity
  8
HATCH
  6
Continuous
 62
     7
370
    30
100
AcDbPoint
 10
48.086969
 20
6.470979
 30
0.0
  0
POINT
  5
C2
330
567
100
AcDbEntity
  8
HATCH
  6
Continuous
 62
     7
370
    30
100
AcDbPoint
 10
48.118219
 20
6.470979
 30
0.0
  0
POINT
  5
C3
330
567
100
AcDbEntity
  8
HATCH
  6
Continuous
 62
     7
370
    30
100
AcDbPoint
 10
48.149469
 20
6.470979
 30
0.0
  0
POINT
  5
C4
330
567
100
AcDbEntity
  8
HATCH
  6
Continuous
 62
     7
370
    30
100
AcDbPoint
 10
48.180719
 20
6.470979
 30
0.0
  0
POINT
  5
C5
330
567
100
AcDbEntity
  8
HATCH
  6
Continuous
 62
     7
370
    30
100
AcDbPoint
 10
48.211969
 20
6.470979
 30
0.0
  0
POINT
  5
C6
330
567
100
AcDbEntity
  8
HATCH
  6
Continuous
 62
     7
370
    30
100
AcDbPoint
 10
48.243219
 20
6.470979
 30
0.0
  0
POINT
  5
C7
330
567
100
AcDbEntity
  8
HATCH
  6
Continuous
 62
     7
370
    30
100
AcDbPoint
 10
48.274469
 20
6.470979
 30
0.0
  0
POINT
  5
C8
330
567
100
AcDbEntity
  8
HATCH
  6
Continuous
 62
     7
370
    30
100
AcDbPoint
 10
48.305719
 20
6.470979
 30
0.0
  0
POINT
  5
C9
330
567
100
AcDbEntity
  8
HATCH
  6
Continuous
 62
     7
370
    30
100
AcDbPoint
 10
48.336969
 20
6.470979
 30
0.0
  0
POINT
  5
CA
330
567
100
AcDbEntity
  8
HATCH
  6
Continuous
 62
     7
370
    30
100
AcDbPoint
 10
48.368219
 20
6.470979
 30
0.0
  0
POINT
  5
CB
330
567
100
AcDbEntity
  8
HATCH
  6
Continuous
 62
     7
370
    30
100
AcDbPoint
 10
48.399469
 20
6.470979
 30
0.0
  0
POINT
  5
CC
330
567
100
AcDbEntity
  8
HATCH
  6
Continuous
 62
     7
370
    30
100
AcDbPoint
 10
48.430719
 20
6.470979
 30
0.0
  0
POINT
  5
CD
330
567
100
AcDbEntity
  8
HATCH
  6
Continuous
 62
     7
370
    30
100
AcDbPoint
 10
48.461969
 20
6.470979
 30
0.0
  0
POINT
  5
CE
330
567
100
AcDbEntity
  8
HATCH
  6
Continuous
 62
     7
370
    30
100
AcDbPoint
 10
48.493219
 20
6.470979
 30
0.0
  0
POINT
  5
CF
330
567
100
AcDbEntity
  8
HATCH
  6
Continuous
 62
     7
370
    30
100
AcDbPoint
 10
48.524469
 20
6.470979
 30
0.0
  0
POINT
  5
D0
330
567
100
AcDbEntity
  8
HATCH
  6
Continuous
 62
     7
370
    30
100
AcDbPoint
 10
48.555719
 20
6.470979
 30
0.0
  0
POINT
  5
D1
330
567
100
AcDbEntity
  8
HATCH
  6
Continuous
 62
     7
370
    30
100
AcDbPoint
 10
48.586969
 20
6.470979
 30
0.0
  0
POINT
  5
D2
330
567
100
AcDbEntity
  8
HATCH
  6
Continuous
 62
     7
370
    30
100
AcDbPoint
 10
48.618219
 20
6.470979
 30
0.0
  0
POINT
  5
D3
330
567
100
AcDbEntity
  8
HATCH
  6
Continuous
 62
     7
370
    30
100
AcDbPoint
 10
48.649469
 20
6.470979
 30
0.0
  0
POINT
  5
D4
330
567
100
AcDbEntity
  8
HATCH
  6
Continuous
 62
     7
370
    30
100
AcDbPoint
 10
48.680719
 20
6.470979
 30
0.0
  0
POINT
  5
D5
330
567
100
AcDbEntity
  8
HATCH
  6
Continuous
 62
     7
370
    30
100
AcDbPoint
 10
48.711969
 20
6.470979
 30
0.0
  0
POINT
  5
D6
330
567
100
AcDbEntity
  8
HATCH
  6
Continuous
 62
     7
370
    30
100
AcDbPoint
 10
48.743219
 20
6.470979
 30
0.0
  0
POINT
  5
D7
330
567
100
AcDbEntity
  8
HATCH
  6
Continuous
 62
     7
370
    30
100
AcDbPoint
 10
48.774469
 20
6.470979
 30
0.0
  0
POINT
  5
D8
330
567
100
AcDbEntity
  8
HATCH
  6
Continuous
 62
     7
370
    30
100
AcDbPoint
 10
48.805719
 20
6.470979
 30
0.0
  0
POINT
  5
D9
330
567
100
AcDbEntity
  8
HATCH
  6
Continuous
 62
     7
370
    30
100
AcDbPoint
 10
48.836969
 20
6.470979
 30
0.0
  0
POINT
  5
DA
330
567
100
AcDbEntity
  8
HATCH
  6
Continuous
 62
     7
370
    30
100
AcDbPoint
 10
48.868219
 20
6.470979
 30
0.0
  0
POINT
  5
DB
330
567
100
AcDbEntity
  8
HATCH
  6
Continuous
 62
     7
370
    30
100
AcDbPoint
 10
48.899469
 20
6.470979
 30
0.0
  0
POINT
  5
DC
330
567
100
AcDbEntity
  8
HATCH
  6
Continuous
 62
     7
370
    30
100
AcDbPoint
 10
48.930719
 20
6.470979
 30
0.0
  0
POINT
  5
DD
330
567
100
AcDbEntity
  8
HATCH
  6
Continuous
 62
     7
370
    30
100
AcDbPoint
 10
48.961969
 20
6.470979
 30
0.0
  0
POINT
  5
DE
330
567
100
AcDbEntity
  8
HATCH
  6
Continuous
 62
     7
370
    30
100
AcDbPoint
 10
48.993219
 20
6.470979
 30
0.0
  0
POINT
  5
DF
330
567
100
AcDbEntity
  8
HATCH
  6
Continuous
 62
     7
370
    30
100
AcDbPoint
 10
49.024469
 20
6.470979
 30
0.0
  0
POINT
  5
E0
330
567
100
AcDbEntity
  8
HATCH
  6
Continuous
 62
     7
370
    30
100
AcDbPoint
 10
49.055719
 20
6.470979
 30
0.0
  0
POINT
  5
E1
330
567
100
AcDbEntity
  8
HATCH
  6
Continuous
 62
     7
370
    30
100
AcDbPoint
 10
49.086969
 20
6.470979
 30
0.0
  0
POINT
  5
E2
330
567
100
AcDbEntity
  8
HATCH
  6
Continuous
 62
     7
370
    30
100
AcDbPoint
 10
49.118219
 20
6.470979
 30
0.0
  0
POINT
  5
E3
330
567
100
AcDbEntity
  8
HATCH
  6
Continuous
 62
     7
370
    30
100
AcDbPoint
 10
49.149469
 20
6.470979
 30
0.0
  0
POINT
  5
E4
330
567
100
AcDbEntity
  8
HATCH
  6
Continuous
 62
     7
370
    30
100
AcDbPoint
 10
49.180719
 20
6.470979
 30
0.0
  0
POINT
  5
E5
330
567
100
AcDbEntity
  8
HATCH
  6
Continuous
 62
     7
370
    30
100
AcDbPoint
 10
49.211969
 20
6.470979
 30
0.0
  0
POINT
  5
E6
330
567
100
AcDbEntity
  8
HATCH
  6
Continuous
 62
     7
370
    30
100
AcDbPoint
 10
49.243219
 20
6.470979
 30
0.0
  0
POINT
  5
E7
330
567
100
AcDbEntity
  8
HATCH
  6
Continuous
 62
     7
370
    30
100
AcDbPoint
 10
49.274469
 20
6.470979
 30
0.0
  0
POINT
  5
E8
330
567
100
AcDbEntity
  8
HATCH
  6
Continuous
 62
     7
370
    30
100
AcDbPoint
 10
49.305719
 20
6.470979
 30
0.0
  0
POINT
  5
E9
330
567
100
AcDbEntity
  8
HATCH
  6
Continuous
 62
     7
370
    30
100
AcDbPoint
 10
49.336969
 20
6.470979
 30
0.0
  0
POINT
  5
EA
330
567
100
AcDbEntity
  8
HATCH
  6
Continuous
 62
     7
370
    30
100
AcDbPoint
 10
49.368219
 20
6.470979
 30
0.0
  0
POINT
  5
EB
330
567
100
AcDbEntity
  8
HATCH
  6
Continuous
 62
     7
370
    30
100
AcDbPoint
 10
49.399469
 20
6.470979
 30
0.0
  0
POINT
  5
EC
330
567
100
AcDbEntity
  8
HATCH
  6
Continuous
 62
     7
370
    30
100
AcDbPoint
 10
49.430719
 20
6.470979
 30
0.0
  0
POINT
  5
ED
330
567
100
AcDbEntity
  8
HATCH
  6
Continuous
 62
     7
370
    30
100
AcDbPoint
 10
49.461969
 20
6.470979
 30
0.0
  0
POINT
  5
EE
330
567
100
AcDbEntity
  8
HATCH
  6
Continuous
 62
     7
370
    30
100
AcDbPoint
 10
49.493219
 20
6.470979
 30
0.0
  0
POINT
  5
EF
330
567
100
AcDbEntity
  8
HATCH
  6
Continuous
 62
     7
370
    30
100
AcDbPoint
 10
49.524469
 20
6.470979
 30
0.0
  0
POINT
  5
F0
330
567
100
AcDbEntity
  8
HATCH
  6
Continuous
 62
     7
370
    30
100
AcDbPoint
 10
49.555719
 20
6.470979
 30
0.0
  0
POINT
  5
F1
330
567
100
AcDbEntity
  8
HATCH
  6
Continuous
 62
     7
370
    30
100
AcDbPoint
 10
49.586969
 20
6.470979
 30
0.0
  0
POINT
  5
F2
330
567
100
AcDbEntity
  8
HATCH
  6
Continuous
 62
     7
370
    30
100
AcDbPoint
 10
49.618219
 20
6.470979
 30
0.0
  0
POINT
  5
F3
330
567
100
AcDbEntity
  8
HATCH
  6
Continuous
 62
     7
370
    30
100
AcDbPoint
 10
49.649469
 20
6.470979
 30
0.0
  0
POINT
  5
F4
330
567
100
AcDbEntity
  8
HATCH
  6
Continuous
 62
     7
370
    30
100
AcDbPoint
 10
49.680719
 20
6.470979
 30
0.0
  0
POINT
  5
F5
330
567
100
AcDbEntity
  8
HATCH
  6
Continuous
 62
     7
370
    30
100
AcDbPoint
 10
49.711969
 20
6.470979
 30
0.0
  0
POINT
  5
F6
330
567
100
AcDbEntity
  8
HATCH
  6
Continuous
 62
     7
370
    30
100
AcDbPoint
 10
49.743219
 20
6.470979
 30
0.0
  0
POINT
  5
F7
330
567
100
AcDbEntity
  8
HATCH
  6
Continuous
 62
     7
370
    30
100
AcDbPoint
 10
49.774469
 20
6.470979
 30
0.0
  0
POINT
  5
F8
330
567
100
AcDbEntity
  8
HATCH
  6
Continuous
 62
     7
370
    30
100
AcDbPoint
 10
49.805719
 20
6.470979
 30
0.0
  0
POINT
  5
F9
330
567
100
AcDbEntity
  8
HATCH
  6
Continuous
 62
     7
370
    30
100
AcDbPoint
 10
49.836969
 20
6.470979
 30
0.0
  0
POINT
  5
FA
330
567
100
AcDbEntity
  8
HATCH
  6
Continuous
 62
     7
370
    30
100
AcDbPoint
 10
49.868219
 20
6.470979
 30
0.0
  0
POINT
  5
FB
330
567
100
AcDbEntity
  8
HATCH
  6
Continuous
 62
     7
370
    30
100
AcDbPoint
 10
49.899469
 20
6.470979
 30
0.0
  0
POINT
  5
FC
330
567
100
AcDbEntity
  8
HATCH
  6
Continuous
 62
     7
370
    30
100
AcDbPoint
 10
49.930719
 20
6.470979
 30
0.0
  0
POINT
  5
FD
330
567
100
AcDbEntity
  8
HATCH
  6
Continuous
 62
     7
370
    30
100
AcDbPoint
 10
49.961969
 20
6.470979
 30
0.0
  0
POINT
  5
FE
330
567
100
AcDbEntity
  8
HATCH
  6
Continuous
 62
     7
370
    30
100
AcDbPoint
 10
49.993219
 20
6.470979
 30
0.0
  0
POINT
  5
FF
330
567
100
AcDbEntity
  8
HATCH
  6
Continuous
 62
     7
370
    30
100
AcDbPoint
 10
47.321344
 20
6.502229
 30
0.0
  0
POINT
  5
100
330
567
100
AcDbEntity
  8
HATCH
  6
Continuous
 62
     7
370
    30
100
AcDbPoint
 10
47.352594
 20
6.502229
 30
0.0
  0
POINT
  5
101
330
567
100
AcDbEntity
  8
HATCH
  6
Continuous
 62
     7
370
    30
100
AcDbPoint
 10
47.383844
 20
6.502229
 30
0.0
  0
POINT
  5
102
330
567
100
AcDbEntity
  8
HATCH
  6
Continuous
 62
     7
370
    30
100
AcDbPoint
 10
47.415094
 20
6.502229
 30
0.0
  0
POINT
  5
103
330
567
100
AcDbEntity
  8
HATCH
  6
Continuous
 62
     7
370
    30
100
AcDbPoint
 10
47.446344
 20
6.502229
 30
0.0
  0
POINT
  5
104
330
567
100
AcDbEntity
  8
HATCH
  6
Continuous
 62
     7
370
    30
100
AcDbPoint
 10
47.477594
 20
6.502229
 30
0.0
  0
POINT
  5
105
330
567
100
AcDbEntity
  8
HATCH
  6
Continuous
 62
     7
370
    30
100
AcDbPoint
 10
47.508844
 20
6.502229
 30
0.0
  0
POINT
  5
106
330
567
100
AcDbEntity
  8
HATCH
  6
Continuous
 62
     7
370
    30
100
AcDbPoint
 10
47.540094
 20
6.502229
 30
0.0
  0
POINT
  5
107
330
567
100
AcDbEntity
  8
HATCH
  6
Continuous
 62
     7
370
    30
100
AcDbPoint
 10
47.571344
 20
6.502229
 30
0.0
  0
POINT
  5
108
330
567
100
AcDbEntity
  8
HATCH
  6
Continuous
 62
     7
370
    30
100
AcDbPoint
 10
47.602594
 20
6.502229
 30
0.0
  0
POINT
  5
109
330
567
100
AcDbEntity
  8
HATCH
  6
Continuous
 62
     7
370
    30
100
AcDbPoint
 10
47.633844
 20
6.502229
 30
0.0
  0
POINT
  5
10A
330
567
100
AcDbEntity
  8
HATCH
  6
Continuous
 62
     7
370
    30
100
AcDbPoint
 10
47.665094
 20
6.502229
 30
0.0
  0
POINT
  5
10B
330
567
100
AcDbEntity
  8
HATCH
  6
Continuous
 62
     7
370
    30
100
AcDbPoint
 10
47.696344
 20
6.502229
 30
0.0
  0
POINT
  5
10C
330
567
100
AcDbEntity
  8
HATCH
  6
Continuous
 62
     7
370
    30
100
AcDbPoint
 10
47.727594
 20
6.502229
 30
0.0
  0
POINT
  5
10D
330
567
100
AcDbEntity
  8
HATCH
  6
Continuous
 62
     7
370
    30
100
AcDbPoint
 10
47.758844
 20
6.502229
 30
0.0
  0
POINT
  5
10E
330
567
100
AcDbEntity
  8
HATCH
  6
Continuous
 62
     7
370
    30
100
AcDbPoint
 10
47.790094
 20
6.502229
 30
0.0
  0
POINT
  5
10F
330
567
100
AcDbEntity
  8
HATCH
  6
Continuous
 62
     7
370
    30
100
AcDbPoint
 10
47.821344
 20
6.502229
 30
0.0
  0
POINT
  5
110
330
567
100
AcDbEntity
  8
HATCH
  6
Continuous
 62
     7
370
    30
100
AcDbPoint
 10
47.852594
 20
6.502229
 30
0.0
  0
POINT
  5
111
330
567
100
AcDbEntity
  8
HATCH
  6
Continuous
 62
     7
370
    30
100
AcDbPoint
 10
47.883844
 20
6.502229
 30
0.0
  0
POINT
  5
112
330
567
100
AcDbEntity
  8
HATCH
  6
Continuous
 62
     7
370
    30
100
AcDbPoint
 10
47.915094
 20
6.502229
 30
0.0
  0
POINT
  5
113
330
567
100
AcDbEntity
  8
HATCH
  6
Continuous
 62
     7
370
    30
100
AcDbPoint
 10
47.946344
 20
6.502229
 30
0.0
  0
POINT
  5
114
330
567
100
AcDbEntity
  8
HATCH
  6
Continuous
 62
     7
370
    30
100
AcDbPoint
 10
47.977594
 20
6.502229
 30
0.0
  0
POINT
  5
115
330
567
100
AcDbEntity
  8
HATCH
  6
Continuous
 62
     7
370
    30
100
AcDbPoint
 10
48.008844
 20
6.502229
 30
0.0
  0
POINT
  5
116
330
567
100
AcDbEntity
  8
HATCH
  6
Continuous
 62
     7
370
    30
100
AcDbPoint
 10
48.040094
 20
6.502229
 30
0.0
  0
POINT
  5
117
330
567
100
AcDbEntity
  8
HATCH
  6
Continuous
 62
     7
370
    30
100
AcDbPoint
 10
48.071344
 20
6.502229
 30
0.0
  0
POINT
  5
118
330
567
100
AcDbEntity
  8
HATCH
  6
Continuous
 62
     7
370
    30
100
AcDbPoint
 10
48.102594
 20
6.502229
 30
0.0
  0
POINT
  5
119
330
567
100
AcDbEntity
  8
HATCH
  6
Continuous
 62
     7
370
    30
100
AcDbPoint
 10
48.133844
 20
6.502229
 30
0.0
  0
POINT
  5
11A
330
567
100
AcDbEntity
  8
HATCH
  6
Continuous
 62
     7
370
    30
100
AcDbPoint
 10
48.165094
 20
6.502229
 30
0.0
  0
POINT
  5
11B
330
567
100
AcDbEntity
  8
HATCH
  6
Continuous
 62
     7
370
    30
100
AcDbPoint
 10
48.196344
 20
6.502229
 30
0.0
  0
POINT
  5
11C
330
567
100
AcDbEntity
  8
HATCH
  6
Continuous
 62
     7
370
    30
100
AcDbPoint
 10
48.227594
 20
6.502229
 30
0.0
  0
POINT
  5
11D
330
567
100
AcDbEntity
  8
HATCH
  6
Continuous
 62
     7
370
    30
100
AcDbPoint
 10
48.258844
 20
6.502229
 30
0.0
  0
POINT
  5
11E
330
567
100
AcDbEntity
  8
HATCH
  6
Continuous
 62
     7
370
    30
100
AcDbPoint
 10
48.290094
 20
6.502229
 30
0.0
  0
POINT
  5
11F
330
567
100
AcDbEntity
  8
HATCH
  6
Continuous
 62
     7
370
    30
100
AcDbPoint
 10
48.321344
 20
6.502229
 30
0.0
  0
POINT
  5
120
330
567
100
AcDbEntity
  8
HATCH
  6
Continuous
 62
     7
370
    30
100
AcDbPoint
 10
48.352594
 20
6.502229
 30
0.0
  0
POINT
  5
121
330
567
100
AcDbEntity
  8
HATCH
  6
Continuous
 62
     7
370
    30
100
AcDbPoint
 10
48.383844
 20
6.502229
 30
0.0
  0
POINT
  5
122
330
567
100
AcDbEntity
  8
HATCH
  6
Continuous
 62
     7
370
    30
100
AcDbPoint
 10
48.415094
 20
6.502229
 30
0.0
  0
POINT
  5
123
330
567
100
AcDbEntity
  8
HATCH
  6
Continuous
 62
     7
370
    30
100
AcDbPoint
 10
48.446344
 20
6.502229
 30
0.0
  0
POINT
  5
124
330
567
100
AcDbEntity
  8
HATCH
  6
Continuous
 62
     7
370
    30
100
AcDbPoint
 10
48.477594
 20
6.502229
 30
0.0
  0
POINT
  5
125
330
567
100
AcDbEntity
  8
HATCH
  6
Continuous
 62
     7
370
    30
100
AcDbPoint
 10
48.508844
 20
6.502229
 30
0.0
  0
POINT
  5
126
330
567
100
AcDbEntity
  8
HATCH
  6
Continuous
 62
     7
370
    30
100
AcDbPoint
 10
48.540094
 20
6.502229
 30
0.0
  0
POINT
  5
127
330
567
100
AcDbEntity
  8
HATCH
  6
Continuous
 62
     7
370
    30
100
AcDbPoint
 10
48.571344
 20
6.502229
 30
0.0
  0
POINT
  5
128
330
567
100
AcDbEntity
  8
HATCH
  6
Continuous
 62
     7
370
    30
100
AcDbPoint
 10
48.602594
 20
6.502229
 30
0.0
  0
POINT
  5
129
330
567
100
AcDbEntity
  8
HATCH
  6
Continuous
 62
     7
370
    30
100
AcDbPoint
 10
48.633844
 20
6.502229
 30
0.0
  0
POINT
  5
12A
330
567
100
AcDbEntity
  8
HATCH
  6
Continuous
 62
     7
370
    30
100
AcDbPoint
 10
48.665094
 20
6.502229
 30
0.0
  0
POINT
  5
12B
330
567
100
AcDbEntity
  8
HATCH
  6
Continuous
 62
     7
370
    30
100
AcDbPoint
 10
48.696344
 20
6.502229
 30
0.0
  0
POINT
  5
12C
330
567
100
AcDbEntity
  8
HATCH
  6
Continuous
 62
     7
370
    30
100
AcDbPoint
 10
48.727594
 20
6.502229
 30
0.0
  0
POINT
  5
12D
330
567
100
AcDbEntity
  8
HATCH
  6
Continuous
 62
     7
370
    30
100
AcDbPoint
 10
48.758844
 20
6.502229
 30
0.0
  0
POINT
  5
12E
330
567
100
AcDbEntity
  8
HATCH
  6
Continuous
 62
     7
370
    30
100
AcDbPoint
 10
48.790094
 20
6.502229
 30
0.0
  0
POINT
  5
12F
330
567
100
AcDbEntity
  8
HATCH
  6
Continuous
 62
     7
370
    30
100
AcDbPoint
 10
48.821344
 20
6.502229
 30
0.0
  0
POINT
  5
130
330
567
100
AcDbEntity
  8
HATCH
  6
Continuous
 62
     7
370
    30
100
AcDbPoint
 10
48.852594
 20
6.502229
 30
0.0
  0
POINT
  5
131
330
567
100
AcDbEntity
  8
HATCH
  6
Continuous
 62
     7
370
    30
100
AcDbPoint
 10
48.883844
 20
6.502229
 30
0.0
  0
POINT
  5
132
330
567
100
AcDbEntity
  8
HATCH
  6
Continuous
 62
     7
370
    30
100
AcDbPoint
 10
48.915094
 20
6.502229
 30
0.0
  0
POINT
  5
133
330
567
100
AcDbEntity
  8
HATCH
  6
Continuous
 62
     7
370
    30
100
AcDbPoint
 10
48.946344
 20
6.502229
 30
0.0
  0
POINT
  5
134
330
567
100
AcDbEntity
  8
HATCH
  6
Continuous
 62
     7
370
    30
100
AcDbPoint
 10
48.977594
 20
6.502229
 30
0.0
  0
POINT
  5
135
330
567
100
AcDbEntity
  8
HATCH
  6
Continuous
 62
     7
370
    30
100
AcDbPoint
 10
49.008844
 20
6.502229
 30
0.0
  0
POINT
  5
136
330
567
100
AcDbEntity
  8
HATCH
  6
Continuous
 62
     7
370
    30
100
AcDbPoint
 10
49.040094
 20
6.502229
 30
0.0
  0
POINT
  5
137
330
567
100
AcDbEntity
  8
HATCH
  6
Continuous
 62
     7
370
    30
100
AcDbPoint
 10
49.071344
 20
6.502229
 30
0.0
  0
POINT
  5
138
330
567
100
AcDbEntity
  8
HATCH
  6
Continuous
 62
     7
370
    30
100
AcDbPoint
 10
49.102594
 20
6.502229
 30
0.0
  0
POINT
  5
139
330
567
100
AcDbEntity
  8
HATCH
  6
Continuous
 62
     7
370
    30
100
AcDbPoint
 10
49.133844
 20
6.502229
 30
0.0
  0
POINT
  5
13A
330
567
100
AcDbEntity
  8
HATCH
  6
Continuous
 62
     7
370
    30
100
AcDbPoint
 10
49.165094
 20
6.502229
 30
0.0
  0
POINT
  5
13B
330
567
100
AcDbEntity
  8
HATCH
  6
Continuous
 62
     7
370
    30
100
AcDbPoint
 10
49.196344
 20
6.502229
 30
0.0
  0
POINT
  5
13C
330
567
100
AcDbEntity
  8
HATCH
  6
Continuous
 62
     7
370
    30
100
AcDbPoint
 10
49.227594
 20
6.502229
 30
0.0
  0
POINT
  5
13D
330
567
100
AcDbEntity
  8
HATCH
  6
Continuous
 62
     7
370
    30
100
AcDbPoint
 10
49.258844
 20
6.502229
 30
0.0
  0
POINT
  5
13E
330
567
100
AcDbEntity
  8
HATCH
  6
Continuous
 62
     7
370
    30
100
AcDbPoint
 10
49.290094
 20
6.502229
 30
0.0
  0
POINT
  5
13F
330
567
100
AcDbEntity
  8
HATCH
  6
Continuous
 62
     7
370
    30
100
AcDbPoint
 10
49.321344
 20
6.502229
 30
0.0
  0
POINT
  5
140
330
567
100
AcDbEntity
  8
HATCH
  6
Continuous
 62
     7
370
    30
100
AcDbPoint
 10
49.352594
 20
6.502229
 30
0.0
  0
POINT
  5
141
330
567
100
AcDbEntity
  8
HATCH
  6
Continuous
 62
     7
370
    30
100
AcDbPoint
 10
49.383844
 20
6.502229
 30
0.0
  0
POINT
  5
142
330
567
100
AcDbEntity
  8
HATCH
  6
Continuous
 62
     7
370
    30
100
AcDbPoint
 10
49.415094
 20
6.502229
 30
0.0
  0
POINT
  5
143
330
567
100
AcDbEntity
  8
HATCH
  6
Continuous
 62
     7
370
    30
100
AcDbPoint
 10
49.446344
 20
6.502229
 30
0.0
  0
POINT
  5
144
330
567
100
AcDbEntity
  8
HATCH
  6
Continuous
 62
     7
370
    30
100
AcDbPoint
 10
49.477594
 20
6.502229
 30
0.0
  0
POINT
  5
145
330
567
100
AcDbEntity
  8
HATCH
  6
Continuous
 62
     7
370
    30
100
AcDbPoint
 10
49.508844
 20
6.502229
 30
0.0
  0
POINT
  5
146
330
567
100
AcDbEntity
  8
HATCH
  6
Continuous
 62
     7
370
    30
100
AcDbPoint
 10
49.540094
 20
6.502229
 30
0.0
  0
POINT
  5
147
330
567
100
AcDbEntity
  8
HATCH
  6
Continuous
 62
     7
370
    30
100
AcDbPoint
 10
49.571344
 20
6.502229
 30
0.0
  0
POINT
  5
148
330
567
100
AcDbEntity
  8
HATCH
  6
Continuous
 62
     7
370
    30
100
AcDbPoint
 10
49.602594
 20
6.502229
 30
0.0
  0
POINT
  5
149
330
567
100
AcDbEntity
  8
HATCH
  6
Continuous
 62
     7
370
    30
100
AcDbPoint
 10
49.633844
 20
6.502229
 30
0.0
  0
POINT
  5
14A
330
567
100
AcDbEntity
  8
HATCH
  6
Continuous
 62
     7
370
    30
100
AcDbPoint
 10
49.665094
 20
6.502229
 30
0.0
  0
POINT
  5
14B
330
567
100
AcDbEntity
  8
HATCH
  6
Continuous
 62
     7
370
    30
100
AcDbPoint
 10
49.696344
 20
6.502229
 30
0.0
  0
POINT
  5
14C
330
567
100
AcDbEntity
  8
HATCH
  6
Continuous
 62
     7
370
    30
100
AcDbPoint
 10
49.727594
 20
6.502229
 30
0.0
  0
POINT
  5
14D
330
567
100
AcDbEntity
  8
HATCH
  6
Continuous
 62
     7
370
    30
100
AcDbPoint
 10
49.758844
 20
6.502229
 30
0.0
  0
POINT
  5
14E
330
567
100
AcDbEntity
  8
HATCH
  6
Continuous
 62
     7
370
    30
100
AcDbPoint
 10
49.790094
 20
6.502229
 30
0.0
  0
POINT
  5
14F
330
567
100
AcDbEntity
  8
HATCH
  6
Continuous
 62
     7
370
    30
100
AcDbPoint
 10
49.821344
 20
6.502229
 30
0.0
  0
POINT
  5
150
330
567
100
AcDbEntity
  8
HATCH
  6
Continuous
 62
     7
370
    30
100
AcDbPoint
 10
49.852594
 20
6.502229
 30
0.0
  0
POINT
  5
151
330
567
100
AcDbEntity
  8
HATCH
  6
Continuous
 62
     7
370
    30
100
AcDbPoint
 10
49.883844
 20
6.502229
 30
0.0
  0
POINT
  5
152
330
567
100
AcDbEntity
  8
HATCH
  6
Continuous
 62
     7
370
    30
100
AcDbPoint
 10
49.915094
 20
6.502229
 30
0.0
  0
POINT
  5
153
330
567
100
AcDbEntity
  8
HATCH
  6
Continuous
 62
     7
370
    30
100
AcDbPoint
 10
49.946344
 20
6.502229
 30
0.0
  0
POINT
  5
154
330
567
100
AcDbEntity
  8
HATCH
  6
Continuous
 62
     7
370
    30
100
AcDbPoint
 10
49.977594
 20
6.502229
 30
0.0
  0
POINT
  5
155
330
567
100
AcDbEntity
  8
HATCH
  6
Continuous
 62
     7
370
    30
100
AcDbPoint
 10
50.008844
 20
6.502229
 30
0.0
  0
POINT
  5
156
330
567
100
AcDbEntity
  8
HATCH
  6
Continuous
 62
     7
370
    30
100
AcDbPoint
 10
50.040094
 20
6.502229
 30
0.0
  0
POINT
  5
157
330
567
100
AcDbEntity
  8
HATCH
  6
Continuous
 62
     7
370
    30
100
AcDbPoint
 10
50.071344
 20
6.502229
 30
0.0
  0
POINT
  5
158
330
567
100
AcDbEntity
  8
HATCH
  6
Continuous
 62
     7
370
    30
100
AcDbPoint
 10
50.102594
 20
6.502229
 30
0.0
  0
POINT
  5
159
330
567
100
AcDbEntity
  8
HATCH
  6
Continuous
 62
     7
370
    30
100
AcDbPoint
 10
47.274469
 20
6.533479
 30
0.0
  0
POINT
  5
15A
330
567
100
AcDbEntity
  8
HATCH
  6
Continuous
 62
     7
370
    30
100
AcDbPoint
 10
47.305719
 20
6.533479
 30
0.0
  0
POINT
  5
15B
330
567
100
AcDbEntity
  8
HATCH
  6
Continuous
 62
     7
370
    30
100
AcDbPoint
 10
47.336969
 20
6.533479
 30
0.0
  0
POINT
  5
15C
330
567
100
AcDbEntity
  8
HATCH
  6
Continuous
 62
     7
370
    30
100
AcDbPoint
 10
47.368219
 20
6.533479
 30
0.0
  0
POINT
  5
15D
330
567
100
AcDbEntity
  8
HATCH
  6
Continuous
 62
     7
370
    30
100
AcDbPoint
 10
47.399469
 20
6.533479
 30
0.0
  0
POINT
  5
15E
330
567
100
AcDbEntity
  8
HATCH
  6
Continuous
 62
     7
370
    30
100
AcDbPoint
 10
47.430719
 20
6.533479
 30
0.0
  0
POINT
  5
15F
330
567
100
AcDbEntity
  8
HATCH
  6
Continuous
 62
     7
370
    30
100
AcDbPoint
 10
47.461969
 20
6.533479
 30
0.0
  0
POINT
  5
160
330
567
100
AcDbEntity
  8
HATCH
  6
Continuous
 62
     7
370
    30
100
AcDbPoint
 10
47.493219
 20
6.533479
 30
0.0
  0
POINT
  5
161
330
567
100
AcDbEntity
  8
HATCH
  6
Continuous
 62
     7
370
    30
100
AcDbPoint
 10
47.524469
 20
6.533479
 30
0.0
  0
POINT
  5
162
330
567
100
AcDbEntity
  8
HATCH
  6
Continuous
 62
     7
370
    30
100
AcDbPoint
 10
47.555719
 20
6.533479
 30
0.0
  0
POINT
  5
163
330
567
100
AcDbEntity
  8
HATCH
  6
Continuous
 62
     7
370
    30
100
AcDbPoint
 10
47.586969
 20
6.533479
 30
0.0
  0
POINT
  5
164
330
567
100
AcDbEntity
  8
HATCH
  6
Continuous
 62
     7
370
    30
100
AcDbPoint
 10
47.618219
 20
6.533479
 30
0.0
  0
POINT
  5
165
330
567
100
AcDbEntity
  8
HATCH
  6
Continuous
 62
     7
370
    30
100
AcDbPoint
 10
47.649469
 20
6.533479
 30
0.0
  0
POINT
  5
166
330
567
100
AcDbEntity
  8
HATCH
  6
Continuous
 62
     7
370
    30
100
AcDbPoint
 10
47.680719
 20
6.533479
 30
0.0
  0
POINT
  5
167
330
567
100
AcDbEntity
  8
HATCH
  6
Continuous
 62
     7
370
    30
100
AcDbPoint
 10
47.711969
 20
6.533479
 30
0.0
  0
POINT
  5
168
330
567
100
AcDbEntity
  8
HATCH
  6
Continuous
 62
     7
370
    30
100
AcDbPoint
 10
47.743219
 20
6.533479
 30
0.0
  0
POINT
  5
169
330
567
100
AcDbEntity
  8
HATCH
  6
Continuous
 62
     7
370
    30
100
AcDbPoint
 10
47.774469
 20
6.533479
 30
0.0
  0
POINT
  5
16A
330
567
100
AcDbEntity
  8
HATCH
  6
Continuous
 62
     7
370
    30
100
AcDbPoint
 10
47.805719
 20
6.533479
 30
0.0
  0
POINT
  5
16B
330
567
100
AcDbEntity
  8
HATCH
  6
Continuous
 62
     7
370
    30
100
AcDbPoint
 10
47.836969
 20
6.533479
 30
0.0
  0
POINT
  5
16C
330
567
100
AcDbEntity
  8
HATCH
  6
Continuous
 62
     7
370
    30
100
AcDbPoint
 10
47.868219
 20
6.533479
 30
0.0
  0
POINT
  5
16D
330
567
100
AcDbEntity
  8
HATCH
  6
Continuous
 62
     7
370
    30
100
AcDbPoint
 10
47.899469
 20
6.533479
 30
0.0
  0
POINT
  5
16E
330
567
100
AcDbEntity
  8
HATCH
  6
Continuous
 62
     7
370
    30
100
AcDbPoint
 10
47.930719
 20
6.533479
 30
0.0
  0
POINT
  5
16F
330
567
100
AcDbEntity
  8
HATCH
  6
Continuous
 62
     7
370
    30
100
AcDbPoint
 10
47.961969
 20
6.533479
 30
0.0
  0
POINT
  5
170
330
567
100
AcDbEntity
  8
HATCH
  6
Continuous
 62
     7
370
    30
100
AcDbPoint
 10
47.993219
 20
6.533479
 30
0.0
  0
POINT
  5
171
330
567
100
AcDbEntity
  8
HATCH
  6
Continuous
 62
     7
370
    30
100
AcDbPoint
 10
48.024469
 20
6.533479
 30
0.0
  0
POINT
  5
172
330
567
100
AcDbEntity
  8
HATCH
  6
Continuous
 62
     7
370
    30
100
AcDbPoint
 10
48.055719
 20
6.533479
 30
0.0
  0
POINT
  5
173
330
567
100
AcDbEntity
  8
HATCH
  6
Continuous
 62
     7
370
    30
100
AcDbPoint
 10
48.086969
 20
6.533479
 30
0.0
  0
POINT
  5
174
330
567
100
AcDbEntity
  8
HATCH
  6
Continuous
 62
     7
370
    30
100
AcDbPoint
 10
48.118219
 20
6.533479
 30
0.0
  0
POINT
  5
175
330
567
100
AcDbEntity
  8
HATCH
  6
Continuous
 62
     7
370
    30
100
AcDbPoint
 10
48.149469
 20
6.533479
 30
0.0
  0
POINT
  5
176
330
567
100
AcDbEntity
  8
HATCH
  6
Continuous
 62
     7
370
    30
100
AcDbPoint
 10
48.180719
 20
6.533479
 30
0.0
  0
POINT
  5
177
330
567
100
AcDbEntity
  8
HATCH
  6
Continuous
 62
     7
370
    30
100
AcDbPoint
 10
48.211969
 20
6.533479
 30
0.0
  0
POINT
  5
178
330
567
100
AcDbEntity
  8
HATCH
  6
Continuous
 62
     7
370
    30
100
AcDbPoint
 10
48.243219
 20
6.533479
 30
0.0
  0
POINT
  5
179
330
567
100
AcDbEntity
  8
HATCH
  6
Continuous
 62
     7
370
    30
100
AcDbPoint
 10
48.274469
 20
6.533479
 30
0.0
  0
POINT
  5
17A
330
567
100
AcDbEntity
  8
HATCH
  6
Continuous
 62
     7
370
    30
100
AcDbPoint
 10
48.305719
 20
6.533479
 30
0.0
  0
POINT
  5
17B
330
567
100
AcDbEntity
  8
HATCH
  6
Continuous
 62
     7
370
    30
100
AcDbPoint
 10
48.336969
 20
6.533479
 30
0.0
  0
POINT
  5
17C
330
567
100
AcDbEntity
  8
HATCH
  6
Continuous
 62
     7
370
    30
100
AcDbPoint
 10
48.368219
 20
6.533479
 30
0.0
  0
POINT
  5
17D
330
567
100
AcDbEntity
  8
HATCH
  6
Continuous
 62
     7
370
    30
100
AcDbPoint
 10
48.399469
 20
6.533479
 30
0.0
  0
POINT
  5
17E
330
567
100
AcDbEntity
  8
HATCH
  6
Continuous
 62
     7
370
    30
100
AcDbPoint
 10
48.430719
 20
6.533479
 30
0.0
  0
POINT
  5
17F
330
567
100
AcDbEntity
  8
HATCH
  6
Continuous
 62
     7
370
    30
100
AcDbPoint
 10
48.461969
 20
6.533479
 30
0.0
  0
POINT
  5
180
330
567
100
AcDbEntity
  8
HATCH
  6
Continuous
 62
     7
370
    30
100
AcDbPoint
 10
48.493219
 20
6.533479
 30
0.0
  0
POINT
  5
181
330
567
100
AcDbEntity
  8
HATCH
  6
Continuous
 62
     7
370
    30
100
AcDbPoint
 10
48.524469
 20
6.533479
 30
0.0
  0
POINT
  5
182
330
567
100
AcDbEntity
  8
HATCH
  6
Continuous
 62
     7
370
    30
100
AcDbPoint
 10
48.555719
 20
6.533479
 30
0.0
  0
POINT
  5
183
330
567
100
AcDbEntity
  8
HATCH
  6
Continuous
 62
     7
370
    30
100
AcDbPoint
 10
48.586969
 20
6.533479
 30
0.0
  0
POINT
  5
184
330
567
100
AcDbEntity
  8
HATCH
  6
Continuous
 62
     7
370
    30
100
AcDbPoint
 10
48.618219
 20
6.533479
 30
0.0
  0
POINT
  5
185
330
567
100
AcDbEntity
  8
HATCH
  6
Continuous
 62
     7
370
    30
100
AcDbPoint
 10
48.649469
 20
6.533479
 30
0.0
  0
POINT
  5
186
330
567
100
AcDbEntity
  8
HATCH
  6
Continuous
 62
     7
370
    30
100
AcDbPoint
 10
48.680719
 20
6.533479
 30
0.0
  0
POINT
  5
187
330
567
100
AcDbEntity
  8
HATCH
  6
Continuous
 62
     7
370
    30
100
AcDbPoint
 10
48.711969
 20
6.533479
 30
0.0
  0
POINT
  5
188
330
567
100
AcDbEntity
  8
HATCH
  6
Continuous
 62
     7
370
    30
100
AcDbPoint
 10
48.743219
 20
6.533479
 30
0.0
  0
POINT
  5
189
330
567
100
AcDbEntity
  8
HATCH
  6
Continuous
 62
     7
370
    30
100
AcDbPoint
 10
48.774469
 20
6.533479
 30
0.0
  0
POINT
  5
18A
330
567
100
AcDbEntity
  8
HATCH
  6
Continuous
 62
     7
370
    30
100
AcDbPoint
 10
48.805719
 20
6.533479
 30
0.0
  0
POINT
  5
18B
330
567
100
AcDbEntity
  8
HATCH
  6
Continuous
 62
     7
370
    30
100
AcDbPoint
 10
48.836969
 20
6.533479
 30
0.0
  0
POINT
  5
18C
330
567
100
AcDbEntity
  8
HATCH
  6
Continuous
 62
     7
370
    30
100
AcDbPoint
 10
48.868219
 20
6.533479
 30
0.0
  0
POINT
  5
18D
330
567
100
AcDbEntity
  8
HATCH
  6
Continuous
 62
     7
370
    30
100
AcDbPoint
 10
48.899469
 20
6.533479
 30
0.0
  0
POINT
  5
18E
330
567
100
AcDbEntity
  8
HATCH
  6
Continuous
 62
     7
370
    30
100
AcDbPoint
 10
48.930719
 20
6.533479
 30
0.0
  0
POINT
  5
18F
330
567
100
AcDbEntity
  8
HATCH
  6
Continuous
 62
     7
370
    30
100
AcDbPoint
 10
48.961969
 20
6.533479
 30
0.0
  0
POINT
  5
190
330
567
100
AcDbEntity
  8
HATCH
  6
Continuous
 62
     7
370
    30
100
AcDbPoint
 10
48.993219
 20
6.533479
 30
0.0
  0
POINT
  5
191
330
567
100
AcDbEntity
  8
HATCH
  6
Continuous
 62
     7
370
    30
100
AcDbPoint
 10
49.024469
 20
6.533479
 30
0.0
  0
POINT
  5
192
330
567
100
AcDbEntity
  8
HATCH
  6
Continuous
 62
     7
370
    30
100
AcDbPoint
 10
49.055719
 20
6.533479
 30
0.0
  0
POINT
  5
193
330
567
100
AcDbEntity
  8
HATCH
  6
Continuous
 62
     7
370
    30
100
AcDbPoint
 10
49.086969
 20
6.533479
 30
0.0
  0
POINT
  5
194
330
567
100
AcDbEntity
  8
HATCH
  6
Continuous
 62
     7
370
    30
100
AcDbPoint
 10
49.118219
 20
6.533479
 30
0.0
  0
POINT
  5
195
330
567
100
AcDbEntity
  8
HATCH
  6
Continuous
 62
     7
370
    30
100
AcDbPoint
 10
49.149469
 20
6.533479
 30
0.0
  0
POINT
  5
196
330
567
100
AcDbEntity
  8
HATCH
  6
Continuous
 62
     7
370
    30
100
AcDbPoint
 10
49.180719
 20
6.533479
 30
0.0
  0
POINT
  5
197
330
567
100
AcDbEntity
  8
HATCH
  6
Continuous
 62
     7
370
    30
100
AcDbPoint
 10
49.211969
 20
6.533479
 30
0.0
  0
POINT
  5
198
330
567
100
AcDbEntity
  8
HATCH
  6
Continuous
 62
     7
370
    30
100
AcDbPoint
 10
49.243219
 20
6.533479
 30
0.0
  0
POINT
  5
199
330
567
100
AcDbEntity
  8
HATCH
  6
Continuous
 62
     7
370
    30
100
AcDbPoint
 10
49.274469
 20
6.533479
 30
0.0
  0
POINT
  5
19A
330
567
100
AcDbEntity
  8
HATCH
  6
Continuous
 62
     7
370
    30
100
AcDbPoint
 10
49.305719
 20
6.533479
 30
0.0
  0
POINT
  5
19B
330
567
100
AcDbEntity
  8
HATCH
  6
Continuous
 62
     7
370
    30
100
AcDbPoint
 10
49.336969
 20
6.533479
 30
0.0
  0
POINT
  5
19C
330
567
100
AcDbEntity
  8
HATCH
  6
Continuous
 62
     7
370
    30
100
AcDbPoint
 10
49.368219
 20
6.533479
 30
0.0
  0
POINT
  5
19D
330
567
100
AcDbEntity
  8
HATCH
  6
Continuous
 62
     7
370
    30
100
AcDbPoint
 10
49.399469
 20
6.533479
 30
0.0
  0
POINT
  5
19E
330
567
100
AcDbEntity
  8
HATCH
  6
Continuous
 62
     7
370
    30
100
AcDbPoint
 10
49.430719
 20
6.533479
 30
0.0
  0
POINT
  5
19F
330
567
100
AcDbEntity
  8
HATCH
  6
Continuous
 62
     7
370
    30
100
AcDbPoint
 10
49.461969
 20
6.533479
 30
0.0
  0
POINT
  5
1A0
330
567
100
AcDbEntity
  8
HATCH
  6
Continuous
 62
     7
370
    30
100
AcDbPoint
 10
49.493219
 20
6.533479
 30
0.0
  0
POINT
  5
1A1
330
567
100
AcDbEntity
  8
HATCH
  6
Continuous
 62
     7
370
    30
100
AcDbPoint
 10
49.524469
 20
6.533479
 30
0.0
  0
POINT
  5
1A2
330
567
100
AcDbEntity
  8
HATCH
  6
Continuous
 62
     7
370
    30
100
AcDbPoint
 10
49.555719
 20
6.533479
 30
0.0
  0
POINT
  5
1A3
330
567
100
AcDbEntity
  8
HATCH
  6
Continuous
 62
     7
370
    30
100
AcDbPoint
 10
49.586969
 20
6.533479
 30
0.0
  0
POINT
  5
1A4
330
567
100
AcDbEntity
  8
HATCH
  6
Continuous
 62
     7
370
    30
100
AcDbPoint
 10
49.618219
 20
6.533479
 30
0.0
  0
POINT
  5
1A5
330
567
100
AcDbEntity
  8
HATCH
  6
Continuous
 62
     7
370
    30
100
AcDbPoint
 10
49.649469
 20
6.533479
 30
0.0
  0
POINT
  5
1A6
330
567
100
AcDbEntity
  8
HATCH
  6
Continuous
 62
     7
370
    30
100
AcDbPoint
 10
49.680719
 20
6.533479
 30
0.0
  0
POINT
  5
1A7
330
567
100
AcDbEntity
  8
HATCH
  6
Continuous
 62
     7
370
    30
100
AcDbPoint
 10
49.711969
 20
6.533479
 30
0.0
  0
POINT
  5
1A8
330
567
100
AcDbEntity
  8
HATCH
  6
Continuous
 62
     7
370
    30
100
AcDbPoint
 10
49.743219
 20
6.533479
 30
0.0
  0
POINT
  5
1A9
330
567
100
AcDbEntity
  8
HATCH
  6
Continuous
 62
     7
370
    30
100
AcDbPoint
 10
49.774469
 20
6.533479
 30
0.0
  0
POINT
  5
1AA
330
567
100
AcDbEntity
  8
HATCH
  6
Continuous
 62
     7
370
    30
100
AcDbPoint
 10
49.805719
 20
6.533479
 30
0.0
  0
POINT
  5
1AB
330
567
100
AcDbEntity
  8
HATCH
  6
Continuous
 62
     7
370
    30
100
AcDbPoint
 10
49.836969
 20
6.533479
 30
0.0
  0
POINT
  5
1AC
330
567
100
AcDbEntity
  8
HATCH
  6
Continuous
 62
     7
370
    30
100
AcDbPoint
 10
49.868219
 20
6.533479
 30
0.0
  0
POINT
  5
1AD
330
567
100
AcDbEntity
  8
HATCH
  6
Continuous
 62
     7
370
    30
100
AcDbPoint
 10
49.899469
 20
6.533479
 30
0.0
  0
POINT
  5
1AE
330
567
100
AcDbEntity
  8
HATCH
  6
Continuous
 62
     7
370
    30
100
AcDbPoint
 10
49.930719
 20
6.533479
 30
0.0
  0
POINT
  5
1AF
330
567
100
AcDbEntity
  8
HATCH
  6
Continuous
 62
     7
370
    30
100
AcDbPoint
 10
49.961969
 20
6.533479
 30
0.0
  0
POINT
  5
1B0
330
567
100
AcDbEntity
  8
HATCH
  6
Continuous
 62
     7
370
    30
100
AcDbPoint
 10
49.993219
 20
6.533479
 30
0.0
  0
POINT
  5
1B1
330
567
100
AcDbEntity
  8
HATCH
  6
Continuous
 62
     7
370
    30
100
AcDbPoint
 10
50.024469
 20
6.533479
 30
0.0
  0
POINT
  5
1B2
330
567
100
AcDbEntity
  8
HATCH
  6
Continuous
 62
     7
370
    30
100
AcDbPoint
 10
50.055719
 20
6.533479
 30
0.0
  0
POINT
  5
1B3
330
567
100
AcDbEntity
  8
HATCH
  6
Continuous
 62
     7
370
    30
100
AcDbPoint
 10
47.258844
 20
6.564729
 30
0.0
  0
POINT
  5
1B4
330
567
100
AcDbEntity
  8
HATCH
  6
Continuous
 62
     7
370
    30
100
AcDbPoint
 10
47.290094
 20
6.564729
 30
0.0
  0
POINT
  5
1B5
330
567
100
AcDbEntity
  8
HATCH
  6
Continuous
 62
     7
370
    30
100
AcDbPoint
 10
47.321344
 20
6.564729
 30
0.0
  0
POINT
  5
1B6
330
567
100
AcDbEntity
  8
HATCH
  6
Continuous
 62
     7
370
    30
100
AcDbPoint
 10
47.352594
 20
6.564729
 30
0.0
  0
POINT
  5
1B7
330
567
100
AcDbEntity
  8
HATCH
  6
Continuous
 62
     7
370
    30
100
AcDbPoint
 10
47.383844
 20
6.564729
 30
0.0
  0
POINT
  5
1B8
330
567
100
AcDbEntity
  8
HATCH
  6
Continuous
 62
     7
370
    30
100
AcDbPoint
 10
47.415094
 20
6.564729
 30
0.0
  0
POINT
  5
1B9
330
567
100
AcDbEntity
  8
HATCH
  6
Continuous
 62
     7
370
    30
100
AcDbPoint
 10
47.446344
 20
6.564729
 30
0.0
  0
POINT
  5
1BA
330
567
100
AcDbEntity
  8
HATCH
  6
Continuous
 62
     7
370
    30
100
AcDbPoint
 10
49.852594
 20
6.564729
 30
0.0
  0
POINT
  5
1BB
330
567
100
AcDbEntity
  8
HATCH
  6
Continuous
 62
     7
370
    30
100
AcDbPoint
 10
49.883844
 20
6.564729
 30
0.0
  0
POINT
  5
1BC
330
567
100
AcDbEntity
  8
HATCH
  6
Continuous
 62
     7
370
    30
100
AcDbPoint
 10
49.915094
 20
6.564729
 30
0.0
  0
POINT
  5
1BD
330
567
100
AcDbEntity
  8
HATCH
  6
Continuous
 62
     7
370
    30
100
AcDbPoint
 10
49.946344
 20
6.564729
 30
0.0
  0
POINT
  5
1BE
330
567
100
AcDbEntity
  8
HATCH
  6
Continuous
 62
     7
370
    30
100
AcDbPoint
 10
49.977594
 20
6.564729
 30
0.0
  0
POINT
  5
1BF
330
567
100
AcDbEntity
  8
HATCH
  6
Continuous
 62
     7
370
    30
100
AcDbPoint
 10
50.008844
 20
6.564729
 30
0.0
  0
POINT
  5
1C0
330
567
100
AcDbEntity
  8
HATCH
  6
Continuous
 62
     7
370
    30
100
AcDbPoint
 10
50.040094
 20
6.564729
 30
0.0
  0
POINT
  5
1C1
330
567
100
AcDbEntity
  8
HATCH
  6
Continuous
 62
     7
370
    30
100
AcDbPoint
 10
47.602594
 20
6.564729
 30
0.0
  0
POINT
  5
1C2
330
567
100
AcDbEntity
  8
HATCH
  6
Continuous
 62
     7
370
    30
100
AcDbPoint
 10
47.633844
 20
6.564729
 30
0.0
  0
POINT
  5
1C3
330
567
100
AcDbEntity
  8
HATCH
  6
Continuous
 62
     7
370
    30
100
AcDbPoint
 10
47.665094
 20
6.564729
 30
0.0
  0
POINT
  5
1C4
330
567
100
AcDbEntity
  8
HATCH
  6
Continuous
 62
     7
370
    30
100
AcDbPoint
 10
47.696344
 20
6.564729
 30
0.0
  0
POINT
  5
1C5
330
567
100
AcDbEntity
  8
HATCH
  6
Continuous
 62
     7
370
    30
100
AcDbPoint
 10
47.727594
 20
6.564729
 30
0.0
  0
POINT
  5
1C6
330
567
100
AcDbEntity
  8
HATCH
  6
Continuous
 62
     7
370
    30
100
AcDbPoint
 10
47.758844
 20
6.564729
 30
0.0
  0
POINT
  5
1C7
330
567
100
AcDbEntity
  8
HATCH
  6
Continuous
 62
     7
370
    30
100
AcDbPoint
 10
47.790094
 20
6.564729
 30
0.0
  0
POINT
  5
1C8
330
567
100
AcDbEntity
  8
HATCH
  6
Continuous
 62
     7
370
    30
100
AcDbPoint
 10
47.821344
 20
6.564729
 30
0.0
  0
POINT
  5
1C9
330
567
100
AcDbEntity
  8
HATCH
  6
Continuous
 62
     7
370
    30
100
AcDbPoint
 10
47.852594
 20
6.564729
 30
0.0
  0
POINT
  5
1CA
330
567
100
AcDbEntity
  8
HATCH
  6
Continuous
 62
     7
370
    30
100
AcDbPoint
 10
47.883844
 20
6.564729
 30
0.0
  0
POINT
  5
1CB
330
567
100
AcDbEntity
  8
HATCH
  6
Continuous
 62
     7
370
    30
100
AcDbPoint
 10
47.915094
 20
6.564729
 30
0.0
  0
POINT
  5
1CC
330
567
100
AcDbEntity
  8
HATCH
  6
Continuous
 62
     7
370
    30
100
AcDbPoint
 10
47.946344
 20
6.564729
 30
0.0
  0
POINT
  5
1CD
330
567
100
AcDbEntity
  8
HATCH
  6
Continuous
 62
     7
370
    30
100
AcDbPoint
 10
47.977594
 20
6.564729
 30
0.0
  0
POINT
  5
1CE
330
567
100
AcDbEntity
  8
HATCH
  6
Continuous
 62
     7
370
    30
100
AcDbPoint
 10
48.008844
 20
6.564729
 30
0.0
  0
POINT
  5
1CF
330
567
100
AcDbEntity
  8
HATCH
  6
Continuous
 62
     7
370
    30
100
AcDbPoint
 10
48.040094
 20
6.564729
 30
0.0
  0
POINT
  5
1D0
330
567
100
AcDbEntity
  8
HATCH
  6
Continuous
 62
     7
370
    30
100
AcDbPoint
 10
48.071344
 20
6.564729
 30
0.0
  0
POINT
  5
1D1
330
567
100
AcDbEntity
  8
HATCH
  6
Continuous
 62
     7
370
    30
100
AcDbPoint
 10
48.102594
 20
6.564729
 30
0.0
  0
POINT
  5
1D2
330
567
100
AcDbEntity
  8
HATCH
  6
Continuous
 62
     7
370
    30
100
AcDbPoint
 10
48.133844
 20
6.564729
 30
0.0
  0
POINT
  5
1D3
330
567
100
AcDbEntity
  8
HATCH
  6
Continuous
 62
     7
370
    30
100
AcDbPoint
 10
48.165094
 20
6.564729
 30
0.0
  0
POINT
  5
1D4
330
567
100
AcDbEntity
  8
HATCH
  6
Continuous
 62
     7
370
    30
100
AcDbPoint
 10
48.196344
 20
6.564729
 30
0.0
  0
POINT
  5
1D5
330
567
100
AcDbEntity
  8
HATCH
  6
Continuous
 62
     7
370
    30
100
AcDbPoint
 10
49.102594
 20
6.564729
 30
0.0
  0
POINT
  5
1D6
330
567
100
AcDbEntity
  8
HATCH
  6
Continuous
 62
     7
370
    30
100
AcDbPoint
 10
49.133844
 20
6.564729
 30
0.0
  0
POINT
  5
1D7
330
567
100
AcDbEntity
  8
HATCH
  6
Continuous
 62
     7
370
    30
100
AcDbPoint
 10
49.165094
 20
6.564729
 30
0.0
  0
POINT
  5
1D8
330
567
100
AcDbEntity
  8
HATCH
  6
Continuous
 62
     7
370
    30
100
AcDbPoint
 10
49.196344
 20
6.564729
 30
0.0
  0
POINT
  5
1D9
330
567
100
AcDbEntity
  8
HATCH
  6
Continuous
 62
     7
370
    30
100
AcDbPoint
 10
49.227594
 20
6.564729
 30
0.0
  0
POINT
  5
1DA
330
567
100
AcDbEntity
  8
HATCH
  6
Continuous
 62
     7
370
    30
100
AcDbPoint
 10
49.258844
 20
6.564729
 30
0.0
  0
POINT
  5
1DB
330
567
100
AcDbEntity
  8
HATCH
  6
Continuous
 62
     7
370
    30
100
AcDbPoint
 10
49.290094
 20
6.564729
 30
0.0
  0
POINT
  5
1DC
330
567
100
AcDbEntity
  8
HATCH
  6
Continuous
 62
     7
370
    30
100
AcDbPoint
 10
49.321344
 20
6.564729
 30
0.0
  0
POINT
  5
1DD
330
567
100
AcDbEntity
  8
HATCH
  6
Continuous
 62
     7
370
    30
100
AcDbPoint
 10
49.352594
 20
6.564729
 30
0.0
  0
POINT
  5
1DE
330
567
100
AcDbEntity
  8
HATCH
  6
Continuous
 62
     7
370
    30
100
AcDbPoint
 10
49.383844
 20
6.564729
 30
0.0
  0
POINT
  5
1DF
330
567
100
AcDbEntity
  8
HATCH
  6
Continuous
 62
     7
370
    30
100
AcDbPoint
 10
49.415094
 20
6.564729
 30
0.0
  0
POINT
  5
1E0
330
567
100
AcDbEntity
  8
HATCH
  6
Continuous
 62
     7
370
    30
100
AcDbPoint
 10
49.446344
 20
6.564729
 30
0.0
  0
POINT
  5
1E1
330
567
100
AcDbEntity
  8
HATCH
  6
Continuous
 62
     7
370
    30
100
AcDbPoint
 10
49.477594
 20
6.564729
 30
0.0
  0
POINT
  5
1E2
330
567
100
AcDbEntity
  8
HATCH
  6
Continuous
 62
     7
370
    30
100
AcDbPoint
 10
49.508844
 20
6.564729
 30
0.0
  0
POINT
  5
1E3
330
567
100
AcDbEntity
  8
HATCH
  6
Continuous
 62
     7
370
    30
100
AcDbPoint
 10
49.540094
 20
6.564729
 30
0.0
  0
POINT
  5
1E4
330
567
100
AcDbEntity
  8
HATCH
  6
Continuous
 62
     7
370
    30
100
AcDbPoint
 10
49.571344
 20
6.564729
 30
0.0
  0
POINT
  5
1E5
330
567
100
AcDbEntity
  8
HATCH
  6
Continuous
 62
     7
370
    30
100
AcDbPoint
 10
49.602594
 20
6.564729
 30
0.0
  0
POINT
  5
1E6
330
567
100
AcDbEntity
  8
HATCH
  6
Continuous
 62
     7
370
    30
100
AcDbPoint
 10
49.633844
 20
6.564729
 30
0.0
  0
POINT
  5
1E7
330
567
100
AcDbEntity
  8
HATCH
  6
Continuous
 62
     7
370
    30
100
AcDbPoint
 10
49.665094
 20
6.564729
 30
0.0
  0
POINT
  5
1E8
330
567
100
AcDbEntity
  8
HATCH
  6
Continuous
 62
     7
370
    30
100
AcDbPoint
 10
49.696344
 20
6.564729
 30
0.0
  0
POINT
  5
1E9
330
567
100
AcDbEntity
  8
HATCH
  6
Continuous
 62
     7
370
    30
100
AcDbPoint
 10
48.352594
 20
6.564729
 30
0.0
  0
POINT
  5
1EA
330
567
100
AcDbEntity
  8
HATCH
  6
Continuous
 62
     7
370
    30
100
AcDbPoint
 10
48.383844
 20
6.564729
 30
0.0
  0
POINT
  5
1EB
330
567
100
AcDbEntity
  8
HATCH
  6
Continuous
 62
     7
370
    30
100
AcDbPoint
 10
48.415094
 20
6.564729
 30
0.0
  0
POINT
  5
1EC
330
567
100
AcDbEntity
  8
HATCH
  6
Continuous
 62
     7
370
    30
100
AcDbPoint
 10
48.446344
 20
6.564729
 30
0.0
  0
POINT
  5
1ED
330
567
100
AcDbEntity
  8
HATCH
  6
Continuous
 62
     7
370
    30
100
AcDbPoint
 10
48.477594
 20
6.564729
 30
0.0
  0
POINT
  5
1EE
330
567
100
AcDbEntity
  8
HATCH
  6
Continuous
 62
     7
370
    30
100
AcDbPoint
 10
48.508844
 20
6.564729
 30
0.0
  0
POINT
  5
1EF
330
567
100
AcDbEntity
  8
HATCH
  6
Continuous
 62
     7
370
    30
100
AcDbPoint
 10
48.540094
 20
6.564729
 30
0.0
  0
POINT
  5
1F0
330
567
100
AcDbEntity
  8
HATCH
  6
Continuous
 62
     7
370
    30
100
AcDbPoint
 10
48.571344
 20
6.564729
 30
0.0
  0
POINT
  5
1F1
330
567
100
AcDbEntity
  8
HATCH
  6
Continuous
 62
     7
370
    30
100
AcDbPoint
 10
48.602594
 20
6.564729
 30
0.0
  0
POINT
  5
1F2
330
567
100
AcDbEntity
  8
HATCH
  6
Continuous
 62
     7
370
    30
100
AcDbPoint
 10
48.633844
 20
6.564729
 30
0.0
  0
POINT
  5
1F3
330
567
100
AcDbEntity
  8
HATCH
  6
Continuous
 62
     7
370
    30
100
AcDbPoint
 10
48.665094
 20
6.564729
 30
0.0
  0
POINT
  5
1F4
330
567
100
AcDbEntity
  8
HATCH
  6
Continuous
 62
     7
370
    30
100
AcDbPoint
 10
48.696344
 20
6.564729
 30
0.0
  0
POINT
  5
1F5
330
567
100
AcDbEntity
  8
HATCH
  6
Continuous
 62
     7
370
    30
100
AcDbPoint
 10
48.727594
 20
6.564729
 30
0.0
  0
POINT
  5
1F6
330
567
100
AcDbEntity
  8
HATCH
  6
Continuous
 62
     7
370
    30
100
AcDbPoint
 10
48.758844
 20
6.564729
 30
0.0
  0
POINT
  5
1F7
330
567
100
AcDbEntity
  8
HATCH
  6
Continuous
 62
     7
370
    30
100
AcDbPoint
 10
48.790094
 20
6.564729
 30
0.0
  0
POINT
  5
1F8
330
567
100
AcDbEntity
  8
HATCH
  6
Continuous
 62
     7
370
    30
100
AcDbPoint
 10
48.821344
 20
6.564729
 30
0.0
  0
POINT
  5
1F9
330
567
100
AcDbEntity
  8
HATCH
  6
Continuous
 62
     7
370
    30
100
AcDbPoint
 10
48.852594
 20
6.564729
 30
0.0
  0
POINT
  5
1FA
330
567
100
AcDbEntity
  8
HATCH
  6
Continuous
 62
     7
370
    30
100
AcDbPoint
 10
48.883844
 20
6.564729
 30
0.0
  0
POINT
  5
1FB
330
567
100
AcDbEntity
  8
HATCH
  6
Continuous
 62
     7
370
    30
100
AcDbPoint
 10
48.915094
 20
6.564729
 30
0.0
  0
POINT
  5
1FC
330
567
100
AcDbEntity
  8
HATCH
  6
Continuous
 62
     7
370
    30
100
AcDbPoint
 10
47.274469
 20
6.595979
 30
0.0
  0
POINT
  5
1FD
330
567
100
AcDbEntity
  8
HATCH
  6
Continuous
 62
     7
370
    30
100
AcDbPoint
 10
47.305719
 20
6.595979
 30
0.0
  0
POINT
  5
1FE
330
567
100
AcDbEntity
  8
HATCH
  6
Continuous
 62
     7
370
    30
100
AcDbPoint
 10
47.336969
 20
6.595979
 30
0.0
  0
POINT
  5
1FF
330
567
100
AcDbEntity
  8
HATCH
  6
Continuous
 62
     7
370
    30
100
AcDbPoint
 10
47.368219
 20
6.595979
 30
0.0
  0
POINT
  5
200
330
567
100
AcDbEntity
  8
HATCH
  6
Continuous
 62
     7
370
    30
100
AcDbPoint
 10
47.399469
 20
6.595979
 30
0.0
  0
POINT
  5
201
330
567
100
AcDbEntity
  8
HATCH
  6
Continuous
 62
     7
370
    30
100
AcDbPoint
 10
47.430719
 20
6.595979
 30
0.0
  0
POINT
  5
202
330
567
100
AcDbEntity
  8
HATCH
  6
Continuous
 62
     7
370
    30
100
AcDbPoint
 10
49.868219
 20
6.595979
 30
0.0
  0
POINT
  5
203
330
567
100
AcDbEntity
  8
HATCH
  6
Continuous
 62
     7
370
    30
100
AcDbPoint
 10
49.899469
 20
6.595979
 30
0.0
  0
POINT
  5
204
330
567
100
AcDbEntity
  8
HATCH
  6
Continuous
 62
     7
370
    30
100
AcDbPoint
 10
49.930719
 20
6.595979
 30
0.0
  0
POINT
  5
205
330
567
100
AcDbEntity
  8
HATCH
  6
Continuous
 62
     7
370
    30
100
AcDbPoint
 10
49.961969
 20
6.595979
 30
0.0
  0
POINT
  5
206
330
567
100
AcDbEntity
  8
HATCH
  6
Continuous
 62
     7
370
    30
100
AcDbPoint
 10
49.993219
 20
6.595979
 30
0.0
  0
POINT
  5
207
330
567
100
AcDbEntity
  8
HATCH
  6
Continuous
 62
     7
370
    30
100
AcDbPoint
 10
50.024469
 20
6.595979
 30
0.0
  0
POINT
  5
208
330
567
100
AcDbEntity
  8
HATCH
  6
Continuous
 62
     7
370
    30
100
AcDbPoint
 10
47.618219
 20
6.595979
 30
0.0
  0
POINT
  5
209
330
567
100
AcDbEntity
  8
HATCH
  6
Continuous
 62
     7
370
    30
100
AcDbPoint
 10
47.649469
 20
6.595979
 30
0.0
  0
POINT
  5
20A
330
567
100
AcDbEntity
  8
HATCH
  6
Continuous
 62
     7
370
    30
100
AcDbPoint
 10
47.680719
 20
6.595979
 30
0.0
  0
POINT
  5
20B
330
567
100
AcDbEntity
  8
HATCH
  6
Continuous
 62
     7
370
    30
100
AcDbPoint
 10
47.711969
 20
6.595979
 30
0.0
  0
POINT
  5
20C
330
567
100
AcDbEntity
  8
HATCH
  6
Continuous
 62
     7
370
    30
100
AcDbPoint
 10
47.743219
 20
6.595979
 30
0.0
  0
POINT
  5
20D
330
567
100
AcDbEntity
  8
HATCH
  6
Continuous
 62
     7
370
    30
100
AcDbPoint
 10
47.774469
 20
6.595979
 30
0.0
  0
POINT
  5
20E
330
567
100
AcDbEntity
  8
HATCH
  6
Continuous
 62
     7
370
    30
100
AcDbPoint
 10
47.805719
 20
6.595979
 30
0.0
  0
POINT
  5
20F
330
567
100
AcDbEntity
  8
HATCH
  6
Continuous
 62
     7
370
    30
100
AcDbPoint
 10
47.836969
 20
6.595979
 30
0.0
  0
POINT
  5
210
330
567
100
AcDbEntity
  8
HATCH
  6
Continuous
 62
     7
370
    30
100
AcDbPoint
 10
47.868219
 20
6.595979
 30
0.0
  0
POINT
  5
211
330
567
100
AcDbEntity
  8
HATCH
  6
Continuous
 62
     7
370
    30
100
AcDbPoint
 10
47.899469
 20
6.595979
 30
0.0
  0
POINT
  5
212
330
567
100
AcDbEntity
  8
HATCH
  6
Continuous
 62
     7
370
    30
100
AcDbPoint
 10
47.930719
 20
6.595979
 30
0.0
  0
POINT
  5
213
330
567
100
AcDbEntity
  8
HATCH
  6
Continuous
 62
     7
370
    30
100
AcDbPoint
 10
47.961969
 20
6.595979
 30
0.0
  0
POINT
  5
214
330
567
100
AcDbEntity
  8
HATCH
  6
Continuous
 62
     7
370
    30
100
AcDbPoint
 10
47.993219
 20
6.595979
 30
0.0
  0
POINT
  5
215
330
567
100
AcDbEntity
  8
HATCH
  6
Continuous
 62
     7
370
    30
100
AcDbPoint
 10
48.024469
 20
6.595979
 30
0.0
  0
POINT
  5
216
330
567
100
AcDbEntity
  8
HATCH
  6
Continuous
 62
     7
370
    30
100
AcDbPoint
 10
48.055719
 20
6.595979
 30
0.0
  0
POINT
  5
217
330
567
100
AcDbEntity
  8
HATCH
  6
Continuous
 62
     7
370
    30
100
AcDbPoint
 10
48.086969
 20
6.595979
 30
0.0
  0
POINT
  5
218
330
567
100
AcDbEntity
  8
HATCH
  6
Continuous
 62
     7
370
    30
100
AcDbPoint
 10
48.118219
 20
6.595979
 30
0.0
  0
POINT
  5
219
330
567
100
AcDbEntity
  8
HATCH
  6
Continuous
 62
     7
370
    30
100
AcDbPoint
 10
48.149469
 20
6.595979
 30
0.0
  0
POINT
  5
21A
330
567
100
AcDbEntity
  8
HATCH
  6
Continuous
 62
     7
370
    30
100
AcDbPoint
 10
48.180719
 20
6.595979
 30
0.0
  0
POINT
  5
21B
330
567
100
AcDbEntity
  8
HATCH
  6
Continuous
 62
     7
370
    30
100
AcDbPoint
 10
49.118219
 20
6.595979
 30
0.0
  0
POINT
  5
21C
330
567
100
AcDbEntity
  8
HATCH
  6
Continuous
 62
     7
370
    30
100
AcDbPoint
 10
49.149469
 20
6.595979
 30
0.0
  0
POINT
  5
21D
330
567
100
AcDbEntity
  8
HATCH
  6
Continuous
 62
     7
370
    30
100
AcDbPoint
 10
49.180719
 20
6.595979
 30
0.0
  0
POINT
  5
21E
330
567
100
AcDbEntity
  8
HATCH
  6
Continuous
 62
     7
370
    30
100
AcDbPoint
 10
49.211969
 20
6.595979
 30
0.0
  0
POINT
  5
21F
330
567
100
AcDbEntity
  8
HATCH
  6
Continuous
 62
     7
370
    30
100
AcDbPoint
 10
49.243219
 20
6.595979
 30
0.0
  0
POINT
  5
220
330
567
100
AcDbEntity
  8
HATCH
  6
Continuous
 62
     7
370
    30
100
AcDbPoint
 10
49.274469
 20
6.595979
 30
0.0
  0
POINT
  5
221
330
567
100
AcDbEntity
  8
HATCH
  6
Continuous
 62
     7
370
    30
100
AcDbPoint
 10
49.305719
 20
6.595979
 30
0.0
  0
POINT
  5
222
330
567
100
AcDbEntity
  8
HATCH
  6
Continuous
 62
     7
370
    30
100
AcDbPoint
 10
49.336969
 20
6.595979
 30
0.0
  0
POINT
  5
223
330
567
100
AcDbEntity
  8
HATCH
  6
Continuous
 62
     7
370
    30
100
AcDbPoint
 10
49.368219
 20
6.595979
 30
0.0
  0
POINT
  5
224
330
567
100
AcDbEntity
  8
HATCH
  6
Continuous
 62
     7
370
    30
100
AcDbPoint
 10
49.399469
 20
6.595979
 30
0.0
  0
POINT
  5
225
330
567
100
AcDbEntity
  8
HATCH
  6
Continuous
 62
     7
370
    30
100
AcDbPoint
 10
49.430719
 20
6.595979
 30
0.0
  0
POINT
  5
226
330
567
100
AcDbEntity
  8
HATCH
  6
Continuous
 62
     7
370
    30
100
AcDbPoint
 10
49.461969
 20
6.595979
 30
0.0
  0
POINT
  5
227
330
567
100
AcDbEntity
  8
HATCH
  6
Continuous
 62
     7
370
    30
100
AcDbPoint
 10
49.493219
 20
6.595979
 30
0.0
  0
POINT
  5
228
330
567
100
AcDbEntity
  8
HATCH
  6
Continuous
 62
     7
370
    30
100
AcDbPoint
 10
49.524469
 20
6.595979
 30
0.0
  0
POINT
  5
229
330
567
100
AcDbEntity
  8
HATCH
  6
Continuous
 62
     7
370
    30
100
AcDbPoint
 10
49.555719
 20
6.595979
 30
0.0
  0
POINT
  5
22A
330
567
100
AcDbEntity
  8
HATCH
  6
Continuous
 62
     7
370
    30
100
AcDbPoint
 10
49.586969
 20
6.595979
 30
0.0
  0
POINT
  5
22B
330
567
100
AcDbEntity
  8
HATCH
  6
Continuous
 62
     7
370
    30
100
AcDbPoint
 10
49.618219
 20
6.595979
 30
0.0
  0
POINT
  5
22C
330
567
100
AcDbEntity
  8
HATCH
  6
Continuous
 62
     7
370
    30
100
AcDbPoint
 10
49.649469
 20
6.595979
 30
0.0
  0
POINT
  5
22D
330
567
100
AcDbEntity
  8
HATCH
  6
Continuous
 62
     7
370
    30
100
AcDbPoint
 10
49.680719
 20
6.595979
 30
0.0
  0
POINT
  5
22E
330
567
100
AcDbEntity
  8
HATCH
  6
Continuous
 62
     7
370
    30
100
AcDbPoint
 10
48.368219
 20
6.595979
 30
0.0
  0
POINT
  5
22F
330
567
100
AcDbEntity
  8
HATCH
  6
Continuous
 62
     7
370
    30
100
AcDbPoint
 10
48.399469
 20
6.595979
 30
0.0
  0
POINT
  5
230
330
567
100
AcDbEntity
  8
HATCH
  6
Continuous
 62
     7
370
    30
100
AcDbPoint
 10
48.430719
 20
6.595979
 30
0.0
  0
POINT
  5
231
330
567
100
AcDbEntity
  8
HATCH
  6
Continuous
 62
     7
370
    30
100
AcDbPoint
 10
48.461969
 20
6.595979
 30
0.0
  0
POINT
  5
232
330
567
100
AcDbEntity
  8
HATCH
  6
Continuous
 62
     7
370
    30
100
AcDbPoint
 10
48.493219
 20
6.595979
 30
0.0
  0
POINT
  5
233
330
567
100
AcDbEntity
  8
HATCH
  6
Continuous
 62
     7
370
    30
100
AcDbPoint
 10
48.524469
 20
6.595979
 30
0.0
  0
POINT
  5
234
330
567
100
AcDbEntity
  8
HATCH
  6
Continuous
 62
     7
370
    30
100
AcDbPoint
 10
48.555719
 20
6.595979
 30
0.0
  0
POINT
  5
235
330
567
100
AcDbEntity
  8
HATCH
  6
Continuous
 62
     7
370
    30
100
AcDbPoint
 10
48.586969
 20
6.595979
 30
0.0
  0
POINT
  5
236
330
567
100
AcDbEntity
  8
HATCH
  6
Continuous
 62
     7
370
    30
100
AcDbPoint
 10
48.618219
 20
6.595979
 30
0.0
  0
POINT
  5
237
330
567
100
AcDbEntity
  8
HATCH
  6
Continuous
 62
     7
370
    30
100
AcDbPoint
 10
48.649469
 20
6.595979
 30
0.0
  0
POINT
  5
238
330
567
100
AcDbEntity
  8
HATCH
  6
Continuous
 62
     7
370
    30
100
AcDbPoint
 10
48.680719
 20
6.595979
 30
0.0
  0
POINT
  5
239
330
567
100
AcDbEntity
  8
HATCH
  6
Continuous
 62
     7
370
    30
100
AcDbPoint
 10
48.711969
 20
6.595979
 30
0.0
  0
POINT
  5
23A
330
567
100
AcDbEntity
  8
HATCH
  6
Continuous
 62
     7
370
    30
100
AcDbPoint
 10
48.743219
 20
6.595979
 30
0.0
  0
POINT
  5
23B
330
567
100
AcDbEntity
  8
HATCH
  6
Continuous
 62
     7
370
    30
100
AcDbPoint
 10
48.774469
 20
6.595979
 30
0.0
  0
POINT
  5
23C
330
567
100
AcDbEntity
  8
HATCH
  6
Continuous
 62
     7
370
    30
100
AcDbPoint
 10
48.805719
 20
6.595979
 30
0.0
  0
POINT
  5
23D
330
567
100
AcDbEntity
  8
HATCH
  6
Continuous
 62
     7
370
    30
100
AcDbPoint
 10
48.836969
 20
6.595979
 30
0.0
  0
POINT
  5
23E
330
567
100
AcDbEntity
  8
HATCH
  6
Continuous
 62
     7
370
    30
100
AcDbPoint
 10
48.868219
 20
6.595979
 30
0.0
  0
POINT
  5
23F
330
567
100
AcDbEntity
  8
HATCH
  6
Continuous
 62
     7
370
    30
100
AcDbPoint
 10
48.899469
 20
6.595979
 30
0.0
  0
POINT
  5
240
330
567
100
AcDbEntity
  8
HATCH
  6
Continuous
 62
     7
370
    30
100
AcDbPoint
 10
48.930719
 20
6.595979
 30
0.0
  0
POINT
  5
241
330
567
100
AcDbEntity
  8
HATCH
  6
Continuous
 62
     7
370
    30
100
AcDbPoint
 10
47.258844
 20
6.627229
 30
0.0
  0
POINT
  5
242
330
567
100
AcDbEntity
  8
HATCH
  6
Continuous
 62
     7
370
    30
100
AcDbPoint
 10
47.290094
 20
6.627229
 30
0.0
  0
POINT
  5
243
330
567
100
AcDbEntity
  8
HATCH
  6
Continuous
 62
     7
370
    30
100
AcDbPoint
 10
47.321344
 20
6.627229
 30
0.0
  0
POINT
  5
244
330
567
100
AcDbEntity
  8
HATCH
  6
Continuous
 62
     7
370
    30
100
AcDbPoint
 10
47.352594
 20
6.627229
 30
0.0
  0
POINT
  5
245
330
567
100
AcDbEntity
  8
HATCH
  6
Continuous
 62
     7
370
    30
100
AcDbPoint
 10
47.383844
 20
6.627229
 30
0.0
  0
POINT
  5
246
330
567
100
AcDbEntity
  8
HATCH
  6
Continuous
 62
     7
370
    30
100
AcDbPoint
 10
47.415094
 20
6.627229
 30
0.0
  0
POINT
  5
247
330
567
100
AcDbEntity
  8
HATCH
  6
Continuous
 62
     7
370
    30
100
AcDbPoint
 10
47.446344
 20
6.627229
 30
0.0
  0
POINT
  5
248
330
567
100
AcDbEntity
  8
HATCH
  6
Continuous
 62
     7
370
    30
100
AcDbPoint
 10
49.852594
 20
6.627229
 30
0.0
  0
POINT
  5
249
330
567
100
AcDbEntity
  8
HATCH
  6
Continuous
 62
     7
370
    30
100
AcDbPoint
 10
49.883844
 20
6.627229
 30
0.0
  0
POINT
  5
24A
330
567
100
AcDbEntity
  8
HATCH
  6
Continuous
 62
     7
370
    30
100
AcDbPoint
 10
49.915094
 20
6.627229
 30
0.0
  0
POINT
  5
24B
330
567
100
AcDbEntity
  8
HATCH
  6
Continuous
 62
     7
370
    30
100
AcDbPoint
 10
49.946344
 20
6.627229
 30
0.0
  0
POINT
  5
24C
330
567
100
AcDbEntity
  8
HATCH
  6
Continuous
 62
     7
370
    30
100
AcDbPoint
 10
49.977594
 20
6.627229
 30
0.0
  0
POINT
  5
24D
330
567
100
AcDbEntity
  8
HATCH
  6
Continuous
 62
     7
370
    30
100
AcDbPoint
 10
50.008844
 20
6.627229
 30
0.0
  0
POINT
  5
24E
330
567
100
AcDbEntity
  8
HATCH
  6
Continuous
 62
     7
370
    30
100
AcDbPoint
 10
50.040094
 20
6.627229
 30
0.0
  0
POINT
  5
24F
330
567
100
AcDbEntity
  8
HATCH
  6
Continuous
 62
     7
370
    30
100
AcDbPoint
 10
47.602594
 20
6.627229
 30
0.0
  0
POINT
  5
250
330
567
100
AcDbEntity
  8
HATCH
  6
Continuous
 62
     7
370
    30
100
AcDbPoint
 10
47.633844
 20
6.627229
 30
0.0
  0
POINT
  5
251
330
567
100
AcDbEntity
  8
HATCH
  6
Continuous
 62
     7
370
    30
100
AcDbPoint
 10
47.665094
 20
6.627229
 30
0.0
  0
POINT
  5
252
330
567
100
AcDbEntity
  8
HATCH
  6
Continuous
 62
     7
370
    30
100
AcDbPoint
 10
47.696344
 20
6.627229
 30
0.0
  0
POINT
  5
253
330
567
100
AcDbEntity
  8
HATCH
  6
Continuous
 62
     7
370
    30
100
AcDbPoint
 10
47.727594
 20
6.627229
 30
0.0
  0
POINT
  5
254
330
567
100
AcDbEntity
  8
HATCH
  6
Continuous
 62
     7
370
    30
100
AcDbPoint
 10
47.758844
 20
6.627229
 30
0.0
  0
POINT
  5
255
330
567
100
AcDbEntity
  8
HATCH
  6
Continuous
 62
     7
370
    30
100
AcDbPoint
 10
47.790094
 20
6.627229
 30
0.0
  0
POINT
  5
256
330
567
100
AcDbEntity
  8
HATCH
  6
Continuous
 62
     7
370
    30
100
AcDbPoint
 10
47.821344
 20
6.627229
 30
0.0
  0
POINT
  5
257
330
567
100
AcDbEntity
  8
HATCH
  6
Continuous
 62
     7
370
    30
100
AcDbPoint
 10
47.852594
 20
6.627229
 30
0.0
  0
POINT
  5
258
330
567
100
AcDbEntity
  8
HATCH
  6
Continuous
 62
     7
370
    30
100
AcDbPoint
 10
47.883844
 20
6.627229
 30
0.0
  0
POINT
  5
259
330
567
100
AcDbEntity
  8
HATCH
  6
Continuous
 62
     7
370
    30
100
AcDbPoint
 10
47.915094
 20
6.627229
 30
0.0
  0
POINT
  5
25A
330
567
100
AcDbEntity
  8
HATCH
  6
Continuous
 62
     7
370
    30
100
AcDbPoint
 10
47.946344
 20
6.627229
 30
0.0
  0
POINT
  5
25B
330
567
100
AcDbEntity
  8
HATCH
  6
Continuous
 62
     7
370
    30
100
AcDbPoint
 10
47.977594
 20
6.627229
 30
0.0
  0
POINT
  5
25C
330
567
100
AcDbEntity
  8
HATCH
  6
Continuous
 62
     7
370
    30
100
AcDbPoint
 10
48.008844
 20
6.627229
 30
0.0
  0
POINT
  5
25D
330
567
100
AcDbEntity
  8
HATCH
  6
Continuous
 62
     7
370
    30
100
AcDbPoint
 10
48.040094
 20
6.627229
 30
0.0
  0
POINT
  5
25E
330
567
100
AcDbEntity
  8
HATCH
  6
Continuous
 62
     7
370
    30
100
AcDbPoint
 10
48.071344
 20
6.627229
 30
0.0
  0
POINT
  5
25F
330
567
100
AcDbEntity
  8
HATCH
  6
Continuous
 62
     7
370
    30
100
AcDbPoint
 10
48.102594
 20
6.627229
 30
0.0
  0
POINT
  5
260
330
567
100
AcDbEntity
  8
HATCH
  6
Continuous
 62
     7
370
    30
100
AcDbPoint
 10
48.133844
 20
6.627229
 30
0.0
  0
POINT
  5
261
330
567
100
AcDbEntity
  8
HATCH
  6
Continuous
 62
     7
370
    30
100
AcDbPoint
 10
48.165094
 20
6.627229
 30
0.0
  0
POINT
  5
262
330
567
100
AcDbEntity
  8
HATCH
  6
Continuous
 62
     7
370
    30
100
AcDbPoint
 10
48.196344
 20
6.627229
 30
0.0
  0
POINT
  5
263
330
567
100
AcDbEntity
  8
HATCH
  6
Continuous
 62
     7
370
    30
100
AcDbPoint
 10
49.102594
 20
6.627229
 30
0.0
  0
POINT
  5
264
330
567
100
AcDbEntity
  8
HATCH
  6
Continuous
 62
     7
370
    30
100
AcDbPoint
 10
49.133844
 20
6.627229
 30
0.0
  0
POINT
  5
265
330
567
100
AcDbEntity
  8
HATCH
  6
Continuous
 62
     7
370
    30
100
AcDbPoint
 10
49.165094
 20
6.627229
 30
0.0
  0
POINT
  5
266
330
567
100
AcDbEntity
  8
HATCH
  6
Continuous
 62
     7
370
    30
100
AcDbPoint
 10
49.196344
 20
6.627229
 30
0.0
  0
POINT
  5
267
330
567
100
AcDbEntity
  8
HATCH
  6
Continuous
 62
     7
370
    30
100
AcDbPoint
 10
49.227594
 20
6.627229
 30
0.0
  0
POINT
  5
268
330
567
100
AcDbEntity
  8
HATCH
  6
Continuous
 62
     7
370
    30
100
AcDbPoint
 10
49.258844
 20
6.627229
 30
0.0
  0
POINT
  5
269
330
567
100
AcDbEntity
  8
HATCH
  6
Continuous
 62
     7
370
    30
100
AcDbPoint
 10
49.290094
 20
6.627229
 30
0.0
  0
POINT
  5
26A
330
567
100
AcDbEntity
  8
HATCH
  6
Continuous
 62
     7
370
    30
100
AcDbPoint
 10
49.321344
 20
6.627229
 30
0.0
  0
POINT
  5
26B
330
567
100
AcDbEntity
  8
HATCH
  6
Continuous
 62
     7
370
    30
100
AcDbPoint
 10
49.352594
 20
6.627229
 30
0.0
  0
POINT
  5
26C
330
567
100
AcDbEntity
  8
HATCH
  6
Continuous
 62
     7
370
    30
100
AcDbPoint
 10
49.383844
 20
6.627229
 30
0.0
  0
POINT
  5
26D
330
567
100
AcDbEntity
  8
HATCH
  6
Continuous
 62
     7
370
    30
100
AcDbPoint
 10
49.415094
 20
6.627229
 30
0.0
  0
POINT
  5
26E
330
567
100
AcDbEntity
  8
HATCH
  6
Continuous
 62
     7
370
    30
100
AcDbPoint
 10
49.446344
 20
6.627229
 30
0.0
  0
POINT
  5
26F
330
567
100
AcDbEntity
  8
HATCH
  6
Continuous
 62
     7
370
    30
100
AcDbPoint
 10
49.477594
 20
6.627229
 30
0.0
  0
POINT
  5
270
330
567
100
AcDbEntity
  8
HATCH
  6
Continuous
 62
     7
370
    30
100
AcDbPoint
 10
49.508844
 20
6.627229
 30
0.0
  0
POINT
  5
271
330
567
100
AcDbEntity
  8
HATCH
  6
Continuous
 62
     7
370
    30
100
AcDbPoint
 10
49.540094
 20
6.627229
 30
0.0
  0
POINT
  5
272
330
567
100
AcDbEntity
  8
HATCH
  6
Continuous
 62
     7
370
    30
100
AcDbPoint
 10
49.571344
 20
6.627229
 30
0.0
  0
POINT
  5
273
330
567
100
AcDbEntity
  8
HATCH
  6
Continuous
 62
     7
370
    30
100
AcDbPoint
 10
49.602594
 20
6.627229
 30
0.0
  0
POINT
  5
274
330
567
100
AcDbEntity
  8
HATCH
  6
Continuous
 62
     7
370
    30
100
AcDbPoint
 10
49.633844
 20
6.627229
 30
0.0
  0
POINT
  5
275
330
567
100
AcDbEntity
  8
HATCH
  6
Continuous
 62
     7
370
    30
100
AcDbPoint
 10
49.665094
 20
6.627229
 30
0.0
  0
POINT
  5
276
330
567
100
AcDbEntity
  8
HATCH
  6
Continuous
 62
     7
370
    30
100
AcDbPoint
 10
48.352594
 20
6.627229
 30
0.0
  0
POINT
  5
277
330
567
100
AcDbEntity
  8
HATCH
  6
Continuous
 62
     7
370
    30
100
AcDbPoint
 10
48.383844
 20
6.627229
 30
0.0
  0
POINT
  5
278
330
567
100
AcDbEntity
  8
HATCH
  6
Continuous
 62
     7
370
    30
100
AcDbPoint
 10
48.415094
 20
6.627229
 30
0.0
  0
POINT
  5
279
330
567
100
AcDbEntity
  8
HATCH
  6
Continuous
 62
     7
370
    30
100
AcDbPoint
 10
48.446344
 20
6.627229
 30
0.0
  0
POINT
  5
27A
330
567
100
AcDbEntity
  8
HATCH
  6
Continuous
 62
     7
370
    30
100
AcDbPoint
 10
48.477594
 20
6.627229
 30
0.0
  0
POINT
  5
27B
330
567
100
AcDbEntity
  8
HATCH
  6
Continuous
 62
     7
370
    30
100
AcDbPoint
 10
48.508844
 20
6.627229
 30
0.0
  0
POINT
  5
27C
330
567
100
AcDbEntity
  8
HATCH
  6
Continuous
 62
     7
370
    30
100
AcDbPoint
 10
48.540094
 20
6.627229
 30
0.0
  0
POINT
  5
27D
330
567
100
AcDbEntity
  8
HATCH
  6
Continuous
 62
     7
370
    30
100
AcDbPoint
 10
48.571344
 20
6.627229
 30
0.0
  0
POINT
  5
27E
330
567
100
AcDbEntity
  8
HATCH
  6
Continuous
 62
     7
370
    30
100
AcDbPoint
 10
48.602594
 20
6.627229
 30
0.0
  0
POINT
  5
27F
330
567
100
AcDbEntity
  8
HATCH
  6
Continuous
 62
     7
370
    30
100
AcDbPoint
 10
48.633844
 20
6.627229
 30
0.0
  0
POINT
  5
280
330
567
100
AcDbEntity
  8
HATCH
  6
Continuous
 62
     7
370
    30
100
AcDbPoint
 10
48.665094
 20
6.627229
 30
0.0
  0
POINT
  5
281
330
567
100
AcDbEntity
  8
HATCH
  6
Continuous
 62
     7
370
    30
100
AcDbPoint
 10
48.696344
 20
6.627229
 30
0.0
  0
POINT
  5
282
330
567
100
AcDbEntity
  8
HATCH
  6
Continuous
 62
     7
370
    30
100
AcDbPoint
 10
48.727594
 20
6.627229
 30
0.0
  0
POINT
  5
283
330
567
100
AcDbEntity
  8
HATCH
  6
Continuous
 62
     7
370
    30
100
AcDbPoint
 10
48.758844
 20
6.627229
 30
0.0
  0
POINT
  5
284
330
567
100
AcDbEntity
  8
HATCH
  6
Continuous
 62
     7
370
    30
100
AcDbPoint
 10
48.790094
 20
6.627229
 30
0.0
  0
POINT
  5
285
330
567
100
AcDbEntity
  8
HATCH
  6
Continuous
 62
     7
370
    30
100
AcDbPoint
 10
48.821344
 20
6.627229
 30
0.0
  0
POINT
  5
286
330
567
100
AcDbEntity
  8
HATCH
  6
Continuous
 62
     7
370
    30
100
AcDbPoint
 10
48.852594
 20
6.627229
 30
0.0
  0
POINT
  5
287
330
567
100
AcDbEntity
  8
HATCH
  6
Continuous
 62
     7
370
    30
100
AcDbPoint
 10
48.883844
 20
6.627229
 30
0.0
  0
POINT
  5
288
330
567
100
AcDbEntity
  8
HATCH
  6
Continuous
 62
     7
370
    30
100
AcDbPoint
 10
48.915094
 20
6.627229
 30
0.0
  0
POINT
  5
289
330
567
100
AcDbEntity
  8
HATCH
  6
Continuous
 62
     7
370
    30
100
AcDbPoint
 10
47.274469
 20
6.658479
 30
0.0
  0
POINT
  5
28A
330
567
100
AcDbEntity
  8
HATCH
  6
Continuous
 62
     7
370
    30
100
AcDbPoint
 10
47.305719
 20
6.658479
 30
0.0
  0
POINT
  5
28B
330
567
100
AcDbEntity
  8
HATCH
  6
Continuous
 62
     7
370
    30
100
AcDbPoint
 10
47.336969
 20
6.658479
 30
0.0
  0
POINT
  5
28C
330
567
100
AcDbEntity
  8
HATCH
  6
Continuous
 62
     7
370
    30
100
AcDbPoint
 10
47.368219
 20
6.658479
 30
0.0
  0
POINT
  5
28D
330
567
100
AcDbEntity
  8
HATCH
  6
Continuous
 62
     7
370
    30
100
AcDbPoint
 10
47.399469
 20
6.658479
 30
0.0
  0
POINT
  5
28E
330
567
100
AcDbEntity
  8
HATCH
  6
Continuous
 62
     7
370
    30
100
AcDbPoint
 10
47.430719
 20
6.658479
 30
0.0
  0
POINT
  5
28F
330
567
100
AcDbEntity
  8
HATCH
  6
Continuous
 62
     7
370
    30
100
AcDbPoint
 10
49.868219
 20
6.658479
 30
0.0
  0
POINT
  5
290
330
567
100
AcDbEntity
  8
HATCH
  6
Continuous
 62
     7
370
    30
100
AcDbPoint
 10
49.899469
 20
6.658479
 30
0.0
  0
POINT
  5
291
330
567
100
AcDbEntity
  8
HATCH
  6
Continuous
 62
     7
370
    30
100
AcDbPoint
 10
49.930719
 20
6.658479
 30
0.0
  0
POINT
  5
292
330
567
100
AcDbEntity
  8
HATCH
  6
Continuous
 62
     7
370
    30
100
AcDbPoint
 10
49.961969
 20
6.658479
 30
0.0
  0
POINT
  5
293
330
567
100
AcDbEntity
  8
HATCH
  6
Continuous
 62
     7
370
    30
100
AcDbPoint
 10
49.993219
 20
6.658479
 30
0.0
  0
POINT
  5
294
330
567
100
AcDbEntity
  8
HATCH
  6
Continuous
 62
     7
370
    30
100
AcDbPoint
 10
50.024469
 20
6.658479
 30
0.0
  0
POINT
  5
295
330
567
100
AcDbEntity
  8
HATCH
  6
Continuous
 62
     7
370
    30
100
AcDbPoint
 10
47.618219
 20
6.658479
 30
0.0
  0
POINT
  5
296
330
567
100
AcDbEntity
  8
HATCH
  6
Continuous
 62
     7
370
    30
100
AcDbPoint
 10
47.649469
 20
6.658479
 30
0.0
  0
POINT
  5
297
330
567
100
AcDbEntity
  8
HATCH
  6
Continuous
 62
     7
370
    30
100
AcDbPoint
 10
47.680719
 20
6.658479
 30
0.0
  0
POINT
  5
298
330
567
100
AcDbEntity
  8
HATCH
  6
Continuous
 62
     7
370
    30
100
AcDbPoint
 10
47.711969
 20
6.658479
 30
0.0
  0
POINT
  5
299
330
567
100
AcDbEntity
  8
HATCH
  6
Continuous
 62
     7
370
    30
100
AcDbPoint
 10
47.743219
 20
6.658479
 30
0.0
  0
POINT
  5
29A
330
567
100
AcDbEntity
  8
HATCH
  6
Continuous
 62
     7
370
    30
100
AcDbPoint
 10
47.774469
 20
6.658479
 30
0.0
  0
POINT
  5
29B
330
567
100
AcDbEntity
  8
HATCH
  6
Continuous
 62
     7
370
    30
100
AcDbPoint
 10
47.805719
 20
6.658479
 30
0.0
  0
POINT
  5
29C
330
567
100
AcDbEntity
  8
HATCH
  6
Continuous
 62
     7
370
    30
100
AcDbPoint
 10
47.836969
 20
6.658479
 30
0.0
  0
POINT
  5
29D
330
567
100
AcDbEntity
  8
HATCH
  6
Continuous
 62
     7
370
    30
100
AcDbPoint
 10
47.868219
 20
6.658479
 30
0.0
  0
POINT
  5
29E
330
567
100
AcDbEntity
  8
HATCH
  6
Continuous
 62
     7
370
    30
100
AcDbPoint
 10
47.899469
 20
6.658479
 30
0.0
  0
POINT
  5
29F
330
567
100
AcDbEntity
  8
HATCH
  6
Continuous
 62
     7
370
    30
100
AcDbPoint
 10
47.930719
 20
6.658479
 30
0.0
  0
POINT
  5
2A0
330
567
100
AcDbEntity
  8
HATCH
  6
Continuous
 62
     7
370
    30
100
AcDbPoint
 10
47.961969
 20
6.658479
 30
0.0
  0
POINT
  5
2A1
330
567
100
AcDbEntity
  8
HATCH
  6
Continuous
 62
     7
370
    30
100
AcDbPoint
 10
47.993219
 20
6.658479
 30
0.0
  0
POINT
  5
2A2
330
567
100
AcDbEntity
  8
HATCH
  6
Continuous
 62
     7
370
    30
100
AcDbPoint
 10
48.024469
 20
6.658479
 30
0.0
  0
POINT
  5
2A3
330
567
100
AcDbEntity
  8
HATCH
  6
Continuous
 62
     7
370
    30
100
AcDbPoint
 10
48.055719
 20
6.658479
 30
0.0
  0
POINT
  5
2A4
330
567
100
AcDbEntity
  8
HATCH
  6
Continuous
 62
     7
370
    30
100
AcDbPoint
 10
48.086969
 20
6.658479
 30
0.0
  0
POINT
  5
2A5
330
567
100
AcDbEntity
  8
HATCH
  6
Continuous
 62
     7
370
    30
100
AcDbPoint
 10
48.118219
 20
6.658479
 30
0.0
  0
POINT
  5
2A6
330
567
100
AcDbEntity
  8
HATCH
  6
Continuous
 62
     7
370
    30
100
AcDbPoint
 10
48.149469
 20
6.658479
 30
0.0
  0
POINT
  5
2A7
330
567
100
AcDbEntity
  8
HATCH
  6
Continuous
 62
     7
370
    30
100
AcDbPoint
 10
48.180719
 20
6.658479
 30
0.0
  0
POINT
  5
2A8
330
567
100
AcDbEntity
  8
HATCH
  6
Continuous
 62
     7
370
    30
100
AcDbPoint
 10
49.118219
 20
6.658479
 30
0.0
  0
POINT
  5
2A9
330
567
100
AcDbEntity
  8
HATCH
  6
Continuous
 62
     7
370
    30
100
AcDbPoint
 10
49.149469
 20
6.658479
 30
0.0
  0
POINT
  5
2AA
330
567
100
AcDbEntity
  8
HATCH
  6
Continuous
 62
     7
370
    30
100
AcDbPoint
 10
49.180719
 20
6.658479
 30
0.0
  0
POINT
  5
2AB
330
567
100
AcDbEntity
  8
HATCH
  6
Continuous
 62
     7
370
    30
100
AcDbPoint
 10
49.211969
 20
6.658479
 30
0.0
  0
POINT
  5
2AC
330
567
100
AcDbEntity
  8
HATCH
  6
Continuous
 62
     7
370
    30
100
AcDbPoint
 10
49.243219
 20
6.658479
 30
0.0
  0
POINT
  5
2AD
330
567
100
AcDbEntity
  8
HATCH
  6
Continuous
 62
     7
370
    30
100
AcDbPoint
 10
49.274469
 20
6.658479
 30
0.0
  0
POINT
  5
2AE
330
567
100
AcDbEntity
  8
HATCH
  6
Continuous
 62
     7
370
    30
100
AcDbPoint
 10
49.305719
 20
6.658479
 30
0.0
  0
POINT
  5
2AF
330
567
100
AcDbEntity
  8
HATCH
  6
Continuous
 62
     7
370
    30
100
AcDbPoint
 10
49.336969
 20
6.658479
 30
0.0
  0
POINT
  5
2B0
330
567
100
AcDbEntity
  8
HATCH
  6
Continuous
 62
     7
370
    30
100
AcDbPoint
 10
49.368219
 20
6.658479
 30
0.0
  0
POINT
  5
2B1
330
567
100
AcDbEntity
  8
HATCH
  6
Continuous
 62
     7
370
    30
100
AcDbPoint
 10
49.399469
 20
6.658479
 30
0.0
  0
POINT
  5
2B2
330
567
100
AcDbEntity
  8
HATCH
  6
Continuous
 62
     7
370
    30
100
AcDbPoint
 10
49.430719
 20
6.658479
 30
0.0
  0
POINT
  5
2B3
330
567
100
AcDbEntity
  8
HATCH
  6
Continuous
 62
     7
370
    30
100
AcDbPoint
 10
49.461969
 20
6.658479
 30
0.0
  0
POINT
  5
2B4
330
567
100
AcDbEntity
  8
HATCH
  6
Continuous
 62
     7
370
    30
100
AcDbPoint
 10
49.493219
 20
6.658479
 30
0.0
  0
POINT
  5
2B5
330
567
100
AcDbEntity
  8
HATCH
  6
Continuous
 62
     7
370
    30
100
AcDbPoint
 10
49.524469
 20
6.658479
 30
0.0
  0
POINT
  5
2B6
330
567
100
AcDbEntity
  8
HATCH
  6
Continuous
 62
     7
370
    30
100
AcDbPoint
 10
49.555719
 20
6.658479
 30
0.0
  0
POINT
  5
2B7
330
567
100
AcDbEntity
  8
HATCH
  6
Continuous
 62
     7
370
    30
100
AcDbPoint
 10
49.586969
 20
6.658479
 30
0.0
  0
POINT
  5
2B8
330
567
100
AcDbEntity
  8
HATCH
  6
Continuous
 62
     7
370
    30
100
AcDbPoint
 10
49.618219
 20
6.658479
 30
0.0
  0
POINT
  5
2B9
330
567
100
AcDbEntity
  8
HATCH
  6
Continuous
 62
     7
370
    30
100
AcDbPoint
 10
49.649469
 20
6.658479
 30
0.0
  0
POINT
  5
2BA
330
567
100
AcDbEntity
  8
HATCH
  6
Continuous
 62
     7
370
    30
100
AcDbPoint
 10
49.680719
 20
6.658479
 30
0.0
  0
POINT
  5
2BB
330
567
100
AcDbEntity
  8
HATCH
  6
Continuous
 62
     7
370
    30
100
AcDbPoint
 10
48.368219
 20
6.658479
 30
0.0
  0
POINT
  5
2BC
330
567
100
AcDbEntity
  8
HATCH
  6
Continuous
 62
     7
370
    30
100
AcDbPoint
 10
48.399469
 20
6.658479
 30
0.0
  0
POINT
  5
2BD
330
567
100
AcDbEntity
  8
HATCH
  6
Continuous
 62
     7
370
    30
100
AcDbPoint
 10
48.430719
 20
6.658479
 30
0.0
  0
POINT
  5
2BE
330
567
100
AcDbEntity
  8
HATCH
  6
Continuous
 62
     7
370
    30
100
AcDbPoint
 10
48.461969
 20
6.658479
 30
0.0
  0
POINT
  5
2BF
330
567
100
AcDbEntity
  8
HATCH
  6
Continuous
 62
     7
370
    30
100
AcDbPoint
 10
48.493219
 20
6.658479
 30
0.0
  0
POINT
  5
2C0
330
567
100
AcDbEntity
  8
HATCH
  6
Continuous
 62
     7
370
    30
100
AcDbPoint
 10
48.524469
 20
6.658479
 30
0.0
  0
POINT
  5
2C1
330
567
100
AcDbEntity
  8
HATCH
  6
Continuous
 62
     7
370
    30
100
AcDbPoint
 10
48.555719
 20
6.658479
 30
0.0
  0
POINT
  5
2C2
330
567
100
AcDbEntity
  8
HATCH
  6
Continuous
 62
     7
370
    30
100
AcDbPoint
 10
48.586969
 20
6.658479
 30
0.0
  0
POINT
  5
2C3
330
567
100
AcDbEntity
  8
HATCH
  6
Continuous
 62
     7
370
    30
100
AcDbPoint
 10
48.618219
 20
6.658479
 30
0.0
  0
POINT
  5
2C4
330
567
100
AcDbEntity
  8
HATCH
  6
Continuous
 62
     7
370
    30
100
AcDbPoint
 10
48.649469
 20
6.658479
 30
0.0
  0
POINT
  5
2C5
330
567
100
AcDbEntity
  8
HATCH
  6
Continuous
 62
     7
370
    30
100
AcDbPoint
 10
48.680719
 20
6.658479
 30
0.0
  0
POINT
  5
2C6
330
567
100
AcDbEntity
  8
HATCH
  6
Continuous
 62
     7
370
    30
100
AcDbPoint
 10
48.711969
 20
6.658479
 30
0.0
  0
POINT
  5
2C7
330
567
100
AcDbEntity
  8
HATCH
  6
Continuous
 62
     7
370
    30
100
AcDbPoint
 10
48.743219
 20
6.658479
 30
0.0
  0
POINT
  5
2C8
330
567
100
AcDbEntity
  8
HATCH
  6
Continuous
 62
     7
370
    30
100
AcDbPoint
 10
48.774469
 20
6.658479
 30
0.0
  0
POINT
  5
2C9
330
567
100
AcDbEntity
  8
HATCH
  6
Continuous
 62
     7
370
    30
100
AcDbPoint
 10
48.805719
 20
6.658479
 30
0.0
  0
POINT
  5
2CA
330
567
100
AcDbEntity
  8
HATCH
  6
Continuous
 62
     7
370
    30
100
AcDbPoint
 10
48.836969
 20
6.658479
 30
0.0
  0
POINT
  5
2CB
330
567
100
AcDbEntity
  8
HATCH
  6
Continuous
 62
     7
370
    30
100
AcDbPoint
 10
48.868219
 20
6.658479
 30
0.0
  0
POINT
  5
2CC
330
567
100
AcDbEntity
  8
HATCH
  6
Continuous
 62
     7
370
    30
100
AcDbPoint
 10
48.899469
 20
6.658479
 30
0.0
  0
POINT
  5
2CD
330
567
100
AcDbEntity
  8
HATCH
  6
Continuous
 62
     7
370
    30
100
AcDbPoint
 10
48.930719
 20
6.658479
 30
0.0
  0
POINT
  5
2CE
330
567
100
AcDbEntity
  8
HATCH
  6
Continuous
 62
     7
370
    30
100
AcDbPoint
 10
47.165094
 20
6.439729
 30
0.0
  0
POINT
  5
2CF
330
567
100
AcDbEntity
  8
HATCH
  6
Continuous
 62
     7
370
    30
100
AcDbPoint
 10
47.196344
 20
6.439729
 30
0.0
  0
POINT
  5
2D0
330
567
100
AcDbEntity
  8
HATCH
  6
Continuous
 62
     7
370
    30
100
AcDbPoint
 10
47.227594
 20
6.439729
 30
0.0
  0
POINT
  5
2D1
330
567
100
AcDbEntity
  8
HATCH
  6
Continuous
 62
     7
370
    30
100
AcDbPoint
 10
47.258844
 20
6.439729
 30
0.0
  0
POINT
  5
2D2
330
567
100
AcDbEntity
  8
HATCH
  6
Continuous
 62
     7
370
    30
100
AcDbPoint
 10
47.290094
 20
6.439729
 30
0.0
  0
POINT
  5
2D3
330
567
100
AcDbEntity
  8
HATCH
  6
Continuous
 62
     7
370
    30
100
AcDbPoint
 10
47.321344
 20
6.439729
 30
0.0
  0
POINT
  5
2D4
330
567
100
AcDbEntity
  8
HATCH
  6
Continuous
 62
     7
370
    30
100
AcDbPoint
 10
47.352594
 20
6.439729
 30
0.0
  0
POINT
  5
2D5
330
567
100
AcDbEntity
  8
HATCH
  6
Continuous
 62
     7
370
    30
100
AcDbPoint
 10
47.383844
 20
6.439729
 30
0.0
  0
POINT
  5
2D6
330
567
100
AcDbEntity
  8
HATCH
  6
Continuous
 62
     7
370
    30
100
AcDbPoint
 10
47.415094
 20
6.439729
 30
0.0
  0
POINT
  5
2D7
330
567
100
AcDbEntity
  8
HATCH
  6
Continuous
 62
     7
370
    30
100
AcDbPoint
 10
47.446344
 20
6.439729
 30
0.0
  0
POINT
  5
2D8
330
567
100
AcDbEntity
  8
HATCH
  6
Continuous
 62
     7
370
    30
100
AcDbPoint
 10
47.477594
 20
6.439729
 30
0.0
  0
POINT
  5
2D9
330
567
100
AcDbEntity
  8
HATCH
  6
Continuous
 62
     7
370
    30
100
AcDbPoint
 10
47.508844
 20
6.439729
 30
0.0
  0
POINT
  5
2DA
330
567
100
AcDbEntity
  8
HATCH
  6
Continuous
 62
     7
370
    30
100
AcDbPoint
 10
47.540094
 20
6.439729
 30
0.0
  0
POINT
  5
2DB
330
567
100
AcDbEntity
  8
HATCH
  6
Continuous
 62
     7
370
    30
100
AcDbPoint
 10
47.571344
 20
6.439729
 30
0.0
  0
POINT
  5
2DC
330
567
100
AcDbEntity
  8
HATCH
  6
Continuous
 62
     7
370
    30
100
AcDbPoint
 10
47.602594
 20
6.439729
 30
0.0
  0
POINT
  5
2DD
330
567
100
AcDbEntity
  8
HATCH
  6
Continuous
 62
     7
370
    30
100
AcDbPoint
 10
47.633844
 20
6.439729
 30
0.0
  0
POINT
  5
2DE
330
567
100
AcDbEntity
  8
HATCH
  6
Continuous
 62
     7
370
    30
100
AcDbPoint
 10
47.665094
 20
6.439729
 30
0.0
  0
POINT
  5
2DF
330
567
100
AcDbEntity
  8
HATCH
  6
Continuous
 62
     7
370
    30
100
AcDbPoint
 10
47.696344
 20
6.439729
 30
0.0
  0
POINT
  5
2E0
330
567
100
AcDbEntity
  8
HATCH
  6
Continuous
 62
     7
370
    30
100
AcDbPoint
 10
47.727594
 20
6.439729
 30
0.0
  0
POINT
  5
2E1
330
567
100
AcDbEntity
  8
HATCH
  6
Continuous
 62
     7
370
    30
100
AcDbPoint
 10
47.758844
 20
6.439729
 30
0.0
  0
POINT
  5
2E2
330
567
100
AcDbEntity
  8
HATCH
  6
Continuous
 62
     7
370
    30
100
AcDbPoint
 10
47.790094
 20
6.439729
 30
0.0
  0
POINT
  5
2E3
330
567
100
AcDbEntity
  8
HATCH
  6
Continuous
 62
     7
370
    30
100
AcDbPoint
 10
47.821344
 20
6.439729
 30
0.0
  0
POINT
  5
2E4
330
567
100
AcDbEntity
  8
HATCH
  6
Continuous
 62
     7
370
    30
100
AcDbPoint
 10
47.852594
 20
6.439729
 30
0.0
  0
POINT
  5
2E5
330
567
100
AcDbEntity
  8
HATCH
  6
Continuous
 62
     7
370
    30
100
AcDbPoint
 10
47.883844
 20
6.439729
 30
0.0
  0
POINT
  5
2E6
330
567
100
AcDbEntity
  8
HATCH
  6
Continuous
 62
     7
370
    30
100
AcDbPoint
 10
47.915094
 20
6.439729
 30
0.0
  0
POINT
  5
2E7
330
567
100
AcDbEntity
  8
HATCH
  6
Continuous
 62
     7
370
    30
100
AcDbPoint
 10
47.946344
 20
6.439729
 30
0.0
  0
POINT
  5
2E8
330
567
100
AcDbEntity
  8
HATCH
  6
Continuous
 62
     7
370
    30
100
AcDbPoint
 10
47.977594
 20
6.439729
 30
0.0
  0
POINT
  5
2E9
330
567
100
AcDbEntity
  8
HATCH
  6
Continuous
 62
     7
370
    30
100
AcDbPoint
 10
48.008844
 20
6.439729
 30
0.0
  0
POINT
  5
2EA
330
567
100
AcDbEntity
  8
HATCH
  6
Continuous
 62
     7
370
    30
100
AcDbPoint
 10
48.040094
 20
6.439729
 30
0.0
  0
POINT
  5
2EB
330
567
100
AcDbEntity
  8
HATCH
  6
Continuous
 62
     7
370
    30
100
AcDbPoint
 10
48.071344
 20
6.439729
 30
0.0
  0
POINT
  5
2EC
330
567
100
AcDbEntity
  8
HATCH
  6
Continuous
 62
     7
370
    30
100
AcDbPoint
 10
48.102594
 20
6.439729
 30
0.0
  0
POINT
  5
2ED
330
567
100
AcDbEntity
  8
HATCH
  6
Continuous
 62
     7
370
    30
100
AcDbPoint
 10
48.133844
 20
6.439729
 30
0.0
  0
POINT
  5
2EE
330
567
100
AcDbEntity
  8
HATCH
  6
Continuous
 62
     7
370
    30
100
AcDbPoint
 10
48.165094
 20
6.439729
 30
0.0
  0
POINT
  5
2EF
330
567
100
AcDbEntity
  8
HATCH
  6
Continuous
 62
     7
370
    30
100
AcDbPoint
 10
48.196344
 20
6.439729
 30
0.0
  0
POINT
  5
2F0
330
567
100
AcDbEntity
  8
HATCH
  6
Continuous
 62
     7
370
    30
100
AcDbPoint
 10
48.227594
 20
6.439729
 30
0.0
  0
POINT
  5
2F1
330
567
100
AcDbEntity
  8
HATCH
  6
Continuous
 62
     7
370
    30
100
AcDbPoint
 10
48.258844
 20
6.439729
 30
0.0
  0
POINT
  5
2F2
330
567
100
AcDbEntity
  8
HATCH
  6
Continuous
 62
     7
370
    30
100
AcDbPoint
 10
48.290094
 20
6.439729
 30
0.0
  0
POINT
  5
2F3
330
567
100
AcDbEntity
  8
HATCH
  6
Continuous
 62
     7
370
    30
100
AcDbPoint
 10
48.321344
 20
6.439729
 30
0.0
  0
POINT
  5
2F4
330
567
100
AcDbEntity
  8
HATCH
  6
Continuous
 62
     7
370
    30
100
AcDbPoint
 10
48.352594
 20
6.439729
 30
0.0
  0
POINT
  5
2F5
330
567
100
AcDbEntity
  8
HATCH
  6
Continuous
 62
     7
370
    30
100
AcDbPoint
 10
48.383844
 20
6.439729
 30
0.0
  0
POINT
  5
2F6
330
567
100
AcDbEntity
  8
HATCH
  6
Continuous
 62
     7
370
    30
100
AcDbPoint
 10
48.415094
 20
6.439729
 30
0.0
  0
POINT
  5
2F7
330
567
100
AcDbEntity
  8
HATCH
  6
Continuous
 62
     7
370
    30
100
AcDbPoint
 10
48.446344
 20
6.439729
 30
0.0
  0
POINT
  5
2F8
330
567
100
AcDbEntity
  8
HATCH
  6
Continuous
 62
     7
370
    30
100
AcDbPoint
 10
48.477594
 20
6.439729
 30
0.0
  0
POINT
  5
2F9
330
567
100
AcDbEntity
  8
HATCH
  6
Continuous
 62
     7
370
    30
100
AcDbPoint
 10
48.508844
 20
6.439729
 30
0.0
  0
POINT
  5
2FA
330
567
100
AcDbEntity
  8
HATCH
  6
Continuous
 62
     7
370
    30
100
AcDbPoint
 10
48.540094
 20
6.439729
 30
0.0
  0
POINT
  5
2FB
330
567
100
AcDbEntity
  8
HATCH
  6
Continuous
 62
     7
370
    30
100
AcDbPoint
 10
48.571344
 20
6.439729
 30
0.0
  0
POINT
  5
2FC
330
567
100
AcDbEntity
  8
HATCH
  6
Continuous
 62
     7
370
    30
100
AcDbPoint
 10
48.602594
 20
6.439729
 30
0.0
  0
POINT
  5
2FD
330
567
100
AcDbEntity
  8
HATCH
  6
Continuous
 62
     7
370
    30
100
AcDbPoint
 10
48.633844
 20
6.439729
 30
0.0
  0
POINT
  5
2FE
330
567
100
AcDbEntity
  8
HATCH
  6
Continuous
 62
     7
370
    30
100
AcDbPoint
 10
48.665094
 20
6.439729
 30
0.0
  0
POINT
  5
2FF
330
567
100
AcDbEntity
  8
HATCH
  6
Continuous
 62
     7
370
    30
100
AcDbPoint
 10
48.696344
 20
6.439729
 30
0.0
  0
POINT
  5
300
330
567
100
AcDbEntity
  8
HATCH
  6
Continuous
 62
     7
370
    30
100
AcDbPoint
 10
48.727594
 20
6.439729
 30
0.0
  0
POINT
  5
301
330
567
100
AcDbEntity
  8
HATCH
  6
Continuous
 62
     7
370
    30
100
AcDbPoint
 10
48.758844
 20
6.439729
 30
0.0
  0
POINT
  5
302
330
567
100
AcDbEntity
  8
HATCH
  6
Continuous
 62
     7
370
    30
100
AcDbPoint
 10
48.790094
 20
6.439729
 30
0.0
  0
POINT
  5
303
330
567
100
AcDbEntity
  8
HATCH
  6
Continuous
 62
     7
370
    30
100
AcDbPoint
 10
48.821344
 20
6.439729
 30
0.0
  0
POINT
  5
304
330
567
100
AcDbEntity
  8
HATCH
  6
Continuous
 62
     7
370
    30
100
AcDbPoint
 10
48.852594
 20
6.439729
 30
0.0
  0
POINT
  5
305
330
567
100
AcDbEntity
  8
HATCH
  6
Continuous
 62
     7
370
    30
100
AcDbPoint
 10
48.883844
 20
6.439729
 30
0.0
  0
POINT
  5
306
330
567
100
AcDbEntity
  8
HATCH
  6
Continuous
 62
     7
370
    30
100
AcDbPoint
 10
48.915094
 20
6.439729
 30
0.0
  0
POINT
  5
307
330
567
100
AcDbEntity
  8
HATCH
  6
Continuous
 62
     7
370
    30
100
AcDbPoint
 10
48.946344
 20
6.439729
 30
0.0
  0
POINT
  5
308
330
567
100
AcDbEntity
  8
HATCH
  6
Continuous
 62
     7
370
    30
100
AcDbPoint
 10
48.977594
 20
6.439729
 30
0.0
  0
POINT
  5
309
330
567
100
AcDbEntity
  8
HATCH
  6
Continuous
 62
     7
370
    30
100
AcDbPoint
 10
49.008844
 20
6.439729
 30
0.0
  0
POINT
  5
30A
330
567
100
AcDbEntity
  8
HATCH
  6
Continuous
 62
     7
370
    30
100
AcDbPoint
 10
49.040094
 20
6.439729
 30
0.0
  0
POINT
  5
30B
330
567
100
AcDbEntity
  8
HATCH
  6
Continuous
 62
     7
370
    30
100
AcDbPoint
 10
49.071344
 20
6.439729
 30
0.0
  0
POINT
  5
30C
330
567
100
AcDbEntity
  8
HATCH
  6
Continuous
 62
     7
370
    30
100
AcDbPoint
 10
49.102594
 20
6.439729
 30
0.0
  0
POINT
  5
30D
330
567
100
AcDbEntity
  8
HATCH
  6
Continuous
 62
     7
370
    30
100
AcDbPoint
 10
49.133844
 20
6.439729
 30
0.0
  0
POINT
  5
30E
330
567
100
AcDbEntity
  8
HATCH
  6
Continuous
 62
     7
370
    30
100
AcDbPoint
 10
49.165094
 20
6.439729
 30
0.0
  0
POINT
  5
30F
330
567
100
AcDbEntity
  8
HATCH
  6
Continuous
 62
     7
370
    30
100
AcDbPoint
 10
49.196344
 20
6.439729
 30
0.0
  0
POINT
  5
310
330
567
100
AcDbEntity
  8
HATCH
  6
Continuous
 62
     7
370
    30
100
AcDbPoint
 10
49.227594
 20
6.439729
 30
0.0
  0
POINT
  5
311
330
567
100
AcDbEntity
  8
HATCH
  6
Continuous
 62
     7
370
    30
100
AcDbPoint
 10
49.258844
 20
6.439729
 30
0.0
  0
POINT
  5
312
330
567
100
AcDbEntity
  8
HATCH
  6
Continuous
 62
     7
370
    30
100
AcDbPoint
 10
49.290094
 20
6.439729
 30
0.0
  0
POINT
  5
313
330
567
100
AcDbEntity
  8
HATCH
  6
Continuous
 62
     7
370
    30
100
AcDbPoint
 10
49.321344
 20
6.439729
 30
0.0
  0
POINT
  5
314
330
567
100
AcDbEntity
  8
HATCH
  6
Continuous
 62
     7
370
    30
100
AcDbPoint
 10
49.352594
 20
6.439729
 30
0.0
  0
POINT
  5
315
330
567
100
AcDbEntity
  8
HATCH
  6
Continuous
 62
     7
370
    30
100
AcDbPoint
 10
49.383844
 20
6.439729
 30
0.0
  0
POINT
  5
316
330
567
100
AcDbEntity
  8
HATCH
  6
Continuous
 62
     7
370
    30
100
AcDbPoint
 10
49.415094
 20
6.439729
 30
0.0
  0
POINT
  5
317
330
567
100
AcDbEntity
  8
HATCH
  6
Continuous
 62
     7
370
    30
100
AcDbPoint
 10
49.446344
 20
6.439729
 30
0.0
  0
POINT
  5
318
330
567
100
AcDbEntity
  8
HATCH
  6
Continuous
 62
     7
370
    30
100
AcDbPoint
 10
49.477594
 20
6.439729
 30
0.0
  0
POINT
  5
319
330
567
100
AcDbEntity
  8
HATCH
  6
Continuous
 62
     7
370
    30
100
AcDbPoint
 10
49.508844
 20
6.439729
 30
0.0
  0
POINT
  5
31A
330
567
100
AcDbEntity
  8
HATCH
  6
Continuous
 62
     7
370
    30
100
AcDbPoint
 10
49.540094
 20
6.439729
 30
0.0
  0
POINT
  5
31B
330
567
100
AcDbEntity
  8
HATCH
  6
Continuous
 62
     7
370
    30
100
AcDbPoint
 10
49.571344
 20
6.439729
 30
0.0
  0
POINT
  5
31C
330
567
100
AcDbEntity
  8
HATCH
  6
Continuous
 62
     7
370
    30
100
AcDbPoint
 10
49.602594
 20
6.439729
 30
0.0
  0
POINT
  5
31D
330
567
100
AcDbEntity
  8
HATCH
  6
Continuous
 62
     7
370
    30
100
AcDbPoint
 10
49.633844
 20
6.439729
 30
0.0
  0
POINT
  5
31E
330
567
100
AcDbEntity
  8
HATCH
  6
Continuous
 62
     7
370
    30
100
AcDbPoint
 10
49.665094
 20
6.439729
 30
0.0
  0
POINT
  5
31F
330
567
100
AcDbEntity
  8
HATCH
  6
Continuous
 62
     7
370
    30
100
AcDbPoint
 10
49.696344
 20
6.439729
 30
0.0
  0
POINT
  5
320
330
567
100
AcDbEntity
  8
HATCH
  6
Continuous
 62
     7
370
    30
100
AcDbPoint
 10
49.727594
 20
6.439729
 30
0.0
  0
POINT
  5
321
330
567
100
AcDbEntity
  8
HATCH
  6
Continuous
 62
     7
370
    30
100
AcDbPoint
 10
49.758844
 20
6.439729
 30
0.0
  0
POINT
  5
322
330
567
100
AcDbEntity
  8
HATCH
  6
Continuous
 62
     7
370
    30
100
AcDbPoint
 10
49.790094
 20
6.439729
 30
0.0
  0
POINT
  5
323
330
567
100
AcDbEntity
  8
HATCH
  6
Continuous
 62
     7
370
    30
100
AcDbPoint
 10
49.821344
 20
6.439729
 30
0.0
  0
POINT
  5
324
330
567
100
AcDbEntity
  8
HATCH
  6
Continuous
 62
     7
370
    30
100
AcDbPoint
 10
49.852594
 20
6.439729
 30
0.0
  0
POINT
  5
325
330
567
100
AcDbEntity
  8
HATCH
  6
Continuous
 62
     7
370
    30
100
AcDbPoint
 10
49.883844
 20
6.439729
 30
0.0
  0
POINT
  5
326
330
567
100
AcDbEntity
  8
HATCH
  6
Continuous
 62
     7
370
    30
100
AcDbPoint
 10
49.915094
 20
6.439729
 30
0.0
  0
POINT
  5
327
330
567
100
AcDbEntity
  8
HATCH
  6
Continuous
 62
     7
370
    30
100
AcDbPoint
 10
49.946344
 20
6.439729
 30
0.0
  0
POINT
  5
328
330
567
100
AcDbEntity
  8
HATCH
  6
Continuous
 62
     7
370
    30
100
AcDbPoint
 10
47.243219
 20
6.408479
 30
0.0
  0
POINT
  5
329
330
567
100
AcDbEntity
  8
HATCH
  6
Continuous
 62
     7
370
    30
100
AcDbPoint
 10
47.274469
 20
6.408479
 30
0.0
  0
POINT
  5
32A
330
567
100
AcDbEntity
  8
HATCH
  6
Continuous
 62
     7
370
    30
100
AcDbPoint
 10
47.305719
 20
6.408479
 30
0.0
  0
POINT
  5
32B
330
567
100
AcDbEntity
  8
HATCH
  6
Continuous
 62
     7
370
    30
100
AcDbPoint
 10
47.336969
 20
6.408479
 30
0.0
  0
POINT
  5
32C
330
567
100
AcDbEntity
  8
HATCH
  6
Continuous
 62
     7
370
    30
100
AcDbPoint
 10
47.368219
 20
6.408479
 30
0.0
  0
POINT
  5
32D
330
567
100
AcDbEntity
  8
HATCH
  6
Continuous
 62
     7
370
    30
100
AcDbPoint
 10
47.399469
 20
6.408479
 30
0.0
  0
POINT
  5
32E
330
567
100
AcDbEntity
  8
HATCH
  6
Continuous
 62
     7
370
    30
100
AcDbPoint
 10
47.430719
 20
6.408479
 30
0.0
  0
POINT
  5
32F
330
567
100
AcDbEntity
  8
HATCH
  6
Continuous
 62
     7
370
    30
100
AcDbPoint
 10
47.461969
 20
6.408479
 30
0.0
  0
POINT
  5
330
330
567
100
AcDbEntity
  8
HATCH
  6
Continuous
 62
     7
370
    30
100
AcDbPoint
 10
47.493219
 20
6.408479
 30
0.0
  0
POINT
  5
331
330
567
100
AcDbEntity
  8
HATCH
  6
Continuous
 62
     7
370
    30
100
AcDbPoint
 10
47.524469
 20
6.408479
 30
0.0
  0
POINT
  5
332
330
567
100
AcDbEntity
  8
HATCH
  6
Continuous
 62
     7
370
    30
100
AcDbPoint
 10
47.555719
 20
6.408479
 30
0.0
  0
POINT
  5
333
330
567
100
AcDbEntity
  8
HATCH
  6
Continuous
 62
     7
370
    30
100
AcDbPoint
 10
47.586969
 20
6.408479
 30
0.0
  0
POINT
  5
334
330
567
100
AcDbEntity
  8
HATCH
  6
Continuous
 62
     7
370
    30
100
AcDbPoint
 10
47.618219
 20
6.408479
 30
0.0
  0
POINT
  5
335
330
567
100
AcDbEntity
  8
HATCH
  6
Continuous
 62
     7
370
    30
100
AcDbPoint
 10
47.649469
 20
6.408479
 30
0.0
  0
POINT
  5
336
330
567
100
AcDbEntity
  8
HATCH
  6
Continuous
 62
     7
370
    30
100
AcDbPoint
 10
47.680719
 20
6.408479
 30
0.0
  0
POINT
  5
337
330
567
100
AcDbEntity
  8
HATCH
  6
Continuous
 62
     7
370
    30
100
AcDbPoint
 10
47.711969
 20
6.408479
 30
0.0
  0
POINT
  5
338
330
567
100
AcDbEntity
  8
HATCH
  6
Continuous
 62
     7
370
    30
100
AcDbPoint
 10
47.743219
 20
6.408479
 30
0.0
  0
POINT
  5
339
330
567
100
AcDbEntity
  8
HATCH
  6
Continuous
 62
     7
370
    30
100
AcDbPoint
 10
47.774469
 20
6.408479
 30
0.0
  0
POINT
  5
33A
330
567
100
AcDbEntity
  8
HATCH
  6
Continuous
 62
     7
370
    30
100
AcDbPoint
 10
47.805719
 20
6.408479
 30
0.0
  0
POINT
  5
33B
330
567
100
AcDbEntity
  8
HATCH
  6
Continuous
 62
     7
370
    30
100
AcDbPoint
 10
47.836969
 20
6.408479
 30
0.0
  0
POINT
  5
33C
330
567
100
AcDbEntity
  8
HATCH
  6
Continuous
 62
     7
370
    30
100
AcDbPoint
 10
47.868219
 20
6.408479
 30
0.0
  0
POINT
  5
33D
330
567
100
AcDbEntity
  8
HATCH
  6
Continuous
 62
     7
370
    30
100
AcDbPoint
 10
47.899469
 20
6.408479
 30
0.0
  0
POINT
  5
33E
330
567
100
AcDbEntity
  8
HATCH
  6
Continuous
 62
     7
370
    30
100
AcDbPoint
 10
47.930719
 20
6.408479
 30
0.0
  0
POINT
  5
33F
330
567
100
AcDbEntity
  8
HATCH
  6
Continuous
 62
     7
370
    30
100
AcDbPoint
 10
47.961969
 20
6.408479
 30
0.0
  0
POINT
  5
340
330
567
100
AcDbEntity
  8
HATCH
  6
Continuous
 62
     7
370
    30
100
AcDbPoint
 10
47.993219
 20
6.408479
 30
0.0
  0
POINT
  5
341
330
567
100
AcDbEntity
  8
HATCH
  6
Continuous
 62
     7
370
    30
100
AcDbPoint
 10
48.024469
 20
6.408479
 30
0.0
  0
POINT
  5
342
330
567
100
AcDbEntity
  8
HATCH
  6
Continuous
 62
     7
370
    30
100
AcDbPoint
 10
48.055719
 20
6.408479
 30
0.0
  0
POINT
  5
343
330
567
100
AcDbEntity
  8
HATCH
  6
Continuous
 62
     7
370
    30
100
AcDbPoint
 10
48.086969
 20
6.408479
 30
0.0
  0
POINT
  5
344
330
567
100
AcDbEntity
  8
HATCH
  6
Continuous
 62
     7
370
    30
100
AcDbPoint
 10
48.118219
 20
6.408479
 30
0.0
  0
POINT
  5
345
330
567
100
AcDbEntity
  8
HATCH
  6
Continuous
 62
     7
370
    30
100
AcDbPoint
 10
48.149469
 20
6.408479
 30
0.0
  0
POINT
  5
346
330
567
100
AcDbEntity
  8
HATCH
  6
Continuous
 62
     7
370
    30
100
AcDbPoint
 10
48.180719
 20
6.408479
 30
0.0
  0
POINT
  5
347
330
567
100
AcDbEntity
  8
HATCH
  6
Continuous
 62
     7
370
    30
100
AcDbPoint
 10
48.211969
 20
6.408479
 30
0.0
  0
POINT
  5
348
330
567
100
AcDbEntity
  8
HATCH
  6
Continuous
 62
     7
370
    30
100
AcDbPoint
 10
48.243219
 20
6.408479
 30
0.0
  0
POINT
  5
349
330
567
100
AcDbEntity
  8
HATCH
  6
Continuous
 62
     7
370
    30
100
AcDbPoint
 10
48.274469
 20
6.408479
 30
0.0
  0
POINT
  5
34A
330
567
100
AcDbEntity
  8
HATCH
  6
Continuous
 62
     7
370
    30
100
AcDbPoint
 10
48.305719
 20
6.408479
 30
0.0
  0
POINT
  5
34B
330
567
100
AcDbEntity
  8
HATCH
  6
Continuous
 62
     7
370
    30
100
AcDbPoint
 10
48.336969
 20
6.408479
 30
0.0
  0
POINT
  5
34C
330
567
100
AcDbEntity
  8
HATCH
  6
Continuous
 62
     7
370
    30
100
AcDbPoint
 10
48.368219
 20
6.408479
 30
0.0
  0
POINT
  5
34D
330
567
100
AcDbEntity
  8
HATCH
  6
Continuous
 62
     7
370
    30
100
AcDbPoint
 10
48.399469
 20
6.408479
 30
0.0
  0
POINT
  5
34E
330
567
100
AcDbEntity
  8
HATCH
  6
Continuous
 62
     7
370
    30
100
AcDbPoint
 10
48.430719
 20
6.408479
 30
0.0
  0
POINT
  5
34F
330
567
100
AcDbEntity
  8
HATCH
  6
Continuous
 62
     7
370
    30
100
AcDbPoint
 10
48.461969
 20
6.408479
 30
0.0
  0
POINT
  5
350
330
567
100
AcDbEntity
  8
HATCH
  6
Continuous
 62
     7
370
    30
100
AcDbPoint
 10
48.493219
 20
6.408479
 30
0.0
  0
POINT
  5
351
330
567
100
AcDbEntity
  8
HATCH
  6
Continuous
 62
     7
370
    30
100
AcDbPoint
 10
48.524469
 20
6.408479
 30
0.0
  0
POINT
  5
352
330
567
100
AcDbEntity
  8
HATCH
  6
Continuous
 62
     7
370
    30
100
AcDbPoint
 10
48.555719
 20
6.408479
 30
0.0
  0
POINT
  5
353
330
567
100
AcDbEntity
  8
HATCH
  6
Continuous
 62
     7
370
    30
100
AcDbPoint
 10
48.586969
 20
6.408479
 30
0.0
  0
POINT
  5
354
330
567
100
AcDbEntity
  8
HATCH
  6
Continuous
 62
     7
370
    30
100
AcDbPoint
 10
48.618219
 20
6.408479
 30
0.0
  0
POINT
  5
355
330
567
100
AcDbEntity
  8
HATCH
  6
Continuous
 62
     7
370
    30
100
AcDbPoint
 10
48.649469
 20
6.408479
 30
0.0
  0
POINT
  5
356
330
567
100
AcDbEntity
  8
HATCH
  6
Continuous
 62
     7
370
    30
100
AcDbPoint
 10
48.680719
 20
6.408479
 30
0.0
  0
POINT
  5
357
330
567
100
AcDbEntity
  8
HATCH
  6
Continuous
 62
     7
370
    30
100
AcDbPoint
 10
48.711969
 20
6.408479
 30
0.0
  0
POINT
  5
358
330
567
100
AcDbEntity
  8
HATCH
  6
Continuous
 62
     7
370
    30
100
AcDbPoint
 10
48.743219
 20
6.408479
 30
0.0
  0
POINT
  5
359
330
567
100
AcDbEntity
  8
HATCH
  6
Continuous
 62
     7
370
    30
100
AcDbPoint
 10
48.774469
 20
6.408479
 30
0.0
  0
POINT
  5
35A
330
567
100
AcDbEntity
  8
HATCH
  6
Continuous
 62
     7
370
    30
100
AcDbPoint
 10
48.805719
 20
6.408479
 30
0.0
  0
POINT
  5
35B
330
567
100
AcDbEntity
  8
HATCH
  6
Continuous
 62
     7
370
    30
100
AcDbPoint
 10
48.836969
 20
6.408479
 30
0.0
  0
POINT
  5
35C
330
567
100
AcDbEntity
  8
HATCH
  6
Continuous
 62
     7
370
    30
100
AcDbPoint
 10
48.868219
 20
6.408479
 30
0.0
  0
POINT
  5
35D
330
567
100
AcDbEntity
  8
HATCH
  6
Continuous
 62
     7
370
    30
100
AcDbPoint
 10
48.899469
 20
6.408479
 30
0.0
  0
POINT
  5
35E
330
567
100
AcDbEntity
  8
HATCH
  6
Continuous
 62
     7
370
    30
100
AcDbPoint
 10
48.930719
 20
6.408479
 30
0.0
  0
POINT
  5
35F
330
567
100
AcDbEntity
  8
HATCH
  6
Continuous
 62
     7
370
    30
100
AcDbPoint
 10
48.961969
 20
6.408479
 30
0.0
  0
POINT
  5
360
330
567
100
AcDbEntity
  8
HATCH
  6
Continuous
 62
     7
370
    30
100
AcDbPoint
 10
48.993219
 20
6.408479
 30
0.0
  0
POINT
  5
361
330
567
100
AcDbEntity
  8
HATCH
  6
Continuous
 62
     7
370
    30
100
AcDbPoint
 10
49.024469
 20
6.408479
 30
0.0
  0
POINT
  5
362
330
567
100
AcDbEntity
  8
HATCH
  6
Continuous
 62
     7
370
    30
100
AcDbPoint
 10
49.055719
 20
6.408479
 30
0.0
  0
POINT
  5
363
330
567
100
AcDbEntity
  8
HATCH
  6
Continuous
 62
     7
370
    30
100
AcDbPoint
 10
49.086969
 20
6.408479
 30
0.0
  0
POINT
  5
364
330
567
100
AcDbEntity
  8
HATCH
  6
Continuous
 62
     7
370
    30
100
AcDbPoint
 10
49.118219
 20
6.408479
 30
0.0
  0
POINT
  5
365
330
567
100
AcDbEntity
  8
HATCH
  6
Continuous
 62
     7
370
    30
100
AcDbPoint
 10
49.149469
 20
6.408479
 30
0.0
  0
POINT
  5
366
330
567
100
AcDbEntity
  8
HATCH
  6
Continuous
 62
     7
370
    30
100
AcDbPoint
 10
49.180719
 20
6.408479
 30
0.0
  0
POINT
  5
367
330
567
100
AcDbEntity
  8
HATCH
  6
Continuous
 62
     7
370
    30
100
AcDbPoint
 10
49.211969
 20
6.408479
 30
0.0
  0
POINT
  5
368
330
567
100
AcDbEntity
  8
HATCH
  6
Continuous
 62
     7
370
    30
100
AcDbPoint
 10
49.243219
 20
6.408479
 30
0.0
  0
POINT
  5
369
330
567
100
AcDbEntity
  8
HATCH
  6
Continuous
 62
     7
370
    30
100
AcDbPoint
 10
49.274469
 20
6.408479
 30
0.0
  0
POINT
  5
36A
330
567
100
AcDbEntity
  8
HATCH
  6
Continuous
 62
     7
370
    30
100
AcDbPoint
 10
49.305719
 20
6.408479
 30
0.0
  0
POINT
  5
36B
330
567
100
AcDbEntity
  8
HATCH
  6
Continuous
 62
     7
370
    30
100
AcDbPoint
 10
49.336969
 20
6.408479
 30
0.0
  0
POINT
  5
36C
330
567
100
AcDbEntity
  8
HATCH
  6
Continuous
 62
     7
370
    30
100
AcDbPoint
 10
49.368219
 20
6.408479
 30
0.0
  0
POINT
  5
36D
330
567
100
AcDbEntity
  8
HATCH
  6
Continuous
 62
     7
370
    30
100
AcDbPoint
 10
49.399469
 20
6.408479
 30
0.0
  0
POINT
  5
36E
330
567
100
AcDbEntity
  8
HATCH
  6
Continuous
 62
     7
370
    30
100
AcDbPoint
 10
49.430719
 20
6.408479
 30
0.0
  0
POINT
  5
36F
330
567
100
AcDbEntity
  8
HATCH
  6
Continuous
 62
     7
370
    30
100
AcDbPoint
 10
49.461969
 20
6.408479
 30
0.0
  0
POINT
  5
370
330
567
100
AcDbEntity
  8
HATCH
  6
Continuous
 62
     7
370
    30
100
AcDbPoint
 10
49.493219
 20
6.408479
 30
0.0
  0
POINT
  5
371
330
567
100
AcDbEntity
  8
HATCH
  6
Continuous
 62
     7
370
    30
100
AcDbPoint
 10
49.524469
 20
6.408479
 30
0.0
  0
POINT
  5
372
330
567
100
AcDbEntity
  8
HATCH
  6
Continuous
 62
     7
370
    30
100
AcDbPoint
 10
49.555719
 20
6.408479
 30
0.0
  0
POINT
  5
373
330
567
100
AcDbEntity
  8
HATCH
  6
Continuous
 62
     7
370
    30
100
AcDbPoint
 10
49.586969
 20
6.408479
 30
0.0
  0
POINT
  5
374
330
567
100
AcDbEntity
  8
HATCH
  6
Continuous
 62
     7
370
    30
100
AcDbPoint
 10
49.618219
 20
6.408479
 30
0.0
  0
POINT
  5
375
330
567
100
AcDbEntity
  8
HATCH
  6
Continuous
 62
     7
370
    30
100
AcDbPoint
 10
49.649469
 20
6.408479
 30
0.0
  0
POINT
  5
376
330
567
100
AcDbEntity
  8
HATCH
  6
Continuous
 62
     7
370
    30
100
AcDbPoint
 10
49.680719
 20
6.408479
 30
0.0
  0
POINT
  5
377
330
567
100
AcDbEntity
  8
HATCH
  6
Continuous
 62
     7
370
    30
100
AcDbPoint
 10
49.711969
 20
6.408479
 30
0.0
  0
POINT
  5
378
330
567
100
AcDbEntity
  8
HATCH
  6
Continuous
 62
     7
370
    30
100
AcDbPoint
 10
49.743219
 20
6.408479
 30
0.0
  0
POINT
  5
379
330
567
100
AcDbEntity
  8
HATCH
  6
Continuous
 62
     7
370
    30
100
AcDbPoint
 10
49.774469
 20
6.408479
 30
0.0
  0
POINT
  5
37A
330
567
100
AcDbEntity
  8
HATCH
  6
Continuous
 62
     7
370
    30
100
AcDbPoint
 10
49.805719
 20
6.408479
 30
0.0
  0
POINT
  5
37B
330
567
100
AcDbEntity
  8
HATCH
  6
Continuous
 62
     7
370
    30
100
AcDbPoint
 10
49.836969
 20
6.408479
 30
0.0
  0
POINT
  5
37C
330
567
100
AcDbEntity
  8
HATCH
  6
Continuous
 62
     7
370
    30
100
AcDbPoint
 10
49.868219
 20
6.408479
 30
0.0
  0
POINT
  5
37D
330
567
100
AcDbEntity
  8
HATCH
  6
Continuous
 62
     7
370
    30
100
AcDbPoint
 10
49.899469
 20
6.408479
 30
0.0
  0
POINT
  5
37E
330
567
100
AcDbEntity
  8
HATCH
  6
Continuous
 62
     7
370
    30
100
AcDbPoint
 10
49.930719
 20
6.408479
 30
0.0
  0
POINT
  5
37F
330
567
100
AcDbEntity
  8
HATCH
  6
Continuous
 62
     7
370
    30
100
AcDbPoint
 10
49.961969
 20
6.408479
 30
0.0
  0
POINT
  5
380
330
567
100
AcDbEntity
  8
HATCH
  6
Continuous
 62
     7
370
    30
100
AcDbPoint
 10
49.993219
 20
6.408479
 30
0.0
  0
POINT
  5
381
330
567
100
AcDbEntity
  8
HATCH
  6
Continuous
 62
     7
370
    30
100
AcDbPoint
 10
47.258844
 20
6.377229
 30
0.0
  0
POINT
  5
382
330
567
100
AcDbEntity
  8
HATCH
  6
Continuous
 62
     7
370
    30
100
AcDbPoint
 10
47.290094
 20
6.377229
 30
0.0
  0
POINT
  5
383
330
567
100
AcDbEntity
  8
HATCH
  6
Continuous
 62
     7
370
    30
100
AcDbPoint
 10
47.321344
 20
6.377229
 30
0.0
  0
POINT
  5
384
330
567
100
AcDbEntity
  8
HATCH
  6
Continuous
 62
     7
370
    30
100
AcDbPoint
 10
47.352594
 20
6.377229
 30
0.0
  0
POINT
  5
385
330
567
100
AcDbEntity
  8
HATCH
  6
Continuous
 62
     7
370
    30
100
AcDbPoint
 10
47.383844
 20
6.377229
 30
0.0
  0
POINT
  5
386
330
567
100
AcDbEntity
  8
HATCH
  6
Continuous
 62
     7
370
    30
100
AcDbPoint
 10
47.415094
 20
6.377229
 30
0.0
  0
POINT
  5
387
330
567
100
AcDbEntity
  8
HATCH
  6
Continuous
 62
     7
370
    30
100
AcDbPoint
 10
47.446344
 20
6.377229
 30
0.0
  0
POINT
  5
388
330
567
100
AcDbEntity
  8
HATCH
  6
Continuous
 62
     7
370
    30
100
AcDbPoint
 10
47.477594
 20
6.377229
 30
0.0
  0
POINT
  5
389
330
567
100
AcDbEntity
  8
HATCH
  6
Continuous
 62
     7
370
    30
100
AcDbPoint
 10
47.508844
 20
6.377229
 30
0.0
  0
POINT
  5
38A
330
567
100
AcDbEntity
  8
HATCH
  6
Continuous
 62
     7
370
    30
100
AcDbPoint
 10
47.540094
 20
6.377229
 30
0.0
  0
POINT
  5
38B
330
567
100
AcDbEntity
  8
HATCH
  6
Continuous
 62
     7
370
    30
100
AcDbPoint
 10
47.571344
 20
6.377229
 30
0.0
  0
POINT
  5
38C
330
567
100
AcDbEntity
  8
HATCH
  6
Continuous
 62
     7
370
    30
100
AcDbPoint
 10
47.602594
 20
6.377229
 30
0.0
  0
POINT
  5
38D
330
567
100
AcDbEntity
  8
HATCH
  6
Continuous
 62
     7
370
    13
100
AcDbPoint
 10
47.633844
 20
6.377229
 30
0.0
  0
POINT
  5
38E
330
567
100
AcDbEntity
  8
HATCH
  6
Continuous
 62
     7
370
    30
100
AcDbPoint
 10
47.665094
 20
6.377229
 30
0.0
  0
POINT
  5
38F
330
567
100
AcDbEntity
  8
HATCH
  6
Continuous
 62
     7
370
    30
100
AcDbPoint
 10
47.696344
 20
6.377229
 30
0.0
  0
POINT
  5
390
330
567
100
AcDbEntity
  8
HATCH
  6
Continuous
 62
     7
370
    30
100
AcDbPoint
 10
47.727594
 20
6.377229
 30
0.0
  0
POINT
  5
391
330
567
100
AcDbEntity
  8
HATCH
  6
Continuous
 62
     7
370
    30
100
AcDbPoint
 10
47.758844
 20
6.377229
 30
0.0
  0
POINT
  5
392
330
567
100
AcDbEntity
  8
HATCH
  6
Continuous
 62
     7
370
    30
100
AcDbPoint
 10
47.790094
 20
6.377229
 30
0.0
  0
POINT
  5
393
330
567
100
AcDbEntity
  8
HATCH
  6
Continuous
 62
     7
370
    30
100
AcDbPoint
 10
47.821344
 20
6.377229
 30
0.0
  0
POINT
  5
394
330
567
100
AcDbEntity
  8
HATCH
  6
Continuous
 62
     7
370
    30
100
AcDbPoint
 10
47.852594
 20
6.377229
 30
0.0
  0
POINT
  5
395
330
567
100
AcDbEntity
  8
HATCH
  6
Continuous
 62
     7
370
    30
100
AcDbPoint
 10
47.883844
 20
6.377229
 30
0.0
  0
POINT
  5
396
330
567
100
AcDbEntity
  8
HATCH
  6
Continuous
 62
     7
370
    30
100
AcDbPoint
 10
47.915094
 20
6.377229
 30
0.0
  0
POINT
  5
397
330
567
100
AcDbEntity
  8
HATCH
  6
Continuous
 62
     7
370
    30
100
AcDbPoint
 10
47.946344
 20
6.377229
 30
0.0
  0
POINT
  5
398
330
567
100
AcDbEntity
  8
HATCH
  6
Continuous
 62
     7
370
    30
100
AcDbPoint
 10
47.977594
 20
6.377229
 30
0.0
  0
POINT
  5
399
330
567
100
AcDbEntity
  8
HATCH
  6
Continuous
 62
     7
370
    30
100
AcDbPoint
 10
48.008844
 20
6.377229
 30
0.0
  0
POINT
  5
39A
330
567
100
AcDbEntity
  8
HATCH
  6
Continuous
 62
     7
370
    30
100
AcDbPoint
 10
48.040094
 20
6.377229
 30
0.0
  0
POINT
  5
39B
330
567
100
AcDbEntity
  8
HATCH
  6
Continuous
 62
     7
370
    30
100
AcDbPoint
 10
48.071344
 20
6.377229
 30
0.0
  0
POINT
  5
39C
330
567
100
AcDbEntity
  8
HATCH
  6
Continuous
 62
     7
370
    30
100
AcDbPoint
 10
48.102594
 20
6.377229
 30
0.0
  0
POINT
  5
39D
330
567
100
AcDbEntity
  8
HATCH
  6
Continuous
 62
     7
370
    30
100
AcDbPoint
 10
48.133844
 20
6.377229
 30
0.0
  0
POINT
  5
39E
330
567
100
AcDbEntity
  8
HATCH
  6
Continuous
 62
     7
370
    30
100
AcDbPoint
 10
48.165094
 20
6.377229
 30
0.0
  0
POINT
  5
39F
330
567
100
AcDbEntity
  8
HATCH
  6
Continuous
 62
     7
370
    30
100
AcDbPoint
 10
48.196344
 20
6.377229
 30
0.0
  0
POINT
  5
3A0
330
567
100
AcDbEntity
  8
HATCH
  6
Continuous
 62
     7
370
    30
100
AcDbPoint
 10
48.227594
 20
6.377229
 30
0.0
  0
POINT
  5
3A1
330
567
100
AcDbEntity
  8
HATCH
  6
Continuous
 62
     7
370
    30
100
AcDbPoint
 10
48.258844
 20
6.377229
 30
0.0
  0
POINT
  5
3A2
330
567
100
AcDbEntity
  8
HATCH
  6
Continuous
 62
     7
370
    30
100
AcDbPoint
 10
48.290094
 20
6.377229
 30
0.0
  0
POINT
  5
3A3
330
567
100
AcDbEntity
  8
HATCH
  6
Continuous
 62
     7
370
    30
100
AcDbPoint
 10
48.321344
 20
6.377229
 30
0.0
  0
POINT
  5
3A4
330
567
100
AcDbEntity
  8
HATCH
  6
Continuous
 62
     7
370
    30
100
AcDbPoint
 10
48.352594
 20
6.377229
 30
0.0
  0
POINT
  5
3A5
330
567
100
AcDbEntity
  8
HATCH
  6
Continuous
 62
     7
370
    30
100
AcDbPoint
 10
48.383844
 20
6.377229
 30
0.0
  0
POINT
  5
3A6
330
567
100
AcDbEntity
  8
HATCH
  6
Continuous
 62
     7
370
    30
100
AcDbPoint
 10
48.415094
 20
6.377229
 30
0.0
  0
POINT
  5
3A7
330
567
100
AcDbEntity
  8
HATCH
  6
Continuous
 62
     7
370
    30
100
AcDbPoint
 10
48.446344
 20
6.377229
 30
0.0
  0
POINT
  5
3A8
330
567
100
AcDbEntity
  8
HATCH
  6
Continuous
 62
     7
370
    30
100
AcDbPoint
 10
48.477594
 20
6.377229
 30
0.0
  0
POINT
  5
3A9
330
567
100
AcDbEntity
  8
HATCH
  6
Continuous
 62
     7
370
    30
100
AcDbPoint
 10
48.508844
 20
6.377229
 30
0.0
  0
POINT
  5
3AA
330
567
100
AcDbEntity
  8
HATCH
  6
Continuous
 62
     7
370
    30
100
AcDbPoint
 10
48.540094
 20
6.377229
 30
0.0
  0
POINT
  5
3AB
330
567
100
AcDbEntity
  8
HATCH
  6
Continuous
 62
     7
370
    30
100
AcDbPoint
 10
48.571344
 20
6.377229
 30
0.0
  0
POINT
  5
3AC
330
567
100
AcDbEntity
  8
HATCH
  6
Continuous
 62
     7
370
    30
100
AcDbPoint
 10
48.602594
 20
6.377229
 30
0.0
  0
POINT
  5
3AD
330
567
100
AcDbEntity
  8
HATCH
  6
Continuous
 62
     7
370
    30
100
AcDbPoint
 10
48.633844
 20
6.377229
 30
0.0
  0
POINT
  5
3AE
330
567
100
AcDbEntity
  8
HATCH
  6
Continuous
 62
     7
370
    30
100
AcDbPoint
 10
48.665094
 20
6.377229
 30
0.0
  0
POINT
  5
3AF
330
567
100
AcDbEntity
  8
HATCH
  6
Continuous
 62
     7
370
    30
100
AcDbPoint
 10
48.696344
 20
6.377229
 30
0.0
  0
POINT
  5
3B0
330
567
100
AcDbEntity
  8
HATCH
  6
Continuous
 62
     7
370
    30
100
AcDbPoint
 10
48.727594
 20
6.377229
 30
0.0
  0
POINT
  5
3B1
330
567
100
AcDbEntity
  8
HATCH
  6
Continuous
 62
     7
370
    30
100
AcDbPoint
 10
48.758844
 20
6.377229
 30
0.0
  0
POINT
  5
3B2
330
567
100
AcDbEntity
  8
HATCH
  6
Continuous
 62
     7
370
    30
100
AcDbPoint
 10
48.790094
 20
6.377229
 30
0.0
  0
POINT
  5
3B3
330
567
100
AcDbEntity
  8
HATCH
  6
Continuous
 62
     7
370
    30
100
AcDbPoint
 10
48.821344
 20
6.377229
 30
0.0
  0
POINT
  5
3B4
330
567
100
AcDbEntity
  8
HATCH
  6
Continuous
 62
     7
370
    30
100
AcDbPoint
 10
48.852594
 20
6.377229
 30
0.0
  0
POINT
  5
3B5
330
567
100
AcDbEntity
  8
HATCH
  6
Continuous
 62
     7
370
    30
100
AcDbPoint
 10
48.883844
 20
6.377229
 30
0.0
  0
POINT
  5
3B6
330
567
100
AcDbEntity
  8
HATCH
  6
Continuous
 62
     7
370
    30
100
AcDbPoint
 10
48.915094
 20
6.377229
 30
0.0
  0
POINT
  5
3B7
330
567
100
AcDbEntity
  8
HATCH
  6
Continuous
 62
     7
370
    30
100
AcDbPoint
 10
48.946344
 20
6.377229
 30
0.0
  0
POINT
  5
3B8
330
567
100
AcDbEntity
  8
HATCH
  6
Continuous
 62
     7
370
    30
100
AcDbPoint
 10
48.977594
 20
6.377229
 30
0.0
  0
POINT
  5
3B9
330
567
100
AcDbEntity
  8
HATCH
  6
Continuous
 62
     7
370
    30
100
AcDbPoint
 10
49.008844
 20
6.377229
 30
0.0
  0
POINT
  5
3BA
330
567
100
AcDbEntity
  8
HATCH
  6
Continuous
 62
     7
370
    30
100
AcDbPoint
 10
49.040094
 20
6.377229
 30
0.0
  0
POINT
  5
3BB
330
567
100
AcDbEntity
  8
HATCH
  6
Continuous
 62
     7
370
    30
100
AcDbPoint
 10
49.071344
 20
6.377229
 30
0.0
  0
POINT
  5
3BC
330
567
100
AcDbEntity
  8
HATCH
  6
Continuous
 62
     7
370
    30
100
AcDbPoint
 10
49.102594
 20
6.377229
 30
0.0
  0
POINT
  5
3BD
330
567
100
AcDbEntity
  8
HATCH
  6
Continuous
 62
     7
370
    30
100
AcDbPoint
 10
49.133844
 20
6.377229
 30
0.0
  0
POINT
  5
3BE
330
567
100
AcDbEntity
  8
HATCH
  6
Continuous
 62
     7
370
    30
100
AcDbPoint
 10
49.165094
 20
6.377229
 30
0.0
  0
POINT
  5
3BF
330
567
100
AcDbEntity
  8
HATCH
  6
Continuous
 62
     7
370
    30
100
AcDbPoint
 10
49.196344
 20
6.377229
 30
0.0
  0
POINT
  5
3C0
330
567
100
AcDbEntity
  8
HATCH
  6
Continuous
 62
     7
370
    30
100
AcDbPoint
 10
49.227594
 20
6.377229
 30
0.0
  0
POINT
  5
3C1
330
567
100
AcDbEntity
  8
HATCH
  6
Continuous
 62
     7
370
    30
100
AcDbPoint
 10
49.258844
 20
6.377229
 30
0.0
  0
POINT
  5
3C2
330
567
100
AcDbEntity
  8
HATCH
  6
Continuous
 62
     7
370
    30
100
AcDbPoint
 10
49.290094
 20
6.377229
 30
0.0
  0
POINT
  5
3C3
330
567
100
AcDbEntity
  8
HATCH
  6
Continuous
 62
     7
370
    30
100
AcDbPoint
 10
49.321344
 20
6.377229
 30
0.0
  0
POINT
  5
3C4
330
567
100
AcDbEntity
  8
HATCH
  6
Continuous
 62
     7
370
    30
100
AcDbPoint
 10
49.352594
 20
6.377229
 30
0.0
  0
POINT
  5
3C5
330
567
100
AcDbEntity
  8
HATCH
  6
Continuous
 62
     7
370
    30
100
AcDbPoint
 10
49.383844
 20
6.377229
 30
0.0
  0
POINT
  5
3C6
330
567
100
AcDbEntity
  8
HATCH
  6
Continuous
 62
     7
370
    30
100
AcDbPoint
 10
49.415094
 20
6.377229
 30
0.0
  0
POINT
  5
3C7
330
567
100
AcDbEntity
  8
HATCH
  6
Continuous
 62
     7
370
    30
100
AcDbPoint
 10
49.446344
 20
6.377229
 30
0.0
  0
POINT
  5
3C8
330
567
100
AcDbEntity
  8
HATCH
  6
Continuous
 62
     7
370
    30
100
AcDbPoint
 10
49.477594
 20
6.377229
 30
0.0
  0
POINT
  5
3C9
330
567
100
AcDbEntity
  8
HATCH
  6
Continuous
 62
     7
370
    30
100
AcDbPoint
 10
49.508844
 20
6.377229
 30
0.0
  0
POINT
  5
3CA
330
567
100
AcDbEntity
  8
HATCH
  6
Continuous
 62
     7
370
    30
100
AcDbPoint
 10
49.540094
 20
6.377229
 30
0.0
  0
POINT
  5
3CB
330
567
100
AcDbEntity
  8
HATCH
  6
Continuous
 62
     7
370
    30
100
AcDbPoint
 10
49.571344
 20
6.377229
 30
0.0
  0
POINT
  5
3CC
330
567
100
AcDbEntity
  8
HATCH
  6
Continuous
 62
     7
370
    30
100
AcDbPoint
 10
49.602594
 20
6.377229
 30
0.0
  0
POINT
  5
3CD
330
567
100
AcDbEntity
  8
HATCH
  6
Continuous
 62
     7
370
    30
100
AcDbPoint
 10
49.633844
 20
6.377229
 30
0.0
  0
POINT
  5
3CE
330
567
100
AcDbEntity
  8
HATCH
  6
Continuous
 62
     7
370
    30
100
AcDbPoint
 10
49.665094
 20
6.377229
 30
0.0
  0
POINT
  5
3CF
330
567
100
AcDbEntity
  8
HATCH
  6
Continuous
 62
     7
370
    30
100
AcDbPoint
 10
49.696344
 20
6.377229
 30
0.0
  0
POINT
  5
3D0
330
567
100
AcDbEntity
  8
HATCH
  6
Continuous
 62
     7
370
    30
100
AcDbPoint
 10
49.727594
 20
6.377229
 30
0.0
  0
POINT
  5
3D1
330
567
100
AcDbEntity
  8
HATCH
  6
Continuous
 62
     7
370
    30
100
AcDbPoint
 10
49.758844
 20
6.377229
 30
0.0
  0
POINT
  5
3D2
330
567
100
AcDbEntity
  8
HATCH
  6
Continuous
 62
     7
370
    30
100
AcDbPoint
 10
49.790094
 20
6.377229
 30
0.0
  0
POINT
  5
3D3
330
567
100
AcDbEntity
  8
HATCH
  6
Continuous
 62
     7
370
    30
100
AcDbPoint
 10
49.821344
 20
6.377229
 30
0.0
  0
POINT
  5
3D4
330
567
100
AcDbEntity
  8
HATCH
  6
Continuous
 62
     7
370
    30
100
AcDbPoint
 10
49.852594
 20
6.377229
 30
0.0
  0
POINT
  5
3D5
330
567
100
AcDbEntity
  8
HATCH
  6
Continuous
 62
     7
370
    30
100
AcDbPoint
 10
49.883844
 20
6.377229
 30
0.0
  0
POINT
  5
3D6
330
567
100
AcDbEntity
  8
HATCH
  6
Continuous
 62
     7
370
    30
100
AcDbPoint
 10
49.915094
 20
6.377229
 30
0.0
  0
POINT
  5
3D7
330
567
100
AcDbEntity
  8
HATCH
  6
Continuous
 62
     7
370
    30
100
AcDbPoint
 10
49.946344
 20
6.377229
 30
0.0
  0
POINT
  5
3D8
330
567
100
AcDbEntity
  8
HATCH
  6
Continuous
 62
     7
370
    30
100
AcDbPoint
 10
49.977594
 20
6.377229
 30
0.0
  0
POINT
  5
3D9
330
567
100
AcDbEntity
  8
HATCH
  6
Continuous
 62
     7
370
    30
100
AcDbPoint
 10
50.008844
 20
6.377229
 30
0.0
  0
POINT
  5
3DA
330
567
100
AcDbEntity
  8
HATCH
  6
Continuous
 62
     7
370
    30
100
AcDbPoint
 10
50.040094
 20
6.377229
 30
0.0
  0
POINT
  5
3DB
330
567
100
AcDbEntity
  8
HATCH
  6
Continuous
 62
     7
370
    30
100
AcDbPoint
 10
47.274469
 20
6.345979
 30
0.0
  0
POINT
  5
3DC
330
567
100
AcDbEntity
  8
HATCH
  6
Continuous
 62
     7
370
    30
100
AcDbPoint
 10
47.305719
 20
6.345979
 30
0.0
  0
POINT
  5
3DD
330
567
100
AcDbEntity
  8
HATCH
  6
Continuous
 62
     7
370
    30
100
AcDbPoint
 10
47.336969
 20
6.345979
 30
0.0
  0
POINT
  5
3DE
330
567
100
AcDbEntity
  8
HATCH
  6
Continuous
 62
     7
370
    30
100
AcDbPoint
 10
47.368219
 20
6.345979
 30
0.0
  0
POINT
  5
3DF
330
567
100
AcDbEntity
  8
HATCH
  6
Continuous
 62
     7
370
    30
100
AcDbPoint
 10
47.399469
 20
6.345979
 30
0.0
  0
POINT
  5
3E0
330
567
100
AcDbEntity
  8
HATCH
  6
Continuous
 62
     7
370
    30
100
AcDbPoint
 10
47.430719
 20
6.345979
 30
0.0
  0
POINT
  5
3E1
330
567
100
AcDbEntity
  8
HATCH
  6
Continuous
 62
     7
370
    30
100
AcDbPoint
 10
47.461969
 20
6.345979
 30
0.0
  0
POINT
  5
3E2
330
567
100
AcDbEntity
  8
HATCH
  6
Continuous
 62
     7
370
    30
100
AcDbPoint
 10
47.493219
 20
6.345979
 30
0.0
  0
POINT
  5
3E3
330
567
100
AcDbEntity
  8
HATCH
  6
Continuous
 62
     7
370
    30
100
AcDbPoint
 10
47.524469
 20
6.345979
 30
0.0
  0
POINT
  5
3E4
330
567
100
AcDbEntity
  8
HATCH
  6
Continuous
 62
     7
370
    30
100
AcDbPoint
 10
47.555719
 20
6.345979
 30
0.0
  0
POINT
  5
3E5
330
567
100
AcDbEntity
  8
HATCH
  6
Continuous
 62
     7
370
    30
100
AcDbPoint
 10
47.586969
 20
6.345979
 30
0.0
  0
POINT
  5
3E6
330
567
100
AcDbEntity
  8
HATCH
  6
Continuous
 62
     7
370
    30
100
AcDbPoint
 10
47.618219
 20
6.345979
 30
0.0
  0
POINT
  5
3E7
330
567
100
AcDbEntity
  8
HATCH
  6
Continuous
 62
     7
370
    30
100
AcDbPoint
 10
47.649469
 20
6.345979
 30
0.0
  0
POINT
  5
3E8
330
567
100
AcDbEntity
  8
HATCH
  6
Continuous
 62
     7
370
    30
100
AcDbPoint
 10
47.680719
 20
6.345979
 30
0.0
  0
POINT
  5
3E9
330
567
100
AcDbEntity
  8
HATCH
  6
Continuous
 62
     7
370
    30
100
AcDbPoint
 10
47.711969
 20
6.345979
 30
0.0
  0
POINT
  5
3EA
330
567
100
AcDbEntity
  8
HATCH
  6
Continuous
 62
     7
370
    30
100
AcDbPoint
 10
47.743219
 20
6.345979
 30
0.0
  0
POINT
  5
3EB
330
567
100
AcDbEntity
  8
HATCH
  6
Continuous
 62
     7
370
    30
100
AcDbPoint
 10
47.774469
 20
6.345979
 30
0.0
  0
POINT
  5
3EC
330
567
100
AcDbEntity
  8
HATCH
  6
Continuous
 62
     7
370
    30
100
AcDbPoint
 10
47.805719
 20
6.345979
 30
0.0
  0
POINT
  5
3ED
330
567
100
AcDbEntity
  8
HATCH
  6
Continuous
 62
     7
370
    30
100
AcDbPoint
 10
47.836969
 20
6.345979
 30
0.0
  0
POINT
  5
3EE
330
567
100
AcDbEntity
  8
HATCH
  6
Continuous
 62
     7
370
    30
100
AcDbPoint
 10
47.868219
 20
6.345979
 30
0.0
  0
POINT
  5
3EF
330
567
100
AcDbEntity
  8
HATCH
  6
Continuous
 62
     7
370
    30
100
AcDbPoint
 10
47.899469
 20
6.345979
 30
0.0
  0
POINT
  5
3F0
330
567
100
AcDbEntity
  8
HATCH
  6
Continuous
 62
     7
370
    30
100
AcDbPoint
 10
47.930719
 20
6.345979
 30
0.0
  0
POINT
  5
3F1
330
567
100
AcDbEntity
  8
HATCH
  6
Continuous
 62
     7
370
    30
100
AcDbPoint
 10
47.961969
 20
6.345979
 30
0.0
  0
POINT
  5
3F2
330
567
100
AcDbEntity
  8
HATCH
  6
Continuous
 62
     7
370
    30
100
AcDbPoint
 10
47.993219
 20
6.345979
 30
0.0
  0
POINT
  5
3F3
330
567
100
AcDbEntity
  8
HATCH
  6
Continuous
 62
     7
370
    30
100
AcDbPoint
 10
48.024469
 20
6.345979
 30
0.0
  0
POINT
  5
3F4
330
567
100
AcDbEntity
  8
HATCH
  6
Continuous
 62
     7
370
    30
100
AcDbPoint
 10
48.055719
 20
6.345979
 30
0.0
  0
POINT
  5
3F5
330
567
100
AcDbEntity
  8
HATCH
  6
Continuous
 62
     7
370
    30
100
AcDbPoint
 10
48.086969
 20
6.345979
 30
0.0
  0
POINT
  5
3F6
330
567
100
AcDbEntity
  8
HATCH
  6
Continuous
 62
     7
370
    30
100
AcDbPoint
 10
48.118219
 20
6.345979
 30
0.0
  0
POINT
  5
3F7
330
567
100
AcDbEntity
  8
HATCH
  6
Continuous
 62
     7
370
    30
100
AcDbPoint
 10
48.149469
 20
6.345979
 30
0.0
  0
POINT
  5
3F8
330
567
100
AcDbEntity
  8
HATCH
  6
Continuous
 62
     7
370
    30
100
AcDbPoint
 10
48.180719
 20
6.345979
 30
0.0
  0
POINT
  5
3F9
330
567
100
AcDbEntity
  8
HATCH
  6
Continuous
 62
     7
370
    30
100
AcDbPoint
 10
48.211969
 20
6.345979
 30
0.0
  0
POINT
  5
3FA
330
567
100
AcDbEntity
  8
HATCH
  6
Continuous
 62
     7
370
    30
100
AcDbPoint
 10
48.243219
 20
6.345979
 30
0.0
  0
POINT
  5
3FB
330
567
100
AcDbEntity
  8
HATCH
  6
Continuous
 62
     7
370
    30
100
AcDbPoint
 10
48.274469
 20
6.345979
 30
0.0
  0
POINT
  5
3FC
330
567
100
AcDbEntity
  8
HATCH
  6
Continuous
 62
     7
370
    30
100
AcDbPoint
 10
48.305719
 20
6.345979
 30
0.0
  0
POINT
  5
3FD
330
567
100
AcDbEntity
  8
HATCH
  6
Continuous
 62
     7
370
    30
100
AcDbPoint
 10
48.336969
 20
6.345979
 30
0.0
  0
POINT
  5
3FE
330
567
100
AcDbEntity
  8
HATCH
  6
Continuous
 62
     7
370
    30
100
AcDbPoint
 10
48.368219
 20
6.345979
 30
0.0
  0
POINT
  5
3FF
330
567
100
AcDbEntity
  8
HATCH
  6
Continuous
 62
     7
370
    30
100
AcDbPoint
 10
48.399469
 20
6.345979
 30
0.0
  0
POINT
  5
400
330
567
100
AcDbEntity
  8
HATCH
  6
Continuous
 62
     7
370
    30
100
AcDbPoint
 10
48.430719
 20
6.345979
 30
0.0
  0
POINT
  5
401
330
567
100
AcDbEntity
  8
HATCH
  6
Continuous
 62
     7
370
    30
100
AcDbPoint
 10
48.461969
 20
6.345979
 30
0.0
  0
POINT
  5
402
330
567
100
AcDbEntity
  8
HATCH
  6
Continuous
 62
     7
370
    30
100
AcDbPoint
 10
48.493219
 20
6.345979
 30
0.0
  0
POINT
  5
403
330
567
100
AcDbEntity
  8
HATCH
  6
Continuous
 62
     7
370
    30
100
AcDbPoint
 10
48.524469
 20
6.345979
 30
0.0
  0
POINT
  5
404
330
567
100
AcDbEntity
  8
HATCH
  6
Continuous
 62
     7
370
    30
100
AcDbPoint
 10
48.555719
 20
6.345979
 30
0.0
  0
POINT
  5
405
330
567
100
AcDbEntity
  8
HATCH
  6
Continuous
 62
     7
370
    30
100
AcDbPoint
 10
48.586969
 20
6.345979
 30
0.0
  0
POINT
  5
406
330
567
100
AcDbEntity
  8
HATCH
  6
Continuous
 62
     7
370
    30
100
AcDbPoint
 10
48.618219
 20
6.345979
 30
0.0
  0
POINT
  5
407
330
567
100
AcDbEntity
  8
HATCH
  6
Continuous
 62
     7
370
    30
100
AcDbPoint
 10
48.649469
 20
6.345979
 30
0.0
  0
POINT
  5
408
330
567
100
AcDbEntity
  8
HATCH
  6
Continuous
 62
     7
370
    30
100
AcDbPoint
 10
48.680719
 20
6.345979
 30
0.0
  0
POINT
  5
409
330
567
100
AcDbEntity
  8
HATCH
  6
Continuous
 62
     7
370
    30
100
AcDbPoint
 10
48.711969
 20
6.345979
 30
0.0
  0
POINT
  5
40A
330
567
100
AcDbEntity
  8
HATCH
  6
Continuous
 62
     7
370
    30
100
AcDbPoint
 10
48.743219
 20
6.345979
 30
0.0
  0
POINT
  5
40B
330
567
100
AcDbEntity
  8
HATCH
  6
Continuous
 62
     7
370
    30
100
AcDbPoint
 10
48.774469
 20
6.345979
 30
0.0
  0
POINT
  5
40C
330
567
100
AcDbEntity
  8
HATCH
  6
Continuous
 62
     7
370
    30
100
AcDbPoint
 10
48.805719
 20
6.345979
 30
0.0
  0
POINT
  5
40D
330
567
100
AcDbEntity
  8
HATCH
  6
Continuous
 62
     7
370
    30
100
AcDbPoint
 10
48.836969
 20
6.345979
 30
0.0
  0
POINT
  5
40E
330
567
100
AcDbEntity
  8
HATCH
  6
Continuous
 62
     7
370
    30
100
AcDbPoint
 10
48.868219
 20
6.345979
 30
0.0
  0
POINT
  5
40F
330
567
100
AcDbEntity
  8
HATCH
  6
Continuous
 62
     7
370
    30
100
AcDbPoint
 10
48.899469
 20
6.345979
 30
0.0
  0
POINT
  5
410
330
567
100
AcDbEntity
  8
HATCH
  6
Continuous
 62
     7
370
    30
100
AcDbPoint
 10
48.930719
 20
6.345979
 30
0.0
  0
POINT
  5
411
330
567
100
AcDbEntity
  8
HATCH
  6
Continuous
 62
     7
370
    30
100
AcDbPoint
 10
48.961969
 20
6.345979
 30
0.0
  0
POINT
  5
412
330
567
100
AcDbEntity
  8
HATCH
  6
Continuous
 62
     7
370
    30
100
AcDbPoint
 10
48.993219
 20
6.345979
 30
0.0
  0
POINT
  5
413
330
567
100
AcDbEntity
  8
HATCH
  6
Continuous
 62
     7
370
    30
100
AcDbPoint
 10
49.024469
 20
6.345979
 30
0.0
  0
POINT
  5
414
330
567
100
AcDbEntity
  8
HATCH
  6
Continuous
 62
     7
370
    30
100
AcDbPoint
 10
49.055719
 20
6.345979
 30
0.0
  0
POINT
  5
415
330
567
100
AcDbEntity
  8
HATCH
  6
Continuous
 62
     7
370
    30
100
AcDbPoint
 10
49.086969
 20
6.345979
 30
0.0
  0
POINT
  5
416
330
567
100
AcDbEntity
  8
HATCH
  6
Continuous
 62
     7
370
    30
100
AcDbPoint
 10
49.118219
 20
6.345979
 30
0.0
  0
POINT
  5
417
330
567
100
AcDbEntity
  8
HATCH
  6
Continuous
 62
     7
370
    30
100
AcDbPoint
 10
49.149469
 20
6.345979
 30
0.0
  0
POINT
  5
418
330
567
100
AcDbEntity
  8
HATCH
  6
Continuous
 62
     7
370
    30
100
AcDbPoint
 10
49.180719
 20
6.345979
 30
0.0
  0
POINT
  5
419
330
567
100
AcDbEntity
  8
HATCH
  6
Continuous
 62
     7
370
    30
100
AcDbPoint
 10
49.211969
 20
6.345979
 30
0.0
  0
POINT
  5
41A
330
567
100
AcDbEntity
  8
HATCH
  6
Continuous
 62
     7
370
    30
100
AcDbPoint
 10
49.243219
 20
6.345979
 30
0.0
  0
POINT
  5
41B
330
567
100
AcDbEntity
  8
HATCH
  6
Continuous
 62
     7
370
    30
100
AcDbPoint
 10
49.274469
 20
6.345979
 30
0.0
  0
POINT
  5
41C
330
567
100
AcDbEntity
  8
HATCH
  6
Continuous
 62
     7
370
    30
100
AcDbPoint
 10
49.305719
 20
6.345979
 30
0.0
  0
POINT
  5
41D
330
567
100
AcDbEntity
  8
HATCH
  6
Continuous
 62
     7
370
    30
100
AcDbPoint
 10
49.336969
 20
6.345979
 30
0.0
  0
POINT
  5
41E
330
567
100
AcDbEntity
  8
HATCH
  6
Continuous
 62
     7
370
    30
100
AcDbPoint
 10
49.368219
 20
6.345979
 30
0.0
  0
POINT
  5
41F
330
567
100
AcDbEntity
  8
HATCH
  6
Continuous
 62
     7
370
    30
100
AcDbPoint
 10
49.399469
 20
6.345979
 30
0.0
  0
POINT
  5
420
330
567
100
AcDbEntity
  8
HATCH
  6
Continuous
 62
     7
370
    30
100
AcDbPoint
 10
49.430719
 20
6.345979
 30
0.0
  0
POINT
  5
421
330
567
100
AcDbEntity
  8
HATCH
  6
Continuous
 62
     7
370
    30
100
AcDbPoint
 10
49.461969
 20
6.345979
 30
0.0
  0
POINT
  5
422
330
567
100
AcDbEntity
  8
HATCH
  6
Continuous
 62
     7
370
    30
100
AcDbPoint
 10
49.493219
 20
6.345979
 30
0.0
  0
POINT
  5
423
330
567
100
AcDbEntity
  8
HATCH
  6
Continuous
 62
     7
370
    30
100
AcDbPoint
 10
49.524469
 20
6.345979
 30
0.0
  0
POINT
  5
424
330
567
100
AcDbEntity
  8
HATCH
  6
Continuous
 62
     7
370
    30
100
AcDbPoint
 10
49.555719
 20
6.345979
 30
0.0
  0
POINT
  5
425
330
567
100
AcDbEntity
  8
HATCH
  6
Continuous
 62
     7
370
    30
100
AcDbPoint
 10
49.586969
 20
6.345979
 30
0.0
  0
POINT
  5
426
330
567
100
AcDbEntity
  8
HATCH
  6
Continuous
 62
     7
370
    30
100
AcDbPoint
 10
49.618219
 20
6.345979
 30
0.0
  0
POINT
  5
427
330
567
100
AcDbEntity
  8
HATCH
  6
Continuous
 62
     7
370
    30
100
AcDbPoint
 10
49.649469
 20
6.345979
 30
0.0
  0
POINT
  5
428
330
567
100
AcDbEntity
  8
HATCH
  6
Continuous
 62
     7
370
    30
100
AcDbPoint
 10
49.680719
 20
6.345979
 30
0.0
  0
POINT
  5
429
330
567
100
AcDbEntity
  8
HATCH
  6
Continuous
 62
     7
370
    30
100
AcDbPoint
 10
49.711969
 20
6.345979
 30
0.0
  0
POINT
  5
42A
330
567
100
AcDbEntity
  8
HATCH
  6
Continuous
 62
     7
370
    30
100
AcDbPoint
 10
49.743219
 20
6.345979
 30
0.0
  0
POINT
  5
42B
330
567
100
AcDbEntity
  8
HATCH
  6
Continuous
 62
     7
370
    30
100
AcDbPoint
 10
49.774469
 20
6.345979
 30
0.0
  0
POINT
  5
42C
330
567
100
AcDbEntity
  8
HATCH
  6
Continuous
 62
     7
370
    30
100
AcDbPoint
 10
49.805719
 20
6.345979
 30
0.0
  0
POINT
  5
42D
330
567
100
AcDbEntity
  8
HATCH
  6
Continuous
 62
     7
370
    30
100
AcDbPoint
 10
49.836969
 20
6.345979
 30
0.0
  0
POINT
  5
42E
330
567
100
AcDbEntity
  8
HATCH
  6
Continuous
 62
     7
370
    30
100
AcDbPoint
 10
49.868219
 20
6.345979
 30
0.0
  0
POINT
  5
42F
330
567
100
AcDbEntity
  8
HATCH
  6
Continuous
 62
     7
370
    30
100
AcDbPoint
 10
49.899469
 20
6.345979
 30
0.0
  0
POINT
  5
430
330
567
100
AcDbEntity
  8
HATCH
  6
Continuous
 62
     7
370
    30
100
AcDbPoint
 10
49.930719
 20
6.345979
 30
0.0
  0
POINT
  5
431
330
567
100
AcDbEntity
  8
HATCH
  6
Continuous
 62
     7
370
    30
100
AcDbPoint
 10
49.961969
 20
6.345979
 30
0.0
  0
POINT
  5
432
330
567
100
AcDbEntity
  8
HATCH
  6
Continuous
 62
     7
370
    30
100
AcDbPoint
 10
49.993219
 20
6.345979
 30
0.0
  0
POINT
  5
433
330
567
100
AcDbEntity
  8
HATCH
  6
Continuous
 62
     7
370
    30
100
AcDbPoint
 10
50.024469
 20
6.345979
 30
0.0
  0
POINT
  5
434
330
567
100
AcDbEntity
  8
HATCH
  6
Continuous
 62
     7
370
    30
100
AcDbPoint
 10
47.258844
 20
6.314729
 30
0.0
  0
POINT
  5
435
330
567
100
AcDbEntity
  8
HATCH
  6
Continuous
 62
     7
370
    30
100
AcDbPoint
 10
47.290094
 20
6.314729
 30
0.0
  0
POINT
  5
436
330
567
100
AcDbEntity
  8
HATCH
  6
Continuous
 62
     7
370
    30
100
AcDbPoint
 10
47.321344
 20
6.314729
 30
0.0
  0
POINT
  5
437
330
567
100
AcDbEntity
  8
HATCH
  6
Continuous
 62
     7
370
    30
100
AcDbPoint
 10
47.352594
 20
6.314729
 30
0.0
  0
POINT
  5
438
330
567
100
AcDbEntity
  8
HATCH
  6
Continuous
 62
     7
370
    30
100
AcDbPoint
 10
47.383844
 20
6.314729
 30
0.0
  0
POINT
  5
439
330
567
100
AcDbEntity
  8
HATCH
  6
Continuous
 62
     7
370
    30
100
AcDbPoint
 10
47.415094
 20
6.314729
 30
0.0
  0
POINT
  5
43A
330
567
100
AcDbEntity
  8
HATCH
  6
Continuous
 62
     7
370
    30
100
AcDbPoint
 10
47.446344
 20
6.314729
 30
0.0
  0
POINT
  5
43B
330
567
100
AcDbEntity
  8
HATCH
  6
Continuous
 62
     7
370
    30
100
AcDbPoint
 10
47.477594
 20
6.314729
 30
0.0
  0
POINT
  5
43C
330
567
100
AcDbEntity
  8
HATCH
  6
Continuous
 62
     7
370
    30
100
AcDbPoint
 10
47.508844
 20
6.314729
 30
0.0
  0
POINT
  5
43D
330
567
100
AcDbEntity
  8
HATCH
  6
Continuous
 62
     7
370
    30
100
AcDbPoint
 10
47.540094
 20
6.314729
 30
0.0
  0
POINT
  5
43E
330
567
100
AcDbEntity
  8
HATCH
  6
Continuous
 62
     7
370
    30
100
AcDbPoint
 10
47.571344
 20
6.314729
 30
0.0
  0
POINT
  5
43F
330
567
100
AcDbEntity
  8
HATCH
  6
Continuous
 62
     7
370
    30
100
AcDbPoint
 10
47.602594
 20
6.314729
 30
0.0
  0
POINT
  5
440
330
567
100
AcDbEntity
  8
HATCH
  6
Continuous
 62
     7
370
    30
100
AcDbPoint
 10
47.633844
 20
6.314729
 30
0.0
  0
POINT
  5
441
330
567
100
AcDbEntity
  8
HATCH
  6
Continuous
 62
     7
370
    30
100
AcDbPoint
 10
47.665094
 20
6.314729
 30
0.0
  0
POINT
  5
442
330
567
100
AcDbEntity
  8
HATCH
  6
Continuous
 62
     7
370
    30
100
AcDbPoint
 10
47.696344
 20
6.314729
 30
0.0
  0
POINT
  5
443
330
567
100
AcDbEntity
  8
HATCH
  6
Continuous
 62
     7
370
    30
100
AcDbPoint
 10
47.727594
 20
6.314729
 30
0.0
  0
POINT
  5
444
330
567
100
AcDbEntity
  8
HATCH
  6
Continuous
 62
     7
370
    30
100
AcDbPoint
 10
47.758844
 20
6.314729
 30
0.0
  0
POINT
  5
445
330
567
100
AcDbEntity
  8
HATCH
  6
Continuous
 62
     7
370
    30
100
AcDbPoint
 10
47.790094
 20
6.314729
 30
0.0
  0
POINT
  5
446
330
567
100
AcDbEntity
  8
HATCH
  6
Continuous
 62
     7
370
    30
100
AcDbPoint
 10
47.821344
 20
6.314729
 30
0.0
  0
POINT
  5
447
330
567
100
AcDbEntity
  8
HATCH
  6
Continuous
 62
     7
370
    30
100
AcDbPoint
 10
47.852594
 20
6.314729
 30
0.0
  0
POINT
  5
448
330
567
100
AcDbEntity
  8
HATCH
  6
Continuous
 62
     7
370
    30
100
AcDbPoint
 10
47.883844
 20
6.314729
 30
0.0
  0
POINT
  5
449
330
567
100
AcDbEntity
  8
HATCH
  6
Continuous
 62
     7
370
    30
100
AcDbPoint
 10
47.915094
 20
6.314729
 30
0.0
  0
POINT
  5
44A
330
567
100
AcDbEntity
  8
HATCH
  6
Continuous
 62
     7
370
    30
100
AcDbPoint
 10
47.946344
 20
6.314729
 30
0.0
  0
POINT
  5
44B
330
567
100
AcDbEntity
  8
HATCH
  6
Continuous
 62
     7
370
    30
100
AcDbPoint
 10
47.977594
 20
6.314729
 30
0.0
  0
POINT
  5
44C
330
567
100
AcDbEntity
  8
HATCH
  6
Continuous
 62
     7
370
    30
100
AcDbPoint
 10
48.008844
 20
6.314729
 30
0.0
  0
POINT
  5
44D
330
567
100
AcDbEntity
  8
HATCH
  6
Continuous
 62
     7
370
    30
100
AcDbPoint
 10
48.040094
 20
6.314729
 30
0.0
  0
POINT
  5
44E
330
567
100
AcDbEntity
  8
HATCH
  6
Continuous
 62
     7
370
    30
100
AcDbPoint
 10
48.071344
 20
6.314729
 30
0.0
  0
POINT
  5
44F
330
567
100
AcDbEntity
  8
HATCH
  6
Continuous
 62
     7
370
    30
100
AcDbPoint
 10
48.102594
 20
6.314729
 30
0.0
  0
POINT
  5
450
330
567
100
AcDbEntity
  8
HATCH
  6
Continuous
 62
     7
370
    30
100
AcDbPoint
 10
48.133844
 20
6.314729
 30
0.0
  0
POINT
  5
451
330
567
100
AcDbEntity
  8
HATCH
  6
Continuous
 62
     7
370
    30
100
AcDbPoint
 10
48.165094
 20
6.314729
 30
0.0
  0
POINT
  5
452
330
567
100
AcDbEntity
  8
HATCH
  6
Continuous
 62
     7
370
    30
100
AcDbPoint
 10
48.196344
 20
6.314729
 30
0.0
  0
POINT
  5
453
330
567
100
AcDbEntity
  8
HATCH
  6
Continuous
 62
     7
370
    30
100
AcDbPoint
 10
48.227594
 20
6.314729
 30
0.0
  0
POINT
  5
454
330
567
100
AcDbEntity
  8
HATCH
  6
Continuous
 62
     7
370
    30
100
AcDbPoint
 10
48.258844
 20
6.314729
 30
0.0
  0
POINT
  5
455
330
567
100
AcDbEntity
  8
HATCH
  6
Continuous
 62
     7
370
    30
100
AcDbPoint
 10
48.290094
 20
6.314729
 30
0.0
  0
POINT
  5
456
330
567
100
AcDbEntity
  8
HATCH
  6
Continuous
 62
     7
370
    30
100
AcDbPoint
 10
48.321344
 20
6.314729
 30
0.0
  0
POINT
  5
457
330
567
100
AcDbEntity
  8
HATCH
  6
Continuous
 62
     7
370
    30
100
AcDbPoint
 10
48.352594
 20
6.314729
 30
0.0
  0
POINT
  5
458
330
567
100
AcDbEntity
  8
HATCH
  6
Continuous
 62
     7
370
    30
100
AcDbPoint
 10
48.383844
 20
6.314729
 30
0.0
  0
POINT
  5
459
330
567
100
AcDbEntity
  8
HATCH
  6
Continuous
 62
     7
370
    30
100
AcDbPoint
 10
48.415094
 20
6.314729
 30
0.0
  0
POINT
  5
45A
330
567
100
AcDbEntity
  8
HATCH
  6
Continuous
 62
     7
370
    30
100
AcDbPoint
 10
48.446344
 20
6.314729
 30
0.0
  0
POINT
  5
45B
330
567
100
AcDbEntity
  8
HATCH
  6
Continuous
 62
     7
370
    30
100
AcDbPoint
 10
48.477594
 20
6.314729
 30
0.0
  0
POINT
  5
45C
330
567
100
AcDbEntity
  8
HATCH
  6
Continuous
 62
     7
370
    30
100
AcDbPoint
 10
48.508844
 20
6.314729
 30
0.0
  0
POINT
  5
45D
330
567
100
AcDbEntity
  8
HATCH
  6
Continuous
 62
     7
370
    30
100
AcDbPoint
 10
48.540094
 20
6.314729
 30
0.0
  0
POINT
  5
45E
330
567
100
AcDbEntity
  8
HATCH
  6
Continuous
 62
     7
370
    30
100
AcDbPoint
 10
48.571344
 20
6.314729
 30
0.0
  0
POINT
  5
45F
330
567
100
AcDbEntity
  8
HATCH
  6
Continuous
 62
     7
370
    30
100
AcDbPoint
 10
48.602594
 20
6.314729
 30
0.0
  0
POINT
  5
460
330
567
100
AcDbEntity
  8
HATCH
  6
Continuous
 62
     7
370
    30
100
AcDbPoint
 10
48.633844
 20
6.314729
 30
0.0
  0
POINT
  5
461
330
567
100
AcDbEntity
  8
HATCH
  6
Continuous
 62
     7
370
    30
100
AcDbPoint
 10
48.665094
 20
6.314729
 30
0.0
  0
POINT
  5
462
330
567
100
AcDbEntity
  8
HATCH
  6
Continuous
 62
     7
370
    30
100
AcDbPoint
 10
48.696344
 20
6.314729
 30
0.0
  0
POINT
  5
463
330
567
100
AcDbEntity
  8
HATCH
  6
Continuous
 62
     7
370
    30
100
AcDbPoint
 10
48.727594
 20
6.314729
 30
0.0
  0
POINT
  5
464
330
567
100
AcDbEntity
  8
HATCH
  6
Continuous
 62
     7
370
    30
100
AcDbPoint
 10
48.758844
 20
6.314729
 30
0.0
  0
POINT
  5
465
330
567
100
AcDbEntity
  8
HATCH
  6
Continuous
 62
     7
370
    30
100
AcDbPoint
 10
48.790094
 20
6.314729
 30
0.0
  0
POINT
  5
466
330
567
100
AcDbEntity
  8
HATCH
  6
Continuous
 62
     7
370
    30
100
AcDbPoint
 10
48.821344
 20
6.314729
 30
0.0
  0
POINT
  5
467
330
567
100
AcDbEntity
  8
HATCH
  6
Continuous
 62
     7
370
    30
100
AcDbPoint
 10
48.852594
 20
6.314729
 30
0.0
  0
POINT
  5
468
330
567
100
AcDbEntity
  8
HATCH
  6
Continuous
 62
     7
370
    30
100
AcDbPoint
 10
48.883844
 20
6.314729
 30
0.0
  0
POINT
  5
469
330
567
100
AcDbEntity
  8
HATCH
  6
Continuous
 62
     7
370
    30
100
AcDbPoint
 10
48.915094
 20
6.314729
 30
0.0
  0
POINT
  5
46A
330
567
100
AcDbEntity
  8
HATCH
  6
Continuous
 62
     7
370
    30
100
AcDbPoint
 10
48.946344
 20
6.314729
 30
0.0
  0
POINT
  5
46B
330
567
100
AcDbEntity
  8
HATCH
  6
Continuous
 62
     7
370
    30
100
AcDbPoint
 10
48.977594
 20
6.314729
 30
0.0
  0
POINT
  5
46C
330
567
100
AcDbEntity
  8
HATCH
  6
Continuous
 62
     7
370
    30
100
AcDbPoint
 10
49.008844
 20
6.314729
 30
0.0
  0
POINT
  5
46D
330
567
100
AcDbEntity
  8
HATCH
  6
Continuous
 62
     7
370
    30
100
AcDbPoint
 10
49.040094
 20
6.314729
 30
0.0
  0
POINT
  5
46E
330
567
100
AcDbEntity
  8
HATCH
  6
Continuous
 62
     7
370
    30
100
AcDbPoint
 10
49.071344
 20
6.314729
 30
0.0
  0
POINT
  5
46F
330
567
100
AcDbEntity
  8
HATCH
  6
Continuous
 62
     7
370
    30
100
AcDbPoint
 10
49.102594
 20
6.314729
 30
0.0
  0
POINT
  5
470
330
567
100
AcDbEntity
  8
HATCH
  6
Continuous
 62
     7
370
    30
100
AcDbPoint
 10
49.133844
 20
6.314729
 30
0.0
  0
POINT
  5
471
330
567
100
AcDbEntity
  8
HATCH
  6
Continuous
 62
     7
370
    30
100
AcDbPoint
 10
49.165094
 20
6.314729
 30
0.0
  0
POINT
  5
472
330
567
100
AcDbEntity
  8
HATCH
  6
Continuous
 62
     7
370
    30
100
AcDbPoint
 10
49.196344
 20
6.314729
 30
0.0
  0
POINT
  5
473
330
567
100
AcDbEntity
  8
HATCH
  6
Continuous
 62
     7
370
    30
100
AcDbPoint
 10
49.227594
 20
6.314729
 30
0.0
  0
POINT
  5
474
330
567
100
AcDbEntity
  8
HATCH
  6
Continuous
 62
     7
370
    30
100
AcDbPoint
 10
49.258844
 20
6.314729
 30
0.0
  0
POINT
  5
475
330
567
100
AcDbEntity
  8
HATCH
  6
Continuous
 62
     7
370
    30
100
AcDbPoint
 10
49.290094
 20
6.314729
 30
0.0
  0
POINT
  5
476
330
567
100
AcDbEntity
  8
HATCH
  6
Continuous
 62
     7
370
    30
100
AcDbPoint
 10
49.321344
 20
6.314729
 30
0.0
  0
POINT
  5
477
330
567
100
AcDbEntity
  8
HATCH
  6
Continuous
 62
     7
370
    30
100
AcDbPoint
 10
49.352594
 20
6.314729
 30
0.0
  0
POINT
  5
478
330
567
100
AcDbEntity
  8
HATCH
  6
Continuous
 62
     7
370
    30
100
AcDbPoint
 10
49.383844
 20
6.314729
 30
0.0
  0
POINT
  5
479
330
567
100
AcDbEntity
  8
HATCH
  6
Continuous
 62
     7
370
    30
100
AcDbPoint
 10
49.415094
 20
6.314729
 30
0.0
  0
POINT
  5
47A
330
567
100
AcDbEntity
  8
HATCH
  6
Continuous
 62
     7
370
    30
100
AcDbPoint
 10
49.446344
 20
6.314729
 30
0.0
  0
POINT
  5
47B
330
567
100
AcDbEntity
  8
HATCH
  6
Continuous
 62
     7
370
    30
100
AcDbPoint
 10
49.477594
 20
6.314729
 30
0.0
  0
POINT
  5
47C
330
567
100
AcDbEntity
  8
HATCH
  6
Continuous
 62
     7
370
    30
100
AcDbPoint
 10
49.508844
 20
6.314729
 30
0.0
  0
POINT
  5
47D
330
567
100
AcDbEntity
  8
HATCH
  6
Continuous
 62
     7
370
    30
100
AcDbPoint
 10
49.540094
 20
6.314729
 30
0.0
  0
POINT
  5
47E
330
567
100
AcDbEntity
  8
HATCH
  6
Continuous
 62
     7
370
    30
100
AcDbPoint
 10
49.571344
 20
6.314729
 30
0.0
  0
POINT
  5
47F
330
567
100
AcDbEntity
  8
HATCH
  6
Continuous
 62
     7
370
    30
100
AcDbPoint
 10
49.602594
 20
6.314729
 30
0.0
  0
POINT
  5
480
330
567
100
AcDbEntity
  8
HATCH
  6
Continuous
 62
     7
370
    30
100
AcDbPoint
 10
49.633844
 20
6.314729
 30
0.0
  0
POINT
  5
481
330
567
100
AcDbEntity
  8
HATCH
  6
Continuous
 62
     7
370
    30
100
AcDbPoint
 10
49.665094
 20
6.314729
 30
0.0
  0
POINT
  5
482
330
567
100
AcDbEntity
  8
HATCH
  6
Continuous
 62
     7
370
    30
100
AcDbPoint
 10
49.696344
 20
6.314729
 30
0.0
  0
POINT
  5
483
330
567
100
AcDbEntity
  8
HATCH
  6
Continuous
 62
     7
370
    30
100
AcDbPoint
 10
49.727594
 20
6.314729
 30
0.0
  0
POINT
  5
484
330
567
100
AcDbEntity
  8
HATCH
  6
Continuous
 62
     7
370
    30
100
AcDbPoint
 10
49.758844
 20
6.314729
 30
0.0
  0
POINT
  5
485
330
567
100
AcDbEntity
  8
HATCH
  6
Continuous
 62
     7
370
    30
100
AcDbPoint
 10
49.790094
 20
6.314729
 30
0.0
  0
POINT
  5
486
330
567
100
AcDbEntity
  8
HATCH
  6
Continuous
 62
     7
370
    30
100
AcDbPoint
 10
49.821344
 20
6.314729
 30
0.0
  0
POINT
  5
487
330
567
100
AcDbEntity
  8
HATCH
  6
Continuous
 62
     7
370
    30
100
AcDbPoint
 10
49.852594
 20
6.314729
 30
0.0
  0
POINT
  5
488
330
567
100
AcDbEntity
  8
HATCH
  6
Continuous
 62
     7
370
    30
100
AcDbPoint
 10
49.883844
 20
6.314729
 30
0.0
  0
POINT
  5
489
330
567
100
AcDbEntity
  8
HATCH
  6
Continuous
 62
     7
370
    30
100
AcDbPoint
 10
49.915094
 20
6.314729
 30
0.0
  0
POINT
  5
48A
330
567
100
AcDbEntity
  8
HATCH
  6
Continuous
 62
     7
370
    30
100
AcDbPoint
 10
49.946344
 20
6.314729
 30
0.0
  0
POINT
  5
48B
330
567
100
AcDbEntity
  8
HATCH
  6
Continuous
 62
     7
370
    30
100
AcDbPoint
 10
49.977594
 20
6.314729
 30
0.0
  0
POINT
  5
48C
330
567
100
AcDbEntity
  8
HATCH
  6
Continuous
 62
     7
370
    30
100
AcDbPoint
 10
50.008844
 20
6.314729
 30
0.0
  0
POINT
  5
48D
330
567
100
AcDbEntity
  8
HATCH
  6
Continuous
 62
     7
370
    30
100
AcDbPoint
 10
50.040094
 20
6.314729
 30
0.0
  0
LINE
  5
48F
330
567
100
AcDbEntity
  8
DEFPOINTS
  6
Continuous
 62
     7
370
    30
100
AcDbLine
 10
46.604125
 20
8.038958
 30
0.0
 11
46.604125
 21
8.038958
 31
0.0
  0
LINE
  5
490
330
567
100
AcDbEntity
  8
DEFPOINTS
  6
Continuous
 62
     7
370
    30
100
AcDbLine
 10
46.604125
 20
9.038958
 30
0.0
 11
46.604125
 21
9.038958
 31
0.0
  0
LINE
  5
491
330
567
100
AcDbEntity
  8
DIM
  6
Continuous
 62
     7
370
    13
100
AcDbLine
 10
48.79001
 20
8.047437
 30
0.0
 11
48.79001
 21
8.437917
 31
0.0
  0
LINE
  5
492
330
567
100
AcDbEntity
  8
DIM
  6
Continuous
 62
     7
370
    13
100
AcDbLine
 10
48.79001
 20
7.86725
 30
0.0
 11
48.79001
 21
7.488396
 31
0.0
  0
LINE
  5
493
330
567
100
AcDbEntity
  8
DIM
  6
Continuous
 62
     7
370
    13
100
AcDbLine
 10
48.79001
 20
7.488396
 30
0.0
 11
48.59001
 21
7.488396
 31
0.0
  0
LINE
  5
494
330
567
100
AcDbEntity
  8
DEFPOINTS
  6
Continuous
 62
     7
370
    30
100
AcDbLine
 10
48.73749
 20
8.037917
 30
0.0
 11
48.73749
 21
8.037917
 31
0.0
  0
LINE
  5
495
330
567
100
AcDbEntity
  8
DEFPOINTS
  6
Continuous
 62
     7
370
    30
100
AcDbLine
 10
48.748927
 20
7.888396
 30
0.0
 11
48.748927
 21
7.888396
 31
0.0
  0
LINE
  5
496
330
567
100
AcDbEntity
  8
DEFPOINTS
  6
Continuous
 62
     7
370
    30
100
AcDbLine
 10
48.79001
 20
7.888396
 30
0.0
 11
48.79001
 21
7.888396
 31
0.0
  0
LINE
  5
497
330
567
100
AcDbEntity
  8
DEFPOINTS
  6
Continuous
 62
     7
370
    30
100
AcDbLine
 10
49.904125
 20
8.038958
 30
0.0
 11
49.904125
 21
8.038958
 31
0.0
  0
LINE
  5
498
330
567
100
AcDbEntity
  8
DEFPOINTS
  6
Continuous
 62
     7
370
    30
100
AcDbLine
 10
50.77
 20
7.888958
 30
0.0
 11
50.77
 21
7.888958
 31
0.0
  0
LINE
  5
499
330
567
100
AcDbEntity
  8
DIM
  6
Continuous
 62
     7
370
    13
100
AcDbLine
 10
45.704125
 20
9.321781
 30
0.0
 11
50.804125
 21
9.321781
 31
0.0
  0
LINE
  5
49A
330
567
100
AcDbEntity
  8
DIM
  6
Continuous
 62
     7
370
    13
100
AcDbLine
 10
49.035073
 20
6.766302
 30
0.0
 11
49.761281
 21
6.766302
 31
0.0
  0
LINE
  5
49B
330
567
100
AcDbEntity
  8
DIM
  6
Continuous
 62
     7
370
    13
100
AcDbLine
 10
48.431677
 20
6.53274
 30
0.0
 11
48.431677
 21
6.135833
 31
0.0
  0
LINE
  5
49C
330
567
100
AcDbEntity
  8
DIM
  6
Continuous
 62
     7
370
    13
100
AcDbLine
 10
48.431677
 20
6.684771
 30
0.0
 11
48.431677
 21
7.085062
 31
0.0
  0
LINE
  5
49D
330
567
100
AcDbEntity
  8
DIM
  6
Continuous
 62
     7
370
    13
100
AcDbLine
 10
48.431677
 20
7.085062
 30
0.0
 11
48.631677
 21
7.085062
 31
0.0
  0
LINE
  5
49E
330
567
100
AcDbEntity
  8
DEFPOINTS
  6
Continuous
 62
     7
370
    30
100
AcDbLine
 10
48.396344
 20
6.535833
 30
0.0
 11
48.396344
 21
6.535833
 31
0.0
  0
LINE
  5
49F
330
567
100
AcDbEntity
  8
DEFPOINTS
  6
Continuous
 62
     7
370
    30
100
AcDbLine
 10
48.419156
 20
6.685062
 30
0.0
 11
48.419156
 21
6.685062
 31
0.0
  0
LINE
  5
4A0
330
567
100
AcDbEntity
  8
DEFPOINTS
  6
Continuous
 62
     7
370
    30
100
AcDbLine
 10
48.431677
 20
6.685062
 30
0.0
 11
48.431677
 21
6.685062
 31
0.0
  0
LINE
  5
4A1
330
567
100
AcDbEntity
  8
DIM
  6
Continuous
 62
     7
370
    13
100
AcDbLine
 10
47.53199
 20
6.776042
 30
0.0
 11
48.269458
 21
6.776042
 31
0.0
  0
LINE
  5
4A2
330
567
100
AcDbEntity
  8
DIM
  6
Continuous
 62
     7
370
    13
100
AcDbLine
 10
47.599552
 20
6.454427
 30
0.0
 11
47.996344
 21
6.454427
 31
0.0
  0
LINE
  5
4A3
330
567
100
AcDbEntity
  8
DIM
  6
Continuous
 62
     7
370
    13
100
AcDbLine
 10
47.447552
 20
6.454427
 30
0.0
 11
47.046344
 21
6.454427
 31
0.0
  0
LINE
  5
4A4
330
567
100
AcDbEntity
  8
DEFPOINTS
  6
Continuous
 62
     7
370
    30
100
AcDbLine
 10
47.596344
 20
6.485833
 30
0.0
 11
47.596344
 21
6.485833
 31
0.0
  0
LINE
  5
4A5
330
567
100
AcDbEntity
  8
DEFPOINTS
  6
Continuous
 62
     7
370
    30
100
AcDbLine
 10
47.446344
 20
6.485833
 30
0.0
 11
47.446344
 21
6.485833
 31
0.0
  0
LINE
  5
4A6
330
567
100
AcDbEntity
  8
DEFPOINTS
  6
Continuous
 62
     7
370
    30
100
AcDbLine
 10
47.446344
 20
6.454427
 30
0.0
 11
47.446344
 21
6.454427
 31
0.0
  0
LINE
  5
4A7
330
567
100
AcDbEntity
  8
_0
  6
Continuous
 62
     7
370
    13
100
AcDbLine
 10
44.25
 20
0.125
 30
0.0
 11
44.043458
 21
0.125
 31
0.0
  0
LINE
  5
4A8
330
567
100
AcDbEntity
  8
_0
  6
Continuous
 62
     7
370
    13
100
AcDbLine
 10
44.25
 20
0.125
 30
0.0
 11
44.25
 21
-0.081542
 31
0.0
  0
LINE
  5
4A9
330
567
100
AcDbEntity
  8
_0
  6
Continuous
 62
     7
370
    13
100
AcDbLine
 10
52.25
 20
0.125
 30
0.0
 11
52.25
 21
-0.081542
 31
0.0
  0
LINE
  5
4AA
330
567
100
AcDbEntity
  8
_0
  6
Continuous
 62
     7
370
    13
100
AcDbLine
 10
44.25
 20
10.875
 30
0.0
 11
44.043458
 21
10.875
 31
0.0
  0
LINE
  5
4AB
330
567
100
AcDbEntity
  8
_0
  6
Continuous
 62
     7
370
    13
100
AcDbLine
 10
52.456542
 20
0.125
 30
0.0
 11
52.25
 21
0.125
 31
0.0
  0
LINE
  5
4AC
330
567
100
AcDbEntity
  8
_0
  6
Continuous
 62
     7
370
    13
100
AcDbLine
 10
52.456542
 20
10.875
 30
0.0
 11
52.25
 21
10.875
 31
0.0
  0
LINE
  5
4AD
330
567
100
AcDbEntity
  8
_0
  6
Continuous
 62
     7
370
    13
100
AcDbLine
 10
44.25
 20
11.081542
 30
0.0
 11
44.25
 21
10.875
 31
0.0
  0
LINE
  5
4AE
330
567
100
AcDbEntity
  8
_0
  6
Continuous
 62
     7
370
    13
100
AcDbLine
 10
52.25
 20
11.081542
 30
0.0
 11
52.25
 21
10.875
 31
0.0
  0
LINE
  5
4AF
330
567
100
AcDbEntity
  8
DIM
  6
Continuous
 62
     7
370
    30
100
AcDbLine
 10
47.446947
 20
5.797615
 30
0.0
 11
49.578524
 21
5.797615
 31
0.0
  0
INSERT
  5
4B0
330
567
100
AcDbEntity
  8
DIM
  6
Continuous
 62
     7
370
    13
100
AcDbBlockReference
  2
LARROW
 10
45.704125
 20
9.321781
 30
0.0
 41
12.0
 42
12.0
 43
12.0
 50
180.0
  0
INSERT
  5
4B2
330
567
100
AcDbEntity
  8
DIM
  6
Continuous
 62
     7
370
    13
100
AcDbBlockReference
  2
LARROW
 10
50.804125
 20
9.321781
 30
0.0
 41
12.0
 42
12.0
 43
12.0
  0
INSERT
  5
4B4
330
567
100
AcDbEntity
  8
DIM
  6
Continuous
 62
     7
370
    13
100
AcDbBlockReference
  2
LARROW
 10
48.79001
 20
8.047437
 30
0.0
 41
12.0
 42
12.0
 43
12.0
 50
270.0
  0
INSERT
  5
4B6
330
567
100
AcDbEntity
  8
DIM
  6
Continuous
 62
     7
370
    13
100
AcDbBlockReference
  2
LARROW
 10
48.79001
 20
7.86725
 30
0.0
 41
12.0
 42
12.0
 43
12.0
 50
90.0
  0
INSERT
  5
4B8
330
567
100
AcDbEntity
  8
DIM
  6
Continuous
 62
     7
370
    13
100
AcDbBlockReference
  2
LARROW
 10
47.447552
 20
6.454427
 30
0.0
 41
12.0
 42
12.0
 43
12.0
  0
INSERT
  5
4BA
330
567
100
AcDbEntity
  8
DIM
  6
Continuous
 62
     7
370
    13
100
AcDbBlockReference
  2
LARROW
 10
47.599552
 20
6.454427
 30
0.0
 41
12.0
 42
12.0
 43
12.0
 50
180.0
  0
INSERT
  5
4BC
330
567
100
AcDbEntity
  8
DIM
  6
Continuous
 62
     7
370
    13
100
AcDbBlockReference
  2
LARROW
 10
47.53199
 20
6.776042
 30
0.0
 41
12.0
 42
12.0
 43
12.0
 50
180.0
  0
INSERT
  5
4BE
330
567
100
AcDbEntity
  8
DIM
  6
Continuous
 62
     7
370
    13
100
AcDbBlockReference
  2
LARROW
 10
48.269458
 20
6.776042
 30
0.0
 41
12.0
 42
12.0
 43
12.0
  0
INSERT
  5
4C0
330
567
100
AcDbEntity
  8
DIM
  6
Continuous
 62
     7
370
    13
100
AcDbBlockReference
  2
LARROW
 10
48.431677
 20
6.684771
 30
0.0
 41
12.0
 42
12.0
 43
12.0
 50
270.0
  0
INSERT
  5
4C2
330
567
100
AcDbEntity
  8
DIM
  6
Continuous
 62
     7
370
    13
100
AcDbBlockReference
  2
LARROW
 10
48.431677
 20
6.53274
 30
0.0
 41
12.0
 42
12.0
 43
12.0
 50
90.0
  0
INSERT
  5
4C4
330
567
100
AcDbEntity
  8
DIM
  6
Continuous
 62
     7
370
    13
100
AcDbBlockReference
  2
LARROW
 10
49.035073
 20
6.766302
 30
0.0
 41
12.0
 42
12.0
 43
12.0
 50
180.0
  0
INSERT
  5
4C6
330
567
100
AcDbEntity
  8
DIM
  6
Continuous
 62
     7
370
    13
100
AcDbBlockReference
  2
LARROW
 10
49.761281
 20
6.766302
 30
0.0
 41
12.0
 42
12.0
 43
12.0
  0
LINE
  5
4C8
330
567
100
AcDbEntity
  8
_0
  6
Continuous
 62
     7
370
    30
100
AcDbLine
 10
46.604125
 20
8.088969
 30
0.0
 11
46.604125
 21
8.988969
 31
0.0
  0
LINE
  5
4C9
330
567
100
AcDbEntity
  8
_0
  6
Continuous
 62
     7
370
    30
100
AcDbLine
 10
46.454125
 20
8.088969
 30
0.0
 11
46.454125
 21
8.988969
 31
0.0
  0
LINE
  5
4CA
330
567
100
AcDbEntity
  8
_0
  6
Continuous
 62
     7
370
    30
100
AcDbLine
 10
46.304125
 20
8.088969
 30
0.0
 11
46.304125
 21
8.988969
 31
0.0
  0
LINE
  5
4CB
330
567
100
AcDbEntity
  8
_0
  6
Continuous
 62
     7
370
    30
100
AcDbLine
 10
46.154125
 20
8.088969
 30
0.0
 11
46.154125
 21
8.988969
 31
0.0
  0
LINE
  5
4CC
330
567
100
AcDbEntity
  8
_0
  6
Continuous
 62
     7
370
    30
100
AcDbLine
 10
46.004125
 20
8.088969
 30
0.0
 11
46.004125
 21
8.988969
 31
0.0
  0
LINE
  5
4CD
330
567
100
AcDbEntity
  8
_0
  6
Continuous
 62
     7
370
    30
100
AcDbLine
 10
45.854125
 20
8.088969
 30
0.0
 11
45.854125
 21
8.988969
 31
0.0
  0
LINE
  5
4CE
330
567
100
AcDbEntity
  8
_0
  6
Continuous
 62
     7
370
    30
100
AcDbLine
 10
45.704125
 20
8.038969
 30
0.0
 11
45.704125
 21
9.038969
 31
0.0
  0
LINE
  5
4CF
330
567
100
AcDbEntity
  8
_0
  6
Continuous
 62
     7
370
    30
100
AcDbLine
 10
45.63
 20
7.888969
 30
0.0
 11
45.63
 21
9.188969
 31
0.0
  0
LINE
  5
4D0
330
567
100
AcDbEntity
  8
_0
  6
Continuous
 62
     7
370
    30
100
AcDbLine
 10
45.25
 20
9.188969
 30
0.0
 11
45.63
 21
9.188969
 31
0.0
  0
LINE
  5
4D1
330
567
100
AcDbEntity
  8
_0
  6
Continuous
 62
     7
370
    30
100
AcDbLine
 10
45.25
 20
7.888969
 30
0.0
 11
45.25
 21
9.188969
 31
0.0
  0
LINE
  5
4D3
330
567
100
AcDbEntity
  8
_0
  6
Continuous
 62
     7
370
    30
100
AcDbLine
 10
45.63
 20
7.888969
 30
0.0
 11
45.25
 21
7.888969
 31
0.0
  0
LINE
  5
4D4
330
567
100
AcDbEntity
  8
DIM
  6
Continuous
 62
     7
370
    13
100
AcDbLine
 10
45.179885
 20
8.038958
 30
0.0
 11
44.850562
 21
8.038958
 31
0.0
  0
INSERT
  5
4D5
330
567
100
AcDbEntity
  8
DIM
  6
Continuous
 62
     7
370
    13
100
AcDbBlockReference
  2
LARROW
 10
45.030563
 20
8.041802
 30
0.0
 41
12.0
 42
12.0
 43
12.0
 50
270.0
  0
LINE
  5
4D9
330
567
100
AcDbEntity
  8
DIM
  6
Continuous
 62
     7
370
    13
100
AcDbLine
 10
45.179885
 20
9.038958
 30
0.0
 11
44.850562
 21
9.038958
 31
0.0
  0
INSERT
  5
4DA
330
567
100
AcDbEntity
  8
DIM
  6
Continuous
 62
     7
370
    13
100
AcDbBlockReference
  2
LARROW
 10
45.030563
 20
9.027198
 30
0.0
 41
12.0
 42
12.0
 43
12.0
 50
90.0
  0
LINE
  5
4DC
330
567
100
AcDbEntity
  8
DIM
  6
Continuous
 62
     7
370
    13
100
AcDbLine
 10
45.179885
 20
8.538969
 30
0.0
 11
44.850562
 21
8.538969
 31
0.0
  0
LINE
  5
4DD
330
567
100
AcDbEntity
  8
DIM
  6
Continuous
 62
     7
370
    13
100
AcDbLine
 10
45.030563
 20
8.041802
 30
0.0
 11
45.030563
 21
8.538969
 31
0.0
  0
LINE
  5
4DE
330
567
100
AcDbEntity
  8
DIM
  6
Continuous
 62
     7
370
    13
100
AcDbLine
 10
45.030563
 20
8.538969
 30
0.0
 11
45.030563
 21
9.027198
 31
0.0
  0
INSERT
  5
4DF
330
567
100
AcDbEntity
  8
DIM
  6
Continuous
 62
     7
370
    13
100
AcDbBlockReference
  2
LARROW
 10
45.030563
 20
8.538969
 30
0.0
 41
12.0
 42
12.0
 43
12.0
 50
90.0
  0
INSERT
  5
4E1
330
567
100
AcDbEntity
  8
DIM
  6
Continuous
 62
     7
370
    13
100
AcDbBlockReference
  2
LARROW
 10
45.030563
 20
8.538969
 30
0.0
 41
12.0
 42
12.0
 43
12.0
 50
270.0
  0
LINE
  5
4E3
330
567
100
AcDbEntity
  8
DIM
  6
Continuous
 62
     7
370
    13
100
AcDbLine
 10
45.704125
 20
9.091052
 30
0.0
 11
45.704125
 21
9.384708
 31
0.0
  0
LINE
  5
4E4
330
567
100
AcDbEntity
  8
_0
  6
Continuous
 62
     7
370
    30
100
AcDbLine
 10
49.904125
 20
8.088969
 30
0.0
 11
49.904125
 21
8.988969
 31
0.0
  0
LINE
  5
4E5
330
567
100
AcDbEntity
  8
_0
  6
Continuous
 62
     7
370
    30
100
AcDbLine
 10
50.054125
 20
8.088969
 30
0.0
 11
50.054125
 21
8.988969
 31
0.0
  0
LINE
  5
4E6
330
567
100
AcDbEntity
  8
_0
  6
Continuous
 62
     7
370
    30
100
AcDbLine
 10
50.204125
 20
8.088969
 30
0.0
 11
50.204125
 21
8.988969
 31
0.0
  0
LINE
  5
4E7
330
567
100
AcDbEntity
  8
_0
  6
Continuous
 62
     7
370
    30
100
AcDbLine
 10
50.354125
 20
8.088969
 30
0.0
 11
50.354125
 21
8.988969
 31
0.0
  0
LINE
  5
4E8
330
567
100
AcDbEntity
  8
_0
  6
Continuous
 62
     7
370
    30
100
AcDbLine
 10
50.504125
 20
8.088969
 30
0.0
 11
50.504125
 21
8.988969
 31
0.0
  0
LINE
  5
4E9
330
567
100
AcDbEntity
  8
_0
  6
Continuous
 62
     7
370
    30
100
AcDbLine
 10
50.654125
 20
8.088969
 30
0.0
 11
50.654125
 21
8.988969
 31
0.0
  0
LINE
  5
4EA
330
567
100
AcDbEntity
  8
_0
  6
Continuous
 62
     7
370
    30
100
AcDbLine
 10
50.804125
 20
8.038969
 30
0.0
 11
50.804125
 21
9.038969
 31
0.0
  0
LINE
  5
4EB
330
567
100
AcDbEntity
  8
_0
  6
Continuous
 62
     7
370
    30
100
AcDbLine
 10
45.63
 20
9.188969
 30
0.0
 11
50.878208
 21
9.188969
 31
0.0
  0
LINE
  5
4EC
330
567
100
AcDbEntity
  8
_0
  6
Continuous
 62
     7
370
    30
100
AcDbLine
 10
50.878208
 20
7.888969
 30
0.0
 11
45.63
 21
7.888969
 31
0.0
  0
LINE
  5
4ED
330
567
100
AcDbEntity
  8
_0
  6
Continuous
 62
     7
370
    30
100
AcDbLine
 10
50.878208
 20
9.188969
 30
0.0
 11
50.878208
 21
7.888969
 31
0.0
  0
LINE
  5
4EE
330
567
100
AcDbEntity
  8
_0
  6
Continuous
 62
     7
370
    30
100
AcDbLine
 10
50.878208
 20
9.188969
 30
0.0
 11
51.258208
 21
9.188969
 31
0.0
  0
LINE
  5
4F0
330
567
100
AcDbEntity
  8
_0
  6
Continuous
 62
     7
370
    30
100
AcDbLine
 10
51.258208
 20
9.188969
 30
0.0
 11
51.258208
 21
7.888969
 31
0.0
  0
LINE
  5
4F1
330
567
100
AcDbEntity
  8
_0
  6
Continuous
 62
     7
370
    30
100
AcDbLine
 10
51.258208
 20
7.888969
 30
0.0
 11
50.878208
 21
7.888969
 31
0.0
  0
LINE
  5
4F2
330
567
100
AcDbEntity
  8
DIM
  6
Continuous
 62
     7
370
    13
100
AcDbLine
 10
50.804125
 20
9.091052
 30
0.0
 11
50.804125
 21
9.384708
 31
0.0
  0
TEXT
  5
62
330
567
100
AcDbEntity
  8
BORDER
  6
Continuous
 62
     7
370
    30
100
AcDbText
 10
51.122179
 20
1.27024
 30
0.0
 40
0.1
  1
FIGURE
  7
Style-Arial
 11
51.122179
 21
1.32024
 31
0.0
100
AcDbText
 73
     2
  0
TEXT
  5
63
330
567
100
AcDbEntity
  8
BORDER
  6
Continuous
 62
     7
370
    30
100
AcDbText
 10
51.19614
 20
1.103573
 30
0.0
 40
0.1
  1
2-18a
  7
Style-Arial
 11
51.19614
 21
1.153573
 31
0.0
100
AcDbText
 73
     2
  0
TEXT
  5
64
330
567
100
AcDbEntity
  8
BORDER
  6
Continuous
 62
     7
370
    30
100
AcDbText
 10
50.000634
 20
1.27024
 30
0.0
 40
0.1
  1
DATE
  7
Style-Arial
 11
50.000634
 21
1.32024
 31
0.0
100
AcDbText
 73
     2
  0
TEXT
  5
65
330
567
100
AcDbEntity
  8
BORDER
  6
Continuous
 62
     7
370
    30
100
AcDbText
 10
49.8716
 20
1.103573
 30
0.0
 40
0.1
  1
AUG 1992
  7
Style-Arial
 11
49.8716
 21
1.153573
 31
0.0
100
AcDbText
 73
     2
  0
TEXT
  5
66
330
567
100
AcDbEntity
  8
TITLE
  6
Continuous
 62
     7
370
    30
100
AcDbText
 10
46.444415
 20
1.31951
 30
0.0
 40
0.1
  1
GROOVING DETAILS FOR
  7
Style-Arial
 11
46.444415
 21
1.36951
 31
0.0
100
AcDbText
 73
     2
  0
TEXT
  5
7F
330
567
100
AcDbEntity
  8
DIM
  6
Continuous
 62
     7
370
    30
100
AcDbText
 10
47.646378
 20
9.371854
 30
0.0
 40
0.1
  1
GROOVED AREA
  7
Style-Arial
 11
47.646378
 21
9.421854
 31
0.0
100
AcDbText
 73
     2
  0
TEXT
  5
82
330
567
100
AcDbEntity
  8
DIM
  6
Continuous
 62
     7
370
    30
100
AcDbText
 10
45.265948
 20
7.467135
 30
0.0
 40
0.1
  1
MINIMUM OF 5' TO ALLOW GROOVED
  7
Style-Arial
 11
45.265948
 21
7.517135
 31
0.0
100
AcDbText
 73
     2
  0
TEXT
  5
83
330
567
100
AcDbEntity
  8
DIM
  6
Continuous
 62
     7
370
    30
100
AcDbText
 10
45.265948
 20
7.263687
 30
0.0
 40
0.1
  1
MACHINE TURN AROUND
  7
Style-Arial
 11
45.265948
 21
7.313687
 31
0.0
100
AcDbText
 73
     2
  0
TEXT
  5
98
330
567
100
AcDbEntity
  8
DIM
  6
Continuous
 62
     7
370
    30
100
AcDbText
 10
48.838537
 20
7.030698
 30
0.0
 40
0.1
  1
1/4"
  7
Style-Arial
 11
48.838537
 21
7.080698
 31
0.0
100
AcDbText
 73
     2
  0
TEXT
  5
9C
330
567
100
AcDbEntity
  8
DIM
  6
Continuous
 62
     7
370
    30
100
AcDbText
 10
47.713395
 20
6.846208
 30
0.0
 40
0.1
  1
1-1/2"
  7
Style-Arial
 11
47.713395
 21
6.896208
 31
0.0
100
AcDbText
 73
     2
  0
TEXT
  5
A0
330
567
100
AcDbEntity
  8
REF
  6
Continuous
 62
     7
370
    30
100
AcDbText
 10
46.283679
 20
1.739073
 30
0.0
 40
0.1
  1
GENERAL PROVISIONS FOR AIRFIELD PAVEMENT DESIGN.
  7
Style-Arial
 11
46.283679
 21
1.789073
 31
0.0
100
AcDbText
 73
     2
  0
TEXT
  5
A1
330
567
100
AcDbEntity
  8
REF
  6
Continuous
 62
     7
370
    30
100
AcDbText
 10
45.333886
 20
1.900802
 30
0.0
 40
0.1
  1
REFERENCE: TM 5-824-1/AFM 88-6, CHAPTER 1,
  7
Style-Arial
 11
45.333886
 21
1.950802
 31
0.0
100
AcDbText
 73
     2
  0
TEXT
  5
A2
330
567
100
AcDbEntity
  8
REF
  6
Continuous
 62
     7
370
    30
100
AcDbText
 10
46.292771
 20
1.564844
 30
0.0
 40
0.1
  1
TM 5-825.2, FLEXIBLE PAVEMENT DESIGN
  7
Style-Arial
 11
46.292771
 21
1.614844
 31
0.0
100
AcDbText
 73
     2
  0
TEXT
  5
48E
330
567
100
AcDbEntity
  8
TITLE
  6
Continuous
 62
     7
370
    30
100
AcDbText
 10
46.597192
 20
1.094045
 30
0.0
 40
0.1
  1
RUNWAY PAVEMENTS
  7
Style-Arial
 11
46.597192
 21
1.144045
 31
0.0
100
AcDbText
 73
     2
  0
TEXT
  5
4D2
330
567
100
AcDbEntity
  8
TEXT
  6
Continuous
 62
     7
370
    30
100
AcDbText
 10
45.50076
 20
8.232487
 30
0.0
 40
0.1
  1
OVERRUN
 50
90.0
  7
Style-Arial
 11
45.45076
 21
8.232487
 31
0.0
100
AcDbText
 73
     2
  0
TEXT
  5
4D7
330
567
100
AcDbEntity
  8
DIM
  6
Continuous
 62
     7
370
    30
100
AcDbText
 10
44.945357
 20
8.257003
 30
0.0
 40
0.1
  1
70'
 50
90.0
  7
Style-Arial
 11
44.895357
 21
8.257003
 31
0.0
100
AcDbText
 73
     2
  0
TEXT
  5
4D8
330
567
100
AcDbEntity
  8
DIM
  6
Continuous
 62
     7
370
    30
100
AcDbText
 10
44.960574
 20
8.701771
 30
0.0
 40
0.1
  1
70'
 50
90.0
  7
Style-Arial
 11
44.910574
 21
8.701771
 31
0.0
100
AcDbText
 73
     2
  0
TEXT
  5
4EF
330
567
100
AcDbEntity
  8
TEXT
  6
Continuous
 62
     7
370
    30
100
AcDbText
 10
51.147115
 20
8.246381
 30
0.0
 40
0.1
  1
OVERRUN
 50
90.0
  7
Style-Arial
 11
51.097115
 21
8.246381
 31
0.0
100
AcDbText
 73
     2
  0
TEXT
  5
4F3
330
567
100
AcDbEntity
  8
TEXT
  6
Continuous
 62
     7
370
    30
100
AcDbText
 10
47.460484
 20
5.880156
 30
0.0
 40
0.1
  1
GROOVING DETAIL - PCC & AC
  7
Style-Arial
 11
47.460484
 21
5.930156
 31
0.0
100
AcDbText
 73
     2
  0
TEXT
  5
4F4
330
567
100
AcDbEntity
  8
DIM
  6
Continuous
 62
     7
370
    30
100
AcDbText
 10
46.831839
 20
6.416271
 30
0.0
 40
0.1
  1
1/4"
  7
Style-Arial
 11
46.831839
 21
6.466271
 31
0.0
100
AcDbText
 73
     2
  0
TEXT
  5
4F5
330
567
100
AcDbEntity
  8
DIM
  6
Continuous
 62
     7
370
    30
100
AcDbText
 10
49.229146
 20
6.846219
 30
0.0
 40
0.1
  1
1-1/2"
  7
Style-Arial
 11
49.229146
 21
6.896219
 31
0.0
100
AcDbText
 73
     2
  0
MTEXT
  5
4F6
330
567
100
AcDbEntity
  8
NOTES
  6
Continuous
 62
     7
370
    30
100
AcDbMText
 10
45.227611
 20
3.915361
 30
0.0
 40
0.1
 41
0.0
 71
     4
 72
     1
  3
GROOVING SHOULD NOT BE ACCOMPLISHED: WITHIN 6 INCHES OF\PTRANSVERSE JOINTS OR TRANSVERSE WORKING CRACKS; THROUGH\PNEOPRENE COMPRESSION SEALS (FOR LONGITUDINAL JOINTS, THE\PTOP OF THE SEAL SHOULD BE {\A0;\S1#8;}" BELOW THE BOTTOM OF THE\PGROOVE); THR
  3
OUGH RUNWAY LIGHTING FIXTURES OR SIMILAR ITEMS.\PGROOVES SHOULD TERMINATE WITHIN FIVE FEET OF THE PAVEMENT\PEDGE, AND THE FIRST 300 FEET EITHER SIDE OF AN ARRESTING\PBARRIER CABLE WHICH REQUIRES HOOK ENGAGEMENT FOR OPERATION.\PFOR AIR FORCE, GROOVES
  1
 SHOULD TERMINATE WITHIN TEN FEET\PEITHER SIDE OF AN ARRESTING BARRIER CABLE.\P
  7
Style-Arial
 73
     2
 44
0.779643
  0
TEXT
  5
501
330
567
100
AcDbEntity
  8
NOTES
  6
Continuous
 62
     7
370
    30
100
AcDbText
 10
45.230945
 20
4.689436
 30
0.0
 40
0.1
  1
NOTES:
  7
Style-Arial
 11
45.230945
 21
4.739436
 31
0.0
100
AcDbText
 73
     2
  0
ENDSEC
  0
SECTION
  2
OBJECTS
  0
DICTIONARY
  5
55B
330
0
100
AcDbDictionary
281
     1
  3
ACAD_COLOR
350
57A
  3
ACAD_GROUP
350
577
  3
ACAD_LAYOUT
350
56B
  3
ACAD_MATERIAL
350
579
  3
ACAD_MLINESTYLE
350
565
  3
ACAD_PLOTSETTINGS
350
578
  3
ACAD_PLOTSTYLENAME
350
55A
  3
ACAD_TABLESTYLE
350
591
  3
AcadDim
350
587
  3
MicroStation
350
57F
  0
DICTIONARY
  5
557
330
556
100
AcDbDictionary
280
     1
281
     1
  3
ACAD_LAYERFILTERS
360
57E
  3
ACAD_LAYERSTATES
360
558
  0
DICTIONARY
  5
58D
330
567
100
AcDbDictionary
280
     1
281
     1
  3
ACAD_SORTENTS
360
58E
  0
DICTIONARY
  5
57A
102
{ACAD_REACTORS
330
55B
102
}
330
55B
100
AcDbDictionary
281
     1
  0
DICTIONARY
  5
577
102
{ACAD_REACTORS
330
55B
102
}
330
55B
100
AcDbDictionary
281
     1
  0
DICTIONARY
  5
56B
102
{ACAD_REACTORS
330
55B
102
}
330
55B
100
AcDbDictionary
281
     1
  3
Layout1
350
56F
  3
Model
350
56A
  0
DICTIONARY
  5
579
102
{ACAD_REACTORS
330
55B
102
}
330
55B
100
AcDbDictionary
281
     1
  0
DICTIONARY
  5
565
102
{ACAD_REACTORS
330
55B
102
}
330
55B
100
AcDbDictionary
281
     1
  3
Standard
350
564
  0
DICTIONARY
  5
578
102
{ACAD_REACTORS
330
55B
102
}
330
55B
100
AcDbDictionary
281
     1
  0
ACDBDICTIONARYWDFLT
  5
55A
102
{ACAD_REACTORS
330
55B
102
}
330
55B
100
AcDbDictionary
281
     1
  3
Normal
350
559
100
AcDbDictionaryWithDefault
340
559
  0
DICTIONARY
  5
591
102
{ACAD_REACTORS
330
55B
102
}
330
55B
100
AcDbDictionary
281
     1
  0
XRECORD
  5
587
102
{ACAD_REACTORS
330
55B
102
}
330
55B
100
AcDbXrecord
280
     1
 90
   990106
  3
 
 60
     0
 61
     0
 62
     1
 63
     1
 64
     0
 65
     0
 66
     0
 67
     3
 68
     1
 69
     1
 70
     0
 71
     0
 72
     0
 40
0.0
170
     0
  0
DICTIONARY
  5
57F
102
{ACAD_REACTORS
330
55B
102
}
330
55B
100
AcDbDictionary
281
     1
  3
ApplicationElement 1356
350
54C
  3
ApplicationElement 1363
350
553
  3
ModelApplicationElement 0 1355
350
54B
  0
DICTIONARY
  5
57E
102
{ACAD_REACTORS
330
557
102
}
330
557
100
AcDbDictionary
281
     1
  0
DICTIONARY
  5
558
102
{ACAD_REACTORS
330
557
102
}
330
557
100
AcDbDictionary
281
     1
  0
SORTENTSTABLE
  5
58E
102
{ACAD_REACTORS
330
58D
102
}
330
58D
100
AcDbSortentsTable
330
567
331
62
  5
4DF
331
63
  5
4E1
331
64
  5
4E3
331
65
  5
4E4
331
66
  5
4E5
331
67
  5
62
331
68
  5
63
331
69
  5
64
331
6A
  5
65
331
6B
  5
66
331
6C
  5
67
331
6D
  5
68
331
6E
  5
69
331
6F
  5
6A
331
70
  5
6B
331
71
  5
6C
331
72
  5
6D
331
73
  5
6E
331
74
  5
6F
331
75
  5
70
331
76
  5
71
331
77
  5
72
331
78
  5
73
331
79
  5
74
331
7A
  5
75
331
7B
  5
76
331
7C
  5
77
331
7D
  5
78
331
7E
  5
79
331
7F
  5
4E6
331
80
  5
7A
331
81
  5
7B
331
82
  5
4E7
331
83
  5
4E8
331
84
  5
7C
331
85
  5
7D
331
86
  5
7E
331
87
  5
7F
331
88
  5
80
331
89
  5
81
331
8A
  5
82
331
8B
  5
83
331
8C
  5
84
331
8D
  5
85
331
8E
  5
86
331
8F
  5
87
331
90
  5
88
331
91
  5
89
331
92
  5
8A
331
93
  5
8B
331
94
  5
8C
331
95
  5
8D
331
96
  5
8E
331
97
  5
8F
331
98
  5
4E9
331
99
  5
90
331
9A
  5
91
331
9B
  5
92
331
9C
  5
4EA
331
9D
  5
93
331
9E
  5
94
331
9F
  5
95
331
A0
  5
4EB
331
A1
  5
4EC
331
A2
  5
4ED
331
A3
  5
96
331
A4
  5
97
331
A5
  5
98
331
A6
  5
99
331
A7
  5
9A
331
A8
  5
9B
331
A9
  5
9C
331
AA
  5
9D
331
AB
  5
9E
331
AC
  5
9F
331
AD
  5
A0
331
AE
  5
A1
331
AF
  5
A2
331
B0
  5
A3
331
B1
  5
A4
331
B2
  5
A5
331
B3
  5
A6
331
B4
  5
A7
331
B5
  5
A8
331
B6
  5
A9
331
B7
  5
AA
331
B8
  5
AB
331
B9
  5
AC
331
BA
  5
AD
331
BB
  5
AE
331
BC
  5
AF
331
BD
  5
B0
331
BE
  5
B1
331
BF
  5
B2
331
C0
  5
B3
331
C1
  5
B4
331
C2
  5
B5
331
C3
  5
B6
331
C4
  5
B7
331
C5
  5
B8
331
C6
  5
B9
331
C7
  5
BA
331
C8
  5
BB
331
C9
  5
BC
331
CA
  5
BD
331
CB
  5
BE
331
CC
  5
BF
331
CD
  5
C0
331
CE
  5
C1
331
CF
  5
C2
331
D0
  5
C3
331
D1
  5
C4
331
D2
  5
C5
331
D3
  5
C6
331
D4
  5
C7
331
D5
  5
C8
331
D6
  5
C9
331
D7
  5
CA
331
D8
  5
CB
331
D9
  5
CC
331
DA
  5
CD
331
DB
  5
CE
331
DC
  5
CF
331
DD
  5
D0
331
DE
  5
D1
331
DF
  5
D2
331
E0
  5
D3
331
E1
  5
D4
331
E2
  5
D5
331
E3
  5
D6
331
E4
  5
D7
331
E5
  5
D8
331
E6
  5
D9
331
E7
  5
DA
331
E8
  5
DB
331
E9
  5
DC
331
EA
  5
DD
331
EB
  5
DE
331
EC
  5
DF
331
ED
  5
E0
331
EE
  5
E1
331
EF
  5
E2
331
F0
  5
E3
331
F1
  5
E4
331
F2
  5
E5
331
F3
  5
E6
331
F4
  5
E7
331
F5
  5
E8
331
F6
  5
E9
331
F7
  5
EA
331
F8
  5
EB
331
F9
  5
EC
331
FA
  5
ED
331
FB
  5
EE
331
FC
  5
EF
331
FD
  5
F0
331
FE
  5
F1
331
FF
  5
F2
331
100
  5
F3
331
101
  5
F4
331
102
  5
F5
331
103
  5
F6
331
104
  5
F7
331
105
  5
F8
331
106
  5
F9
331
107
  5
FA
331
108
  5
FB
331
109
  5
FC
331
10A
  5
FD
331
10B
  5
FE
331
10C
  5
FF
331
10D
  5
100
331
10E
  5
101
331
10F
  5
102
331
110
  5
103
331
111
  5
104
331
112
  5
105
331
113
  5
106
331
114
  5
107
331
115
  5
108
331
116
  5
109
331
117
  5
10A
331
118
  5
10B
331
119
  5
10C
331
11A
  5
10D
331
11B
  5
10E
331
11C
  5
10F
331
11D
  5
110
331
11E
  5
111
331
11F
  5
112
331
120
  5
113
331
121
  5
114
331
122
  5
115
331
123
  5
116
331
124
  5
117
331
125
  5
118
331
126
  5
119
331
127
  5
11A
331
128
  5
11B
331
129
  5
11C
331
12A
  5
11D
331
12B
  5
11E
331
12C
  5
11F
331
12D
  5
120
331
12E
  5
121
331
12F
  5
122
331
130
  5
123
331
131
  5
124
331
132
  5
125
331
133
  5
126
331
134
  5
127
331
135
  5
128
331
136
  5
129
331
137
  5
12A
331
138
  5
12B
331
139
  5
12C
331
13A
  5
12D
331
13B
  5
12E
331
13C
  5
12F
331
13D
  5
130
331
13E
  5
131
331
13F
  5
132
331
140
  5
133
331
141
  5
134
331
142
  5
135
331
143
  5
136
331
144
  5
137
331
145
  5
138
331
146
  5
139
331
147
  5
13A
331
148
  5
13B
331
149
  5
13C
331
14A
  5
13D
331
14B
  5
13E
331
14C
  5
13F
331
14D
  5
140
331
14E
  5
141
331
14F
  5
142
331
150
  5
143
331
151
  5
144
331
152
  5
145
331
153
  5
146
331
154
  5
147
331
155
  5
148
331
156
  5
149
331
157
  5
14A
331
158
  5
14B
331
159
  5
14C
331
15A
  5
14D
331
15B
  5
14E
331
15C
  5
14F
331
15D
  5
150
331
15E
  5
151
331
15F
  5
152
331
160
  5
153
331
161
  5
154
331
162
  5
155
331
163
  5
156
331
164
  5
157
331
165
  5
158
331
166
  5
159
331
167
  5
15A
331
168
  5
15B
331
169
  5
15C
331
16A
  5
15D
331
16B
  5
15E
331
16C
  5
15F
331
16D
  5
160
331
16E
  5
161
331
16F
  5
162
331
170
  5
163
331
171
  5
164
331
172
  5
165
331
173
  5
166
331
174
  5
167
331
175
  5
168
331
176
  5
169
331
177
  5
16A
331
178
  5
16B
331
179
  5
16C
331
17A
  5
16D
331
17B
  5
16E
331
17C
  5
16F
331
17D
  5
170
331
17E
  5
171
331
17F
  5
172
331
180
  5
173
331
181
  5
174
331
182
  5
175
331
183
  5
176
331
184
  5
177
331
185
  5
178
331
186
  5
179
331
187
  5
17A
331
188
  5
17B
331
189
  5
17C
331
18A
  5
17D
331
18B
  5
17E
331
18C
  5
17F
331
18D
  5
180
331
18E
  5
181
331
18F
  5
182
331
190
  5
183
331
191
  5
184
331
192
  5
185
331
193
  5
186
331
194
  5
187
331
195
  5
188
331
196
  5
189
331
197
  5
18A
331
198
  5
18B
331
199
  5
18C
331
19A
  5
18D
331
19B
  5
18E
331
19C
  5
18F
331
19D
  5
190
331
19E
  5
191
331
19F
  5
192
331
1A0
  5
193
331
1A1
  5
194
331
1A2
  5
195
331
1A3
  5
196
331
1A4
  5
197
331
1A5
  5
198
331
1A6
  5
199
331
1A7
  5
19A
331
1A8
  5
19B
331
1A9
  5
19C
331
1AA
  5
19D
331
1AB
  5
19E
331
1AC
  5
19F
331
1AD
  5
1A0
331
1AE
  5
1A1
331
1AF
  5
1A2
331
1B0
  5
1A3
331
1B1
  5
1A4
331
1B2
  5
1A5
331
1B3
  5
1A6
331
1B4
  5
1A7
331
1B5
  5
1A8
331
1B6
  5
1A9
331
1B7
  5
1AA
331
1B8
  5
1AB
331
1B9
  5
1AC
331
1BA
  5
1AD
331
1BB
  5
1AE
331
1BC
  5
1AF
331
1BD
  5
1B0
331
1BE
  5
1B1
331
1BF
  5
1B2
331
1C0
  5
1B3
331
1C1
  5
1B4
331
1C2
  5
1B5
331
1C3
  5
1B6
331
1C4
  5
1B7
331
1C5
  5
1B8
331
1C6
  5
1B9
331
1C7
  5
1BA
331
1C8
  5
1BB
331
1C9
  5
1BC
331
1CA
  5
1BD
331
1CB
  5
1BE
331
1CC
  5
1BF
331
1CD
  5
1C0
331
1CE
  5
1C1
331
1CF
  5
1C2
331
1D0
  5
1C3
331
1D1
  5
1C4
331
1D2
  5
1C5
331
1D3
  5
1C6
331
1D4
  5
1C7
331
1D5
  5
1C8
331
1D6
  5
1C9
331
1D7
  5
1CA
331
1D8
  5
1CB
331
1D9
  5
1CC
331
1DA
  5
1CD
331
1DB
  5
1CE
331
1DC
  5
1CF
331
1DD
  5
1D0
331
1DE
  5
1D1
331
1DF
  5
1D2
331
1E0
  5
1D3
331
1E1
  5
1D4
331
1E2
  5
1D5
331
1E3
  5
1D6
331
1E4
  5
1D7
331
1E5
  5
1D8
331
1E6
  5
1D9
331
1E7
  5
1DA
331
1E8
  5
1DB
331
1E9
  5
1DC
331
1EA
  5
1DD
331
1EB
  5
1DE
331
1EC
  5
1DF
331
1ED
  5
1E0
331
1EE
  5
1E1
331
1EF
  5
1E2
331
1F0
  5
1E3
331
1F1
  5
1E4
331
1F2
  5
1E5
331
1F3
  5
1E6
331
1F4
  5
1E7
331
1F5
  5
1E8
331
1F6
  5
1E9
331
1F7
  5
1EA
331
1F8
  5
1EB
331
1F9
  5
1EC
331
1FA
  5
1ED
331
1FB
  5
1EE
331
1FC
  5
1EF
331
1FD
  5
1F0
331
1FE
  5
1F1
331
1FF
  5
1F2
331
200
  5
1F3
331
201
  5
1F4
331
202
  5
1F5
331
203
  5
1F6
331
204
  5
1F7
331
205
  5
1F8
331
206
  5
1F9
331
207
  5
1FA
331
208
  5
1FB
331
209
  5
1FC
331
20A
  5
1FD
331
20B
  5
1FE
331
20C
  5
1FF
331
20D
  5
200
331
20E
  5
201
331
20F
  5
202
331
210
  5
203
331
211
  5
204
331
212
  5
205
331
213
  5
206
331
214
  5
207
331
215
  5
208
331
216
  5
209
331
217
  5
20A
331
218
  5
20B
331
219
  5
20C
331
21A
  5
20D
331
21B
  5
20E
331
21C
  5
20F
331
21D
  5
210
331
21E
  5
211
331
21F
  5
212
331
220
  5
213
331
221
  5
214
331
222
  5
215
331
223
  5
216
331
224
  5
217
331
225
  5
218
331
226
  5
219
331
227
  5
21A
331
228
  5
21B
331
229
  5
21C
331
22A
  5
21D
331
22B
  5
21E
331
22C
  5
21F
331
22D
  5
220
331
22E
  5
221
331
22F
  5
222
331
230
  5
223
331
231
  5
224
331
232
  5
225
331
233
  5
226
331
234
  5
227
331
235
  5
228
331
236
  5
229
331
237
  5
22A
331
238
  5
22B
331
239
  5
22C
331
23A
  5
22D
331
23B
  5
22E
331
23C
  5
22F
331
23D
  5
230
331
23E
  5
231
331
23F
  5
232
331
240
  5
233
331
241
  5
234
331
242
  5
235
331
243
  5
236
331
244
  5
237
331
245
  5
238
331
246
  5
239
331
247
  5
23A
331
248
  5
23B
331
249
  5
23C
331
24A
  5
23D
331
24B
  5
23E
331
24C
  5
23F
331
24D
  5
240
331
24E
  5
241
331
24F
  5
242
331
250
  5
243
331
251
  5
244
331
252
  5
245
331
253
  5
246
331
254
  5
247
331
255
  5
248
331
256
  5
249
331
257
  5
24A
331
258
  5
24B
331
259
  5
24C
331
25A
  5
24D
331
25B
  5
24E
331
25C
  5
24F
331
25D
  5
250
331
25E
  5
251
331
25F
  5
252
331
260
  5
253
331
261
  5
254
331
262
  5
255
331
263
  5
256
331
264
  5
257
331
265
  5
258
331
266
  5
259
331
267
  5
25A
331
268
  5
25B
331
269
  5
25C
331
26A
  5
25D
331
26B
  5
25E
331
26C
  5
25F
331
26D
  5
260
331
26E
  5
261
331
26F
  5
262
331
270
  5
263
331
271
  5
264
331
272
  5
265
331
273
  5
266
331
274
  5
267
331
275
  5
268
331
276
  5
269
331
277
  5
26A
331
278
  5
26B
331
279
  5
26C
331
27A
  5
26D
331
27B
  5
26E
331
27C
  5
26F
331
27D
  5
270
331
27E
  5
271
331
27F
  5
272
331
280
  5
273
331
281
  5
274
331
282
  5
275
331
283
  5
276
331
284
  5
277
331
285
  5
278
331
286
  5
279
331
287
  5
27A
331
288
  5
27B
331
289
  5
27C
331
28A
  5
27D
331
28B
  5
27E
331
28C
  5
27F
331
28D
  5
280
331
28E
  5
281
331
28F
  5
282
331
290
  5
283
331
291
  5
284
331
292
  5
285
331
293
  5
286
331
294
  5
287
331
295
  5
288
331
296
  5
289
331
297
  5
28A
331
298
  5
28B
331
299
  5
28C
331
29A
  5
28D
331
29B
  5
28E
331
29C
  5
28F
331
29D
  5
290
331
29E
  5
291
331
29F
  5
292
331
2A0
  5
293
331
2A1
  5
294
331
2A2
  5
295
331
2A3
  5
296
331
2A4
  5
297
331
2A5
  5
298
331
2A6
  5
299
331
2A7
  5
29A
331
2A8
  5
29B
331
2A9
  5
29C
331
2AA
  5
29D
331
2AB
  5
29E
331
2AC
  5
29F
331
2AD
  5
2A0
331
2AE
  5
2A1
331
2AF
  5
2A2
331
2B0
  5
2A3
331
2B1
  5
2A4
331
2B2
  5
2A5
331
2B3
  5
2A6
331
2B4
  5
2A7
331
2B5
  5
2A8
331
2B6
  5
2A9
331
2B7
  5
2AA
331
2B8
  5
2AB
331
2B9
  5
2AC
331
2BA
  5
2AD
331
2BB
  5
2AE
331
2BC
  5
2AF
331
2BD
  5
2B0
331
2BE
  5
2B1
331
2BF
  5
2B2
331
2C0
  5
2B3
331
2C1
  5
2B4
331
2C2
  5
2B5
331
2C3
  5
2B6
331
2C4
  5
2B7
331
2C5
  5
2B8
331
2C6
  5
2B9
331
2C7
  5
2BA
331
2C8
  5
2BB
331
2C9
  5
2BC
331
2CA
  5
2BD
331
2CB
  5
2BE
331
2CC
  5
2BF
331
2CD
  5
2C0
331
2CE
  5
2C1
331
2CF
  5
2C2
331
2D0
  5
2C3
331
2D1
  5
2C4
331
2D2
  5
2C5
331
2D3
  5
2C6
331
2D4
  5
2C7
331
2D5
  5
2C8
331
2D6
  5
2C9
331
2D7
  5
2CA
331
2D8
  5
2CB
331
2D9
  5
2CC
331
2DA
  5
2CD
331
2DB
  5
2CE
331
2DC
  5
2CF
331
2DD
  5
2D0
331
2DE
  5
2D1
331
2DF
  5
2D2
331
2E0
  5
2D3
331
2E1
  5
2D4
331
2E2
  5
2D5
331
2E3
  5
2D6
331
2E4
  5
2D7
331
2E5
  5
2D8
331
2E6
  5
2D9
331
2E7
  5
2DA
331
2E8
  5
2DB
331
2E9
  5
2DC
331
2EA
  5
2DD
331
2EB
  5
2DE
331
2EC
  5
2DF
331
2ED
  5
2E0
331
2EE
  5
2E1
331
2EF
  5
2E2
331
2F0
  5
2E3
331
2F1
  5
2E4
331
2F2
  5
2E5
331
2F3
  5
2E6
331
2F4
  5
2E7
331
2F5
  5
2E8
331
2F6
  5
2E9
331
2F7
  5
2EA
331
2F8
  5
2EB
331
2F9
  5
2EC
331
2FA
  5
2ED
331
2FB
  5
2EE
331
2FC
  5
2EF
331
2FD
  5
2F0
331
2FE
  5
2F1
331
2FF
  5
2F2
331
300
  5
2F3
331
301
  5
2F4
331
302
  5
2F5
331
303
  5
2F6
331
304
  5
2F7
331
305
  5
2F8
331
306
  5
2F9
331
307
  5
2FA
331
308
  5
2FB
331
309
  5
2FC
331
30A
  5
2FD
331
30B
  5
2FE
331
30C
  5
2FF
331
30D
  5
300
331
30E
  5
301
331
30F
  5
302
331
310
  5
303
331
311
  5
304
331
312
  5
305
331
313
  5
306
331
314
  5
307
331
315
  5
308
331
316
  5
309
331
317
  5
30A
331
318
  5
30B
331
319
  5
30C
331
31A
  5
30D
331
31B
  5
30E
331
31C
  5
30F
331
31D
  5
310
331
31E
  5
311
331
31F
  5
312
331
320
  5
313
331
321
  5
314
331
322
  5
315
331
323
  5
316
331
324
  5
317
331
325
  5
318
331
326
  5
319
331
327
  5
31A
331
328
  5
31B
331
329
  5
31C
331
32A
  5
31D
331
32B
  5
31E
331
32C
  5
31F
331
32D
  5
320
331
32E
  5
321
331
32F
  5
322
331
330
  5
323
331
331
  5
324
331
332
  5
325
331
333
  5
326
331
334
  5
327
331
335
  5
328
331
336
  5
329
331
337
  5
32A
331
338
  5
32B
331
339
  5
32C
331
33A
  5
32D
331
33B
  5
32E
331
33C
  5
32F
331
33D
  5
330
331
33E
  5
331
331
33F
  5
332
331
340
  5
333
331
341
  5
334
331
342
  5
335
331
343
  5
336
331
344
  5
337
331
345
  5
338
331
346
  5
339
331
347
  5
33A
331
348
  5
33B
331
349
  5
33C
331
34A
  5
33D
331
34B
  5
33E
331
34C
  5
33F
331
34D
  5
340
331
34E
  5
341
331
34F
  5
342
331
350
  5
343
331
351
  5
344
331
352
  5
345
331
353
  5
346
331
354
  5
347
331
355
  5
348
331
356
  5
349
331
357
  5
34A
331
358
  5
34B
331
359
  5
34C
331
35A
  5
34D
331
35B
  5
34E
331
35C
  5
34F
331
35D
  5
350
331
35E
  5
351
331
35F
  5
352
331
360
  5
353
331
361
  5
354
331
362
  5
355
331
363
  5
356
331
364
  5
357
331
365
  5
358
331
366
  5
359
331
367
  5
35A
331
368
  5
35B
331
369
  5
35C
331
36A
  5
35D
331
36B
  5
35E
331
36C
  5
35F
331
36D
  5
360
331
36E
  5
361
331
36F
  5
362
331
370
  5
363
331
371
  5
364
331
372
  5
365
331
373
  5
366
331
374
  5
367
331
375
  5
368
331
376
  5
369
331
377
  5
36A
331
378
  5
36B
331
379
  5
36C
331
37A
  5
36D
331
37B
  5
36E
331
37C
  5
36F
331
37D
  5
370
331
37E
  5
371
331
37F
  5
372
331
380
  5
373
331
381
  5
374
331
382
  5
375
331
383
  5
376
331
384
  5
377
331
385
  5
378
331
386
  5
379
331
387
  5
37A
331
388
  5
37B
331
389
  5
37C
331
38A
  5
37D
331
38B
  5
37E
331
38C
  5
37F
331
38D
  5
380
331
38E
  5
381
331
38F
  5
382
331
390
  5
383
331
391
  5
384
331
392
  5
385
331
393
  5
386
331
394
  5
387
331
395
  5
388
331
396
  5
389
331
397
  5
38A
331
398
  5
38B
331
399
  5
38C
331
39A
  5
38D
331
39B
  5
38E
331
39C
  5
38F
331
39D
  5
390
331
39E
  5
391
331
39F
  5
392
331
3A0
  5
393
331
3A1
  5
394
331
3A2
  5
395
331
3A3
  5
396
331
3A4
  5
397
331
3A5
  5
398
331
3A6
  5
399
331
3A7
  5
39A
331
3A8
  5
39B
331
3A9
  5
39C
331
3AA
  5
39D
331
3AB
  5
39E
331
3AC
  5
39F
331
3AD
  5
3A0
331
3AE
  5
3A1
331
3AF
  5
3A2
331
3B0
  5
3A3
331
3B1
  5
3A4
331
3B2
  5
3A5
331
3B3
  5
3A6
331
3B4
  5
3A7
331
3B5
  5
3A8
331
3B6
  5
3A9
331
3B7
  5
3AA
331
3B8
  5
3AB
331
3B9
  5
3AC
331
3BA
  5
3AD
331
3BB
  5
3AE
331
3BC
  5
3AF
331
3BD
  5
3B0
331
3BE
  5
3B1
331
3BF
  5
3B2
331
3C0
  5
3B3
331
3C1
  5
3B4
331
3C2
  5
3B5
331
3C3
  5
3B6
331
3C4
  5
3B7
331
3C5
  5
3B8
331
3C6
  5
3B9
331
3C7
  5
3BA
331
3C8
  5
3BB
331
3C9
  5
3BC
331
3CA
  5
3BD
331
3CB
  5
3BE
331
3CC
  5
3BF
331
3CD
  5
3C0
331
3CE
  5
3C1
331
3CF
  5
3C2
331
3D0
  5
3C3
331
3D1
  5
3C4
331
3D2
  5
3C5
331
3D3
  5
3C6
331
3D4
  5
3C7
331
3D5
  5
3C8
331
3D6
  5
3C9
331
3D7
  5
3CA
331
3D8
  5
3CB
331
3D9
  5
3CC
331
3DA
  5
3CD
331
3DB
  5
3CE
331
3DC
  5
3CF
331
3DD
  5
3D0
331
3DE
  5
3D1
331
3DF
  5
3D2
331
3E0
  5
3D3
331
3E1
  5
3D4
331
3E2
  5
3D5
331
3E3
  5
3D6
331
3E4
  5
3D7
331
3E5
  5
3D8
331
3E6
  5
3D9
331
3E7
  5
3DA
331
3E8
  5
3DB
331
3E9
  5
3DC
331
3EA
  5
3DD
331
3EB
  5
3DE
331
3EC
  5
3DF
331
3ED
  5
3E0
331
3EE
  5
3E1
331
3EF
  5
3E2
331
3F0
  5
3E3
331
3F1
  5
3E4
331
3F2
  5
3E5
331
3F3
  5
3E6
331
3F4
  5
3E7
331
3F5
  5
3E8
331
3F6
  5
3E9
331
3F7
  5
3EA
331
3F8
  5
3EB
331
3F9
  5
3EC
331
3FA
  5
3ED
331
3FB
  5
3EE
331
3FC
  5
3EF
331
3FD
  5
3F0
331
3FE
  5
3F1
331
3FF
  5
3F2
331
400
  5
3F3
331
401
  5
3F4
331
402
  5
3F5
331
403
  5
3F6
331
404
  5
3F7
331
405
  5
3F8
331
406
  5
3F9
331
407
  5
3FA
331
408
  5
3FB
331
409
  5
3FC
331
40A
  5
3FD
331
40B
  5
3FE
331
40C
  5
3FF
331
40D
  5
400
331
40E
  5
401
331
40F
  5
402
331
410
  5
403
331
411
  5
404
331
412
  5
405
331
413
  5
406
331
414
  5
407
331
415
  5
408
331
416
  5
409
331
417
  5
40A
331
418
  5
40B
331
419
  5
40C
331
41A
  5
40D
331
41B
  5
40E
331
41C
  5
40F
331
41D
  5
410
331
41E
  5
411
331
41F
  5
412
331
420
  5
413
331
421
  5
414
331
422
  5
415
331
423
  5
416
331
424
  5
417
331
425
  5
418
331
426
  5
419
331
427
  5
41A
331
428
  5
41B
331
429
  5
41C
331
42A
  5
41D
331
42B
  5
41E
331
42C
  5
41F
331
42D
  5
420
331
42E
  5
421
331
42F
  5
422
331
430
  5
423
331
431
  5
424
331
432
  5
425
331
433
  5
426
331
434
  5
427
331
435
  5
428
331
436
  5
429
331
437
  5
42A
331
438
  5
42B
331
439
  5
42C
331
43A
  5
42D
331
43B
  5
42E
331
43C
  5
42F
331
43D
  5
430
331
43E
  5
431
331
43F
  5
432
331
440
  5
433
331
441
  5
434
331
442
  5
435
331
443
  5
436
331
444
  5
437
331
445
  5
438
331
446
  5
439
331
447
  5
43A
331
448
  5
43B
331
449
  5
43C
331
44A
  5
43D
331
44B
  5
43E
331
44C
  5
43F
331
44D
  5
440
331
44E
  5
441
331
44F
  5
442
331
450
  5
443
331
451
  5
444
331
452
  5
445
331
453
  5
446
331
454
  5
447
331
455
  5
448
331
456
  5
449
331
457
  5
44A
331
458
  5
44B
331
459
  5
44C
331
45A
  5
44D
331
45B
  5
44E
331
45C
  5
44F
331
45D
  5
450
331
45E
  5
451
331
45F
  5
452
331
460
  5
453
331
461
  5
454
331
462
  5
455
331
463
  5
456
331
464
  5
457
331
465
  5
458
331
466
  5
459
331
467
  5
45A
331
468
  5
45B
331
469
  5
45C
331
46A
  5
45D
331
46B
  5
45E
331
46C
  5
45F
331
46D
  5
460
331
46E
  5
461
331
46F
  5
462
331
470
  5
463
331
471
  5
464
331
472
  5
465
331
473
  5
466
331
474
  5
467
331
475
  5
468
331
476
  5
469
331
477
  5
46A
331
478
  5
46B
331
479
  5
46C
331
47A
  5
46D
331
47B
  5
46E
331
47C
  5
46F
331
47D
  5
470
331
47E
  5
471
331
47F
  5
472
331
480
  5
473
331
481
  5
474
331
482
  5
475
331
483
  5
476
331
484
  5
477
331
485
  5
478
331
486
  5
479
331
487
  5
47A
331
488
  5
47B
331
489
  5
47C
331
48A
  5
47D
331
48B
  5
47E
331
48C
  5
47F
331
48D
  5
480
331
48E
  5
4EE
331
48F
  5
481
331
490
  5
482
331
491
  5
483
331
492
  5
484
331
493
  5
485
331
494
  5
486
331
495
  5
487
331
496
  5
488
331
497
  5
489
331
498
  5
48A
331
499
  5
48B
331
49A
  5
48C
331
49B
  5
48D
331
49C
  5
48E
331
49D
  5
48F
331
49E
  5
490
331
49F
  5
491
331
4A0
  5
492
331
4A1
  5
493
331
4A2
  5
494
331
4A3
  5
495
331
4A4
  5
496
331
4A5
  5
497
331
4A6
  5
498
331
4A7
  5
499
331
4A8
  5
49A
331
4A9
  5
49B
331
4AA
  5
49C
331
4AB
  5
49D
331
4AC
  5
49E
331
4AD
  5
49F
331
4AE
  5
4A0
331
4AF
  5
4A1
331
4B0
  5
4A2
331
4B2
  5
4A3
331
4B4
  5
4A4
331
4B6
  5
4A5
331
4B8
  5
4A6
331
4BA
  5
4A7
331
4BC
  5
4A8
331
4BE
  5
4A9
331
4C0
  5
4AA
331
4C2
  5
4AB
331
4C4
  5
4AC
331
4C6
  5
4AD
331
4C8
  5
4AE
331
4C9
  5
4AF
331
4CA
  5
4B0
331
4CB
  5
4B2
331
4CC
  5
4B4
331
4CD
  5
4B6
331
4CE
  5
4B8
331
4CF
  5
4BA
331
4D0
  5
4BC
331
4D1
  5
4BE
331
4D2
  5
4EF
331
4D3
  5
4C0
331
4D4
  5
4C2
331
4D5
  5
4C4
331
4D7
  5
4F0
331
4D8
  5
4F1
331
4D9
  5
4C6
331
4DA
  5
4C8
331
4DC
  5
4C9
331
4DD
  5
4CA
331
4DE
  5
4CB
331
4DF
  5
4CC
331
4E1
  5
4CD
331
4E3
  5
4CE
331
4E4
  5
4CF
331
4E5
  5
4D0
331
4E6
  5
4D1
331
4E7
  5
4D2
331
4E8
  5
4D3
331
4E9
  5
4D4
331
4EA
  5
4D5
331
4EB
  5
4D7
331
4EC
  5
4D8
331
4ED
  5
4D9
331
4EE
  5
4DA
331
4EF
  5
4F2
331
4F0
  5
4DC
331
4F1
  5
4DD
331
4F2
  5
4DE
  0
LAYOUT
  5
56F
102
{ACAD_REACTORS
330
56B
330
56B
102
}
102
{ACAD_XDICTIONARY
360
570
102
}
330
56B
100
AcDbPlotSettings
  1

  2
none_device
  4
Letter_(8.50_x_11.00_Inches)
  6

 40
6.35
 41
6.35
 42
6.350006
 43
6.350006
 44
215.899994
 45
279.399994
 46
0.0
 47
0.0
 48
0.0
 49
0.0
140
0.0
141
0.0
142
1.0
143
1.0
 70
   688
 72
     0
 73
     1
 74
     5
  7

 75
    16
 76
     0
 77
     2
 78
   300
147
1.0
148
0.0
149
0.0
100
AcDbLayout
  1
Layout1
 70
     1
 71
     1
 10
-0.25
 20
-0.25
 11
10.75
 21
8.25
 12
0.0
 22
0.0
 32
0.0
 14
1.049744
 24
0.799667
 34
-0.001526
 15
9.450623
 25
7.200577
 35
0.0
146
0.0
 13
0.0
 23
0.0
 33
0.0
 16
1.0
 26
0.0
 36
0.0
 17
0.0
 27
1.0
 37
0.0
 76
     0
330
56C
1001
ACAD_PSEXT
1000
None
1000
None
1000
Not applicable
1000
The layout will not be plotted unless a new plotter configuration name is selected.
1070
     0
  0
LAYOUT
  5
56A
102
{ACAD_REACTORS
330
56B
330
56B
102
}
330
56B
100
AcDbPlotSettings
  1

  2
none_device
  4
ANSI_A_(8.50_x_11.00_Inches)
  6

 40
6.35
 41
19.049999
 42
6.350006
 43
19.049988
 44
215.899994
 45
279.399994
 46
0.0
 47
0.0
 48
0.0
 49
0.0
140
0.0
141
0.0
142
1.0
143
2.584895
 70
 11952
 72
     0
 73
     1
 74
     0
  7

 75
     0
 76
     0
 77
     2
 78
   300
147
0.386863
148
0.0
149
0.0
100
AcDbLayout
  1
Model
 70
     1
 71
     0
 10
0.0
 20
0.0
 11
12.0
 21
9.0
 12
0.0
 22
0.0
 32
0.0
 14
0.0
 24
0.0
 34
0.0
 15
0.0
 25
0.0
 35
0.0
146
0.0
 13
0.0
 23
0.0
 33
0.0
 16
1.0
 26
0.0
 36
0.0
 17
0.0
 27
1.0
 37
0.0
 76
     0
330
567
331
49
  0
MLINESTYLE
  5
564
102
{ACAD_REACTORS
330
565
102
}
330
565
100
AcDbMlineStyle
  2
STANDARD
 70
     0
  3

 62
   256
 51
90.0
 52
90.0
 71
     2
 49
0.5
 62
   256
  6
BYLAYER
 49
-0.5
 62
   256
  6
BYLAYER
  0
ACDBPLACEHOLDER
  5
559
102
{ACAD_REACTORS
330
55A
102
}
330
55A
  0
XRECORD
  5
54C
102
{ACAD_REACTORS
330
57F
102
}
330
57F
100
AcDbXrecord
280
     1
310
3E4F020000004D6F64656C6572000000000000000000000000000000000000000000000000000000000000000000000000000000000000000000000000000000000000000000000000000000000000000000000000000000000000000000000000000000000000000000000000000000000000000000000000000000000000
310
00000000000000000000000000000000000000000000000000000000000000000000000000000000000000000000000000000000000000000000000000000000000000000000000000000000000000000000000000000000000000000000000000000000000000000000000000000000000000000000000000000000000000
310
00
310
00000000000000000000000000000000000000000000000000000000000000000000000000000000000000000000000000000000000000000000000000000000000000000000000000000000000000000000000000000000000000000000000000000000000000000000000000000000000000000000000000000000000000
310
00000000000000000000000000000000000000000000000000000000000000000000000000000000000000000000000000000000000000000000000000000000000000000000000000000000000000000000000000000000000000000000000000000000000000000000000000000000000000000000000000000000000000
310
00
310
00000000000000000000000000000000000000000000000000000000000000000000000000000000000000000000000000000000000000000000000000000000000000000000000000000000000000000000000000000000000000000000000000000000000000000000000000000000000000000000000000000000000000
310
00000000000000000000000000000000000000000000000000000000000000000000000000000000000000000000000000000000000000000000000000000000000000000000000000000000000000000000000000000000000000000000000000000000000000000000000000000000000000000000000000000000000000
310
00
310
00000000000000000000000000000000000000000000000000000000000000000000000000000000000000000000000000000000000000000000000000000000000000000000000000000000000000000000000000000000000000000000000000000000000000000000000000000000000000000000000000000000000000
310
00000000000000000000000000000000000000000000000000000000000000000000000000000000000000000000000000000000000000000000000000000000000000000000000000000000000000000000000000000000000000000000000000000000000000000000000000000000000000000000000000000000000000
310
00
310
00000000000000000000000000000000000000000000000000000000000000000000000000000000000000000000000000000000000000000000000000000000000000000000000000000000000000000000000000000000000000000000000000000000000000000000000000000000000000000000000000000000000000
310
00000000000000000000000000000000000000000000000000000000000000000000000000000000000000000000000000000000000000000000000000000000000000000000000000000000000000000000000000000000000000000000000000000000000000000000000000000000000000000000000000000000000000
310
00
310
00000000000000000000000000000000000000000000000000000000000000000000000000000000000000000000000000000000000000000000000000000000000000000000000000000000000000000000000000000000000000000000000000000000000000000000000000000000000000000000000000000000000000
310
00000000000000000000000000000000000000000000000000000000000000000000000000000000000000000000000000000000000000000000000000000000000000000000000000000000000000000000000000000000000000000000000000000000000000000000000000000000000000000000000000000000000000
310
00
310
00000000000000000000000000000000000000000000000000000000000000000000000000000000000000000000000000000000000000000000000000000000000000000000000000000000000000000000000000000000000000000000000000000000000000000000000000000000000000000000000000000000000000
310
00000000000000000000000000000000000000000000000000000000000000000000000000000000000000000000000000000000000000000000000000000000000000000000000000000000000000000000000000000000000000000000000000000000000000000000000000000000000000000000000000000000000000
310
00
310
00000000000000000000000000000000000000000000000000000000000000000000000000000000000000000000000000000000000000000000000000000000000000000000000000000000000000000000000000000000000000000000000000000000000000000000000000000000000000000000000000000000000000
310
00000000000000000000000000000000000000000000000000000000000000000000000000000000000000000000000000000000000000000000000000000000000000000000000000000000000000000000000000000000000000000000000000000000000000000000000000000000000000000000000000000000000000
310
00
310
00000000000000000000000000000000000000000000000000000000000000000000000000000000000000000000000000000000000000000000000000000000000000000000000000000000000000000000000000000000000000000000000000000000000000000000000000000000000000000000000000000000000000
310
00000000000000000000000000000000000000000000000000000000000000000000000000000000000000000000000000000000000000000000000000000000000000000000000000000000000000000000000000000000000000000000000000000000000000000000000000000000000000000000000000000000000000
310
00
310
00000000000000000000000000000000000000000000000000000000000000000000000000000000000000000000000000000000000000000000000000000000000000000000000000000000000000000000000000000000000000000000000000000000000000000000000000000000000000000000000000000000000000
310
00000000000000000000000000000000000000000000000000000000000000000000000000000000000000000000000000000000000000000000000000000000000000000000000000000000000000000000000000000000000000000000000000000000000000000000000000000000000000000000000000000000000000
310
00
310
00000000000000000000000000000000000000000000000000000000000000000000000000000000000000000000000000000000000000000000000000000000000000000000000000000000000000000000000000000000000000000000000000000000000000000000000000000000000000000000000000000000000000
310
00000000000000000000000000000000000000000000000000000000000000000000000000000000000000000000000000000000000000000000000000000000000000000000000000000000000000000000000000000000000000000000000000000000000000000000000000000000000000000000000000000000000000
310
00
310
00000000000000000000000000000000000000000000000000000000000000000000000000000000000000000000000000000000000000000000000000000000000000000000000000000000000000000000000000000000000000000000000000000000000000000000000000000000000000000000000000000000000000
310
00000000000000000000000000000000000000000000000000000000000000000000000000000000000000000000000000000000000000000000000000000000000000000000000000000000000000000000000000000000000000000000000000000000000000000000000000000000000000000000000000000000000000
310
00
310
00000000000000000000000000000000000000000000000000000000000000000000000000000000000000000000000000000000000000000000000000000000000000000000000000000000000000000000000000000000000000000000000000000000000000000000000000000000000000000000000000000000000000
310
00000000000000000000000000000000000000000000000000000000000000000000000000000000000000000000000000000000000000000000000000000000000000000000000000000000000000000000000000000000000000000000000000000000000000000000000000000000000000000000000000000000000000
310
00
310
00000000000000000000000000000000000000000000000000000000000000000000000000000000000000000000000000000000000000000000000000000000000000000000000000000000000000000000000000000000000000000000000000000000000000000000000000000000000000
  0
XRECORD
  5
553
102
{ACAD_REACTORS
330
57F
102
}
330
57F
100
AcDbXrecord
280
     1
310
3E4F020000004D6F64656C6572000000000000000000000000000000000000000000000000000000000000000000000000000000000000000000000000000000000000000000000000000000000000000000000000000000000000000000000000000000000000000000000000000000000000000000000000000000000000
310
00000000000000000000000000000000000000000000000000000000000000000000000000000000000000000000000000000000000000000000000000000000000000000000000000000000000000000000000000000000000000000000000000000000000000000000000000000000000000000000000000000000000000
310
00
310
00000000000000000000000000000000000000000000000000000000000000000000000000000000000000000000000000000000000000000000000000000000000000000000000000000000000000000000000000000000000000000000000000000000000000000000000000000000000000000000000000000000000000
310
00000000000000000000000000000000000000000000000000000000000000000000000000000000000000000000000000000000000000000000000000000000000000000000000000000000000000000000000000000000000000000000000000000000000000000000000000000000000000000000000000000000000000
310
00
310
00000000000000000000000000000000000000000000000000000000000000000000000000000000000000000000000000000000000000000000000000000000000000000000000000000000000000000000000000000000000000000000000000000000000000000000000000000000000000000000000000000000000000
310
00000000000000000000000000000000000000000000000000000000000000000000000000000000000000000000000000000000000000000000000000000000000000000000000000000000000000000000000000000000000000000000000000000000000000000000000000000000000000000000000000000000000000
310
00
310
00000000000000000000000000000000000000000000000000000000000000000000000000000000000000000000000000000000000000000000000000000000000000000000000000000000000000000000000000000000000000000000000000000000000000000000000000000000000000000000000000000000000000
310
00000000000000000000000000000000000000000000000000000000000000000000000000000000000000000000000000000000000000000000000000000000000000000000000000000000000000000000000000000000000000000000000000000000000000000000000000000000000000000000000000000000000000
310
00
310
00000000000000000000000000000000000000000000000000000000000000000000000000000000000000000000000000000000000000000000000000000000000000000000000000000000000000000000000000000000000000000000000000000000000000000000000000000000000000000000000000000000000000
310
00000000000000000000000000000000000000000000000000000000000000000000000000000000000000000000000000000000000000000000000000000000000000000000000000000000000000000000000000000000000000000000000000000000000000000000000000000000000000000000000000000000000000
310
00
310
00000000000000000000000000000000000000000000000000000000000000000000000000000000000000000000000000000000000000000000000000000000000000000000000000000000000000000000000000000000000000000000000000000000000000000000000000000000000000000000000000000000000000
310
00000000000000000000000000000000000000000000000000000000000000000000000000000000000000000000000000000000000000000000000000000000000000000000000000000000000000000000000000000000000000000000000000000000000000000000000000000000000000000000000000000000000000
310
00
310
00000000000000000000000000000000000000000000000000000000000000000000000000000000000000000000000000000000000000000000000000000000000000000000000000000000000000000000000000000000000000000000000000000000000000000000000000000000000000000000000000000000000000
310
00000000000000000000000000000000000000000000000000000000000000000000000000000000000000000000000000000000000000000000000000000000000000000000000000000000000000000000000000000000000000000000000000000000000000000000000000000000000000000000000000000000000000
310
00
310
00000000000000000000000000000000000000000000000000000000000000000000000000000000000000000000000000000000000000000000000000000000000000000000000000000000000000000000000000000000000000000000000000000000000000000000000000000000000000000000000000000000000000
310
00000000000000000000000000000000000000000000000000000000000000000000000000000000000000000000000000000000000000000000000000000000000000000000000000000000000000000000000000000000000000000000000000000000000000000000000000000000000000000000000000000000000000
310
00
310
00000000000000000000000000000000000000000000000000000000000000000000000000000000000000000000000000000000000000000000000000000000000000000000000000000000000000000000000000000000000000000000000000000000000000000000000000000000000000000000000000000000000000
310
00000000000000000000000000000000000000000000000000000000000000000000000000000000000000000000000000000000000000000000000000000000000000000000000000000000000000000000000000000000000000000000000000000000000000000000000000000000000000000000000000000000000000
310
00
310
00000000000000000000000000000000000000000000000000000000000000000000000000000000000000000000000000000000000000000000000000000000000000000000000000000000000000000000000000000000000000000000000000000000000000000000000000000000000000000000000000000000000000
310
00000000000000000000000000000000000000000000000000000000000000000000000000000000000000000000000000000000000000000000000000000000000000000000000000000000000000000000000000000000000000000000000000000000000000000000000000000000000000000000000000000000000000
310
00
310
00000000000000000000000000000000000000000000000000000000000000000000000000000000000000000000000000000000000000000000000000000000000000000000000000000000000000000000000000000000000000000000000000000000000000000000000000000000000000000000000000000000000000
310
00000000000000000000000000000000000000000000000000000000000000000000000000000000000000000000000000000000000000000000000000000000000000000000000000000000000000000000000000000000000000000000000000000000000000000000000000000000000000000000000000000000000000
310
00
310
00000000000000000000000000000000000000000000000000000000000000000000000000000000000000000000000000000000000000000000000000000000000000000000000000000000000000000000000000000000000000000000000000000000000000000000000000000000000000000000000000000000000000
310
00000000000000000000000000000000000000000000000000000000000000000000000000000000000000000000000000000000000000000000000000000000000000000000000000000000000000000000000000000000000000000000000000000000000000000000000000000000000000000000000000000000000000
310
00
310
00000000000000000000000000000000000000000000000000000000000000000000000000000000000000000000000000000000000000000000000000000000000000000000000000000000000000000000000000000000000000000000000000000000000000000000000000000000000000000000000000000000000000
310
00000000000000000000000000000000000000000000000000000000000000000000000000000000000000000000000000000000000000000000000000000000000000000000000000000000000000000000000000000000000000000000000000000000000000000000000000000000000000000000000000000000000000
310
00
310
00000000000000000000000000000000000000000000000000000000000000000000000000000000000000000000000000000000000000000000000000000000000000000000000000000000000000000000000000000000000000000000000000000000000000000000000000000000000000
  0
XRECORD
  5
54B
102
{ACAD_REACTORS
330
57F
102
}
330
57F
100
AcDbXrecord
280
     1
310
DF56060034040701D0009A9999999999B93F000000000000000000000000000000000400000009000000000000000200000064000000640000000100000001000000190000007B14AE47E17A843F00000000004060409A9999999999B93F00000000004C2D41000000000070F7400000000000942141000000000000000000
310
0000000000000000000000000000000AD482040000000000000000000000000000F03F000000000000000000000000000030402D431CEBE2362A3F00000000000008400000000000000000009807C000000000000000007C1A61B9A711364020000000050000000A000000200000002000000020000000000000000000F03F
310
00
310
0000000000F03F000000000000F03F333333333333D33F333333333333D33F333333333333D33F000000000000F43F000000000000F43F000000000000F03F0200000064000000000000000000000000000840000000000000F83F00000000000000000000000000000000008056409A9999999999B93F0000000000000000
310
00000000000000000000000000000000000000000000000000000000000000000000000000000000000000000000000000000000000000000000000000000000000000000000000000000000000000000000000000000000000000000000000000000000000000000000000000000000000000000000000000000000000000
310
00
310
0000000000000000000000000000000000000000000000000000000000000000000000000000000000000000000000000000000000000000000000000000000000000000000000000000000000000000000000000000000000000000000000000000000000000000000000000000000000000000000000009A9999999999A9
310
3F9100000000000000000000000000000035A781D547960F40000000000000F03F000000000000F03F666666666666164000000000104068F200000000000000000000000000000000000000000000000000000000000000000000000000000000000000000000000000000000000000000000000000000000000000000000
310
00
310
00000000000000000000000000000000000000000000000000000000000000000000000000000000000000000000000000000000000000000000000000000000000000000000000000000000000000000000000000000000000000000000000000000000000000000000000000000000000000000000000000000000000000
310
000000000000000000000000000000000000000000000000000000000000000000000000000000000000000000000000000000000000000000000000FF000000000000000000000000000000000000000000000000000000000000000000000000000000000000000000000000000000000000000000000000000000000000
310
00
310
0000000000000000000000000000000000000000000000000000000000000000000000000000000000000000000000000000000000000000000000000000000000000000
  0
DICTIONARY
  5
570
330
56F
100
AcDbDictionary
280
     1
281
     1
  3
ADSK_XREC_LAYOUTTHUMBNAIL
360
571
  0
XRECORD
  5
571
102
{ACAD_REACTORS
330
570
102
}
330
570
100
AcDbXrecord
280
     1
310
28000000B40000008B0000000100080000000000BC61000000000000000000000001000000000000FFFFFF0000000000FFFFFF000000000000000000000000000000000000000000000000000000000000000000330000006600000099000000CC000000FF00000000330000333300006633000099330000CC330000FF3300
310
0000660000336600006666000099660000CC660000FF66000000990000339900006699000099990000CC990000FF99000000CC000033CC000066CC000099CC0000CCCC0000FFCC000000FF000033FF000066FF000099FF0000CCFF0000FFFF000000003300330033006600330099003300CC003300FF003300003333003333
310
33006633330099333300CC333300FF33330000663300336633006666330099663300CC663300FF66330000993300339933006699330099993300CC993300FF99330000CC330033CC330066CC330099CC3300CCCC3300FFCC330000FF330033FF330066FF330099FF3300CCFF3300FFFF330000006600330066006600660099
310
006600CC006600FF00660000336600333366006633660099336600CC336600FF33660000666600336666006666660099666600CC666600FF66660000996600339966006699660099996600CC996600FF99660000CC660033CC660066CC660099CC6600CCCC6600FFCC660000FF660033FF660066FF660099FF6600CCFF6600
310
FFFF660000009900330099006600990099009900CC009900FF00990000339900333399006633990099339900CC339900FF33990000669900336699006666990099669900CC669900FF66990000999900339999006699990099999900CC999900FF99990000CC990033CC990066CC990099CC9900CCCC9900FFCC990000FF99
310
0033FF990066FF990099FF9900CCFF9900FFFF99000000CC003300CC006600CC009900CC00CC00CC00FF00CC000033CC003333CC006633CC009933CC00CC33CC00FF33CC000066CC003366CC006666CC009966CC00CC66CC00FF66CC000099CC003399CC006699CC009999CC00CC99CC00FF99CC0000CCCC0033CCCC0066CC
310
CC0099CCCC00CCCCCC00FFCCCC0000FFCC0033FFCC0066FFCC0099FFCC00CCFFCC00FFFFCC000000FF003300FF006600FF009900FF00CC00FF00FF00FF000033FF003333FF006633FF009933FF00CC33FF00FF33FF000066FF003366FF006666FF009966FF00CC66FF00FF66FF000099FF003399FF006699FF009999FF00CC
310
99FF00FF99FF0000CCFF0033CCFF0066CCFF0099CCFF00CCCCFF00FFCCFF0000FFFF0033FFFF0066FFFF0099FFFF00CCFFFF00FFFFFF00000000000D0D0D001A1A1A00282828003535350043434300505050005D5D5D006B6B6B00787878008686860093939300A1A1A100AEAEAE00BBBBBB00C9C9C900D6D6D600E4E4E400
310
F1F1F100FFFFFF0000000000000000000000000000000000000000000000000000000000000000000000000000000000E2E2E2E2E2E2E2E2E2E2E2E2E2E2E2E2E2E2E2E2E2E2E2E2E2E2E2E2E2E2E2E2E2E2E2E2E2E2E2E2E2E2E2E2E2E2E2E2E2E2E2E2E2E2E2E2E2E2E2E2E2E2E2E2E2E2E2E2E2E2E2E2E2E2E2E2E2E2E2
310
E2E2E2E2E2E2E2E2E2E2E2E2E2E2E2E2E2E2E2E2E2E2E2E2E2E2E2E2E2E2E2E2E2E2E2E2E2E2E2E2E2E2E2E2E2E2E2E2E2E2E2E2E2E2E2E2E2E2E2E2E2E2E2E2E2E2E2E2E2E2E2E2E2E2E2E2E2E2E2E2E2E2E2E2E2E2E2E2E2E2E2E2E2E2E2E2E2E2E2E2EFF5F5F5F5F5F5F5F5F5F5F5F5F5F5F5F5F5F5F5F5F5F5F5F5F5F5
310
F5F5F5F5F5F5F5F5F5F5F5F5F5F5F5F5F5F5F5F5F5F5F5F5F5F5F5F5F5F5F5F5F5F5F5F5F5F5F5F5F5F5F5F5F5F5F5F5F5F5F5F5F5F5F5F5F5F5F5F5F5F5F5F5F5F5F5F5F5F5F5F5F5F5F5F5F5F5F5F5F5F5F5F5F5F5F5F5F5F5F5F5F5F5F5F5F5F5F5F5F5F5F5F5F5F5F5F5F5F5F5F5F5F5F5F5F5F5F5F5F5F5F5F5F5F5F5
310
F5F5F5F5F5F5F5F5F5F5F5F5F5F5F5F5F5F5F5F5F5F5F5F5E2E2EFF5F5F5F5F5F5F5F5F5F5F5F5F5F5F5F5F5F5F5F5F5F5F5F5F5F5F5F5F5F5F5F5F5F5F5F5F5F5F5F5F5F5F5F5F5F5F5F5F5F5F5F5F5F5F5F5F5F5F5F5F5F5F5F5F5F5F5F5F5F5F5F5F5F5F5F5F5F5F5F5F5F5F5F5F5F5F5F5F5F5F5F5F5F5F5F5F5F5F5F5
310
F5F5F5F5F5F5F5F5F5F5F5F5F5F5F5F5F5F5F5F5F5F5F5F5F5F5F5F5F5F5F5F5F5F5F5F5F5F5F5F5F5F5F5F5F5F5F5F5F5F5F5F5F5F5F5F5F5F5F5F5F5F5F5F5F5F5F5F5F5F5F5F5F5F5F5F5F5E2E2EFF5F5F5F5F5F5F5F5F5F5F5F5F5F5F5F5F5F5F5F5F5F5F5F5F5F5F5F5F5F5F5F5F5F5F5F5F5F5F5F5F5F5F5F5F5F5F5
310
F5F5F5F5F5F5F5F5F5F5F5F5F5F5F5F5F5F5F5F5F5F5F5F5F5F5F5F5F5F5F5F5F5F5F5F5F5F5F5F5F5F5F5F5F5F5F5F5F5F5F5F5F5F5F5F5F5F5F5F5F5F5F5F5F5F5F5F5F5F5F5F5F5F5F5F5F5F5F5F5F5F5F5F5F5F5F5F5F5F5F5F5F5F5F5F5F5F5F5F5F5F5F5F5F5F5F5F5F5F5F5F5F5F5F5F5F5F5F5F5F5F5F5F5F5F5F5
310
F5F5F5E2E2EFF5F5F5E2E2E2E2E2E2E2E2F5F5F5F5F5F5F5F5F5E2E2E2E2E2E2E2E2E2E2E2E2E2E2E2E2F5F5F5F5F5F5F5F5E2E2E2E2E2E2E2E2E2E2E2E2E2E2E2E2F5F5F5F5F5F5F5F5F5E2E2E2E2E2E2E2E2E2E2E2E2E2E2E2F5F5F5F5F5F5F5F5F5E2E2E2E2E2E2E2E2E2E2E2E2E2E2E2F5F5F5F5F5F5F5F5F5E2E2E2E2
310
E2E2E2E2E2E2E2E2E2E2E2E2F5F5F5F5F5F5F5F5E2E2E2E2E2E2E2E2E2E2E2E2E2E2E2E2F5F5F5F5F5F5F5F5F5E2E2E2E2E2E2E2E2F5F5F5E2E2EFF5F5F5E2F5F5F5F5F5F5F5F5F5F5F5F5F5F5F5F5F5F5F5F5F5F5F5F5F5F5F5F5F5F5F5F5F5F5F5F5F5F5F5F5F5F5F5F5F5F5F5F5F5F5F5F5F5F5F5F5F5F5F5F5F5F5F5F5
310
F5F5F5F5F5F5F5F5F5F5F5F5F5F5F5F5F5F5F5F5F5F5F5F5F5F5F5F5F5F5F5F5F5F5F5F5F5F5F5F5F5F5F5F5F5F5F5F5F5F5F5F5F5F5F5F5F5F5F5F5F5F5F5F5F5F5F5F5F5F5F5F5F5F5F5F5F5F5F5F5F5F5F5F5F5F5F5F5F5F5F5F5F5F5F5F5F5F5F5F5F5F5F5F5F5E2F5F5F5E2E2EFF5F5F5E2F5F5F5F5F5F5F5F5F5F5F5
310
F5F5F5F5F5F5F5F5F5F5F5F5F5F5F5F5F5F5F5F5F5F5F5F5F5F5F5F5F5F5F5F5F5F5F5F5F5F5F5F5F5F5F5F5F5F5F5F5F5F5F5F5F5F5F5F5F5F5F5F5F5F5F5F5F5F5F5F5F5F5F5F5F5F5F5F5F5F5F5F5F5F5F5F5F5F5F5F5F5F5F5F5F5F5F5F5F5F5F5F5F5F5F5F5F5F5F5F5F5F5F5F5F5F5F5F5F5F5F5F5F5F5F5F5F5F5F5
310
F5F5F5F5F5F5F5F5F5F5F5F5F5F5F5F5F5F5F5F5F5F5F5F5F5F5F5F5F5F5F5E2F5F5F5E2E2EFF5F5F5E2F5F5F5F5F5F5F5F5F5F5F5F5F5F5F5F5F5F5F5F5F5F5F5F5F5F5F5F5F5F5F5F5F5F5F5F5F5F5F5F5F5F5F5F5F5F5F5F5F5F5F5F5F5F5F5F5F5F5F5F5F5F5F5F5F5F5F5F5F5F5F5F5F5F5F5F5F5F5F5F5F5F5F5F5F5
310
F5F5F5F5F5F5F5F5F5F5F5F5F5F5F5F5F5F5F5F5F5F5F5F5F5F5F5F5F5F5F5F5F5F5F5F5F5F5F5F5F5F5F5F5F5F5F5F5F5F5F5F5F5F5F5F5F5F5F5F5F5F5F5F5F5F5F5F5F5F5F5F5F5F5F5F5F5F5F5F5F5F5F5F5E2F5F5F5E2E2EFF5F5F5E2F5F5F5F5F5F5F5F5F5F5F5F5F5F5F5F5F5F5F5F5F5F5F5F5F5F5F5F5F5F5F5F5
310
F5F5F5F5F5F5F5F5F5F5F5F5F5F5F5F5F5F5F5F5F5F5F5F5F5F5F5F5F5F5F5F5F5F5F5F5F5F5F5F5F5F5F5F5F5F5F5F5F5F5F5F5F5F5F5F5F5F5F5F5F5F5F5F5F5F5F5F5F5F5F5F5F5F5F5F5F5F5F5F5F5F5F5F5F5F5F5F5F5F5F5F5F5F5F5F5F5F5F5F5F5F5F5F5F5F5F5F5F5F5F5F5F5F5F5F5F5F5F5F5F5F5F5F5F5F5F5
310
F5F5F5F5F5F5F5F5F5F5E2F5F5F5E2E2EFF5F5F5E2F5F5F5F5F5F5F5F5F5F5F5F5F5F5F5F5F5F5F5F5F5F5F5F5F5F5F5F5F5F5F5F5F5F5F5F5F5F5F5F5F5F5F5F5F5F5F5F5F5F5F5F5F5F5F5F5F5F5F5F5F5F5F5F5F5F5F5F5F5F5F5F5F5F5F5F5F5F5F5F5F5F5F5F5F5F5F5F5F5F5F5F5F5F5F5F5F5F5F5F5F5F5F5F5F5F5
310
F5F5F5F5F5F5F5F5F5F5F5F5F5F5F5F5F5F5F5F5F5F5F5F5F5F5F5F5F5F5F5F5F5F5F5F5F5F5F5F5F5F5F5F5F5F5F5F5F5F5F5F5F5F5F5F5F5F5F5F5F5F5F5E2F5F5F5E2E2EFF5F5F5E2F5F5F5F5F5F5F5F5F5F5F5F5F5F5F5F5F5F5F5F5F5F5F5F5F5F5F5F5F5F5F5F5F5F5F5F5F5F5F5F5F5F5F5F5F5F5F5F5F5F5F5F5F5
310
F5F5F5F5F5F5F5F5F5F5F5F5F5F5F5F5F5F5F5F5F5F5F5F5F5F5F5F5F5F5F5F5F5F5F5F5F5F5F5F5F5F5F5F5F5F5F5F5F5F5F5F5F5F5F5F5F5F5F5F5F5F5F5F5F5F5F5F5F5F5F5F5F5F5F5F5F5F5F5F5F5F5F5F5F5F5F5F5F5F5F5F5F5F5F5F5F5F5F5F5F5F5F5F5F5F5F5F5F5F5F5F5F5F5F5F5E2F5F5F5E2E2EFF5F5F5E2
310
F5F5F5F5F5F5F5F5F5F5F5F5F5F5F5F5F5F5F5F5F5F5F5F5F5F5F5F5F5F5F5F5F5F5F5F5F5F5F5F5F5F5F5F5F5F5F5F5F5F5F5F5F5F5F5F5F5F5F5F5F5F5F5F5F5F5F5F5F5F5F5F5F5F5F5F5F5F5F5F5F5F5F5F5F5F5F5F5F5F5F5F5F5F5F5F5F5F5F5F5F5F5F5F5F5F5F5F5F5F5F5F5F5F5F5F5F5F5F5F5F5F5F5F5F5F5F5
310
F5F5F5F5F5F5F5F5F5F5F5F5F5F5F5F5F5F5F5F5F5F5F5F5F5F5F5F5F5F5F5F5F5F5F5F5F5F5F5F5F5F5E2F5F5F5E2E2EFF5F5F5E2F5F5F5F5F5F5F5F5F5F5F5F5F5F5F5F5F5F5F5F5F5F5F5F5F5F5F5F5F5F5F5F5F5F5F5F5F5F5F5F5F5F5F5F5F5F5F5F5F5F5F5F5F5F5F5F5F5F5F5F5F5F5F5F5F5F5F5F5F5F5F5F5F5F5
310
F5F5F5F5F5F5F5F5F5F5F5F5F5F5F5F5F5F5F5F5F5F5F5F5F5F5F5F5F5F5F5F5F5F5F5F5F5F5F5F5F5F5F5F5F5F5F5F5F5F5F5F5F5F5F5F5F5F5F5F5F5F5F5F5F5F5F5F5F5F5F5F5F5F5F5F5F5F5F5F5F5F5F5F5F5F5F5F5F5F5F5F5F5F5F5E2F5F5F5E2E2EFF5F5F5F5F5F5F5F5F5F5F5F5F5F5F5F5F5F5F5F5F5F5F5F5F5
310
F5F5F5F5F5F5F5F5F5F5F5F5F5F5F5F5F5F5F5F5F5F5F5F5F5F5F5F5F5F5F5F5F5F5F5F5F5F5F5F5F5F5F5F5F5F5F5F5F5F5F5F5F5F5F5F5F5F5F5F5F5F5F5F5F5F5F5F5F5F5F5F5F5F5F5F5F5F5F5F5F5F5F5F5F5F5F5F5F5F5F5F5F5F5F5F5F5F5F5F5F5F5F5F5F5F5F5F5F5F5F5F5F5F5F5F5F5F5F5F5F5F5F5F5F5F5F5
310
F5F5F5F5F5F5F5F5F5F5F5F5F5F5F5F5F5F5F5F5F5F5F5F5F5E2E2EFF5F5F5F5F5F5F5F5F5F5F5F5F5F5F5F5F5F5F5F5F5F5F5F5F5F5F5F5F5F5F5F5F5F5F5F5F5F5F5F5F5F5F5F5F5F5F5F5F5F5F5F5F5F5F5F5F5F5F5F5F5F5F5F5F5F5F5F5F5F5F5F5F5F5F5F5F5F5F5F5F5F5F5F5F5F5F5F5F5F5F5F5F5F5F5F5F5F5F5
310
F5F5F5F5F5F5F5F5F5F5F5F5F5F5F5F5F5F5F5F5F5F5F5F5F5F5F5F5F5F5F5F5F5F5F5F5F5F5F5F5F5F5F5F5F5F5F5F5F5F5F5F5F5F5F5F5F5F5F5F5F5F5F5F5F5F5F5F5F5F5F5F5F5F5F5F5F5F5E2E2EFF5F5F5F5F5F5F5F5F5F5F5F5F5F5F5F5F5F5F5F5F5F5F5F5F5F5F5F5F5F5F5F5F5F5F5F5F5F5F5F5F5F5F5F5F5F5
310
F5F5F5F5F5F5F5F5F5F5F5F5F5F5F5F5F5F5F5F5F5F5F5F5F5F5F5F5F5F5F5F5F5F5F5F5F5F5F5F5F5F5F5F5F5F5F5F5F5F5F5F5F5F5F5F5F5F5F5F5F5F5F5F5F5F5F5F5F5F5F5F5F5F5F5F5F5F5F5F5F5F5F5F5F5F5F5F5F5F5F5F5F5F5F5F5F5F5F5F5F5F5F5F5F5F5F5F5F5F5F5F5F5F5F5F5F5F5F5F5F5F5F5F5F5F5F5
310
F5F5F5F5E2E2EFF5F5F5F5F5F5F5F5F5F5F5F5F5F5F5F5F5F5F5F5F5F5F5F5F5F5F5F5F5F5F5F5F5F5F5F5F5F5F5F5F5F5F5F5F5F5F5F5F5F5F5F5F5F5F5F5F5F5F5F5F5F5F5F5F5F5F5F5F5F5F5F5F5F5F5F5F5F5F5F5F5F5F5F5F5F5F5F5F5F5F5F5F5F5F5F5F5F5F5F5F5F5F5F5F5F5F5F5F5F5F5F5F5F5F5F5F5F5F5F5
310
F5F5F5F5F5F5F5F5F5F5F5F5F5F5F5F5F5F5F5F5F5F5F5F5F5F5F5F5F5F5F5F5F5F5F5F5F5F5F5F5F5F5F5F5F5F5F5F5F5F5F5F5F5F5F5F5F5E2E2EFF5F5F5F5F5F5F5F5F5F5F5F5F5F5F5F5F5F5F5F5E2E2E2E2E2E2E2E2E2E2E2E2E2E2E2E2E2E2E2E2E2E2E2E2E2E2E2E2E2E2E2E2E2E2E2E2E2E2E2E2E2E2E2E2E2E2E2
310
E2E2E2E2E2E2E2E2E2E2E2E2E2E2E2E2E2E2E2E2E2E2E2E2E2E2E2E2E2E2E2E2E2E2E2E2E2E2E2E2E2E2E2E2E2E2E2E2E2E2E2E2E2E2E2E2E2E2E2E2E2E2E2E2E2E2E2E2E2E2E2E2E2E2E2E2E2E2E2E2E2E2E2E2E2E2E2E2E2E2F5F5F5F5F5F5F5F5F5F5F5F5F5F5F5F5F5F5F5F5E2E2EFF5F5F5F5F5F5F5F5F5F5F5F5F5F5
310
F5F5F5F5F5F5E2F5F5F5F5F5F5F5F5F5F5F5F5F5F5F5F5F5F5F5F5F5F5F5F5F5F5F5F5F5F5F5F5F5F5F5F5F5F5F5F5F5F5F5F5F5F5F5F5F5F5F5F5F5F5F5F5F5F5F5F5F5F5F5F5F5F5F5F5F5F5F5F5F5F5F5F5F5F5F5F5F5F5F5F5F5F5F5F5F5F5F5F5F5F5F5F5F5F5F5F5F5F5F5F5F5F5F5F5F5F5F5F5F5F5F5F5F5F5F5F5
310
F5F5F5F5F5F5F5F5F5F5F5F5F5F5F5E2F5F5F5F5F5F5F5F5F5F5F5F5F5F5F5F5F5F5F5F5E2E2EFF5F5F5F5F5F5F5F5F5F5F5F5F5F5F5F5F5F5F5F5E2F5F5F5F5F5F5F5F5F5F5F5F5F5F5F5F5F5F5F5F5F5F5F5F5F5F5F5F5F5F5F5F5F5F5F5F5F5F5F5F5F5F5F5F5F5F5F5F5F5F5F5F5F5F5F5F5F5F5F5F5F5F5F5F5F5F5F5
310
F5F5F5F5F5F5F5F5F5F5F5F5F5F5F5F5F5F5F5F5F5F5F5F5F5F5F5F5F5F5F5F5F5F5F5F5F5F5F5F5F5F5F5F5F5F5F5F5F5F5F5F5F5F5F5F5F5F5F5F5F5F5F5F5F5F5F5F5E2F5F5F5F5F5F5F5F5F5F5F5F5F5F5F5F5F5F5F5F5E2E2EFF5F5F5F5F5F5F5F5F5F5F5F5F5F5F5F5F5F5F5F5E2F5F5F5F5F5F5F5F5F5F5F5F5F5F5
310
F5F5F5F5F5F5F5F5F5F5F5F5F5F5F5F5F5F5F5F5F5F5F5F5F5F5F5F5F5F5F5F5F5F5F5F5F5F5F5F5F5F5F5F5F5F5F5F5F5F5F5F5F5F5F5F5F5F5F5F5F5F5F5F5F5F5F5F5F5F5F5F5F5F5F5F5F5F5F5F5F5F5F5F5F5F5F5F5F5F5F5F5F5F5F5F5F5F5F5F5F5F5F5F5F5F5F5F5F5F5F5F5F5F5F5F5F5F5F5F5F5E2F5F5F5F5F5
310
F5F5F5F5F5F5F5F5F5F5F5F5F5F5F5E2E2EFF5F5F5F5F5F5F5F5F5F5F5F5F5F5F5F5F5F5F5F5E2F5F5F5F5F5F5F5F5F5F5F5F5F5F5F5F5F5F5F5F5F5F5F5F5F5F5F5F5F5F5F5F5F5F5F5F5F5F5F5F5F5F5F5F5F5F5F5F5F5F5F5F5F5F5F5F5F5F5F5F5F5F5F5F5F5F5F5F5F5F5F5F5F5F5F5F5F5F5F5F5F5F5F5F5F5F5F5F5
310
F5F5F5F5F5F5F5F5F5F5F5F5F5F5F5F5F5F5F5F5F5F5F5F5F5F5F5F5F5F5F5F5F5F5F5F5F5F5F5F5F5F5F5F5F5F5F5E2F5F5F5F5F5F5F5F5F5F5F5F5F5F5F5F5F5F5F5F5E2E2EFF5F5F5E2F5F5F5F5F5F5F5F5F5F5F5F5F5F5F5F5E2F5F5F5F5F5F5F5F5F5F5F5F5F5F5F5F5F5F5F5F5F5F5F5F5F5F5F5F5F5F5F5F5F5F5F5
310
F5F5F5F5F5F5F5F5F5F5F5F5F5F5F5F5F5F5F5F5F5F5F5F5F5F5F5F5F5F5F5F5F5F5F5F5F5F5F5F5F5F5F5F5F5F5F5F5F5F5F5F5F5F5F5F5F5F5F5F5F5F5F5F5F5F5F5F5F5F5F5F5F5F5F5F5F5F5F5F5F5F5F5F5F5F5F5F5F5F5F5F5F5F5F5F5F5F5F5F5E2F5F5F5F5F5F5F5F5F5F5F5F5F5F5F5F5E2F5F5F5E2E2EFF5F5F5
310
E2F5F5F5F5F5F5F5F5F5F5F5F5F5F5F5F5E2F5F5F5F5F5F5F5F5F5F5F5F5F5F5F5F5F5F5F5F5F5F5F5F5F5F5F5F5F5F5F5F5F5F5F5F5F5F5F5F5F5F5F5F5F5F5F5F5F5F5F5F5F5F5F5F5F5F5F5F5F5F5F5F5F5F5F5F5F5F5F5F5F5F5F5F5F5F5F5F5F5F5F5F5F5F5F5F5F5F5F5F5F5F5F5F5F5F5F5F5F5F5F5F5F5F5F5F5F5
310
F5F5F5F5F5F5F5F5F5F5F5F5F5F5F5F5F5F5F5F5F5F5F5F5F5F5E2F5F5F5F5F5F5F5F5F5F5F5F5F5F5F5F5E2F5F5F5E2E2EFF5F5F5E2F5F5F5F5F5F5F5F5F5F5F5F5F5F5F5F5E2F5F5F5F5F5F5F5F5F5F5F5F5F5F5F5F5F5F5F5F5F5F5F5F5F5F5F5F5F5F5F5F5F5F5F5F5F5F5F5F5F5F5F5F5F5F5F5F5F5F5F5F5F5F5F5F5
310
F5F5F5F5F5F5F5F5F5F5F5F5F5F5F5F5F5F5F5F5F5F5F5F5F5F5F5F5F5F5F5F5F5F5F5F5F5F5F5F5F5F5F5F5F5F5F5F5F5F5F5F5F5F5F5F5F5F5F5F5F5F5F5F5F5F5F5F5F5F5F5F5F5F5F5F5F5F5F5E2F5F5F5F5F5F5F5F5F5F5F5F5F5F5F5F5E2F5F5F5E2E2EFF5F5F5E2F5F5F5F5F5F5F5F5F5F5F5F5F5F5F5F5E2F5F5F5
310
F5F5F5F5F5F5F5F5F5F5F5F5F5F5F5F5F5F5F5F5F5F5F5F5F5F5F5F5F5F5F5F5F5F5F5F5F5F5F5F5F5F5F5F5F5F5F5F5F5F5F5F5F5F5F5F5F5F5F5F5F5F5F5F5F5F5F5F5F5F5F5F5F5F5F5F5F5F5F5F5F5F5F5F5F5F5F5F5F5F5F5F5F5F5F5F5F5F5F5F5F5F5F5F5F5F5F5F5F5F5F5F5F5F5F5F5F5F5F5F5F5F5F5F5F5F5F5
310
F5F5F5F5F5E2F5F5F5F5F5F5F5F5F5F5F5F5F5F5F5F5E2F5F5F5E2E2EFF5F5F5E2F5F5F5F5F5F5F5F5F5F5F5F5F5F5F5F5E2F5F5F5F5F5F5F5F5F5F5F5F5F5F5F5F5F5F5F5F5F5F5F5F5F5F5F5F5F5F5F5F5F5F5F5F5F5F5F5F5F5F5F5F5F5F5F5F5F5F5F5F5F5F5F5F5F5F5F5F5F5F5F5F5F5F5F5F5F5F5F5F5F5F5F5F5F5
310
F5F5F5F5F5F5F5F5F5F5F5F5F5F5F5F5F5F5F5F5F5F5F5F5F5F5F5F5F5F5F5F5F5F5F5F5F5F5F5F5F5F5F5F5F5F5F5F5F5F5F5F5F5F5F5F5F5F5E2F5F5F5F5F5F5F5F5F5F5F5F5F5F5F5F5E2F5F5F5E2E2EFF5F5F5E2F5F5F5F5F5F5F5F5F5F5F5F5F5F5F5F5E2F5F5F5F5F5F5F5F5F5F5F5F5F5F5F5F5F5F5F5F5F5F5F5F5
310
F5F5F5F5F5F5F5F5F5F5F5F5F5F5F5F5F5F5F5F5F5F5F5F5F5F5F5F5F5F5F5F5F5F5F5F5F5F5F5F5F5F5F5F5F5F5F5F5F5F5F5F5F5F5F5F5F5F5F5F5F5F5F5F5F5F5F5F5F5F5F5F5F5F5F5F5F5F5F5F5F5F5F5F5F5F5F5F5F5F5F5F5F5F5F5F5F5F5F5F5F5F5F5F5F5F5F5F5F5F5F5E2F5F5F5F5F5F5F5F5F5F5F5F5F5F5F5
310
F5E2F5F5F5E2E2EFF5F5F5E2F5F5F5F5F5F5F5F5F5F5F5F5F5F5F5F5E2F5F5F5F5F5F5F5F5F5F5F5F5F5F5F5F5F5F5F5F5F5F5F5F5F5F5F5F5F5F5F5F5F5F5F5F5F5F5F5F5F5F5F5F5F5F5F5F5F5F5F5F5F5F5F5F5F5F5F5F5F5F5F5F5F5F5F5F5F5F5F5F5F5F5F5F5F5F5F5F5F5F5F5F5F5F5F5F5F5F5F5F5F5F5F5F5F5F5
310
F5F5F5F5F5F5F5F5F5F5F5F5F5F5F5F5F5F5F5F5F5F5F5F5F5F5F5F5F5F5F5F5F5F5F5F5F5E2F5F5F5F5F5F5F5F5F5F5F5F5F5F5F5F5E2F5F5F5E2E2EFF5F5F5E2F5F5F5F5F5F5F5F5F5F5F5F5F5F5F5F5E2F5F5F5F5F5F5F5F5F5F5F5F5F5F5F5F5F5F5F5F5F5F5F5F5F5F5F5F5F5F5F5F5F5F5F5F5F5F5F5F5F5F5F5F5F5
310
F5F5F5F5F5F5F5F5F5F5F5F5F5F5F5F5F5F5F5F5F5F5F5F5F5F5F5F5F5F5F5F5F5F5F5F5F5F5F5F5F5F5F5F5F5F5F5F5F5F5F5F5F5F5F5F5F5F5F5F5F5F5F5F5F5F5F5F5F5F5F5F5F5F5F5F5F5F5F5F5F5F5F5F5F5F5F5F5F5F5E2F5F5F5F5F5F5F5F5F5F5F5F5F5F5F5F5E2F5F5F5E2E2EFF5F5F5E2F5F5F5F5F5F5F5F5F5
310
F5F5F5F5F5F5F5E2F5F5F5F5F5F5F5F5F5F5F5F5F5F5F5F5F5F5F5F5F5F5F5F5F5F5F5F5F5F5F5F5F5F5F5F5F5F5F5F5F5F5F5F5F5F5F5F5F5F5F5F5F5F5F5F5F5F5F5F5F5F5F5F5F5F5F5F5F5F5F5F5F5F5F5F5F5F5F5F5F5F5F5F5F5F5F5F5F5F5F5F5F5F5F5F5F5F5F5F5F5F5F5F5F5F5F5F5F5F5F5F5F5F5F5F5F5F5F5
310
F5F5F5F5F5F5F5F5F5F5F5F5F5F5F5F5E2F5F5F5F5F5F5F5F5F5F5F5F5F5F5F5F5E2F5F5F5E2E2EFF5F5F5E2F5F5F5F5F5F5F5F5F5F5F5F5F5F5F5F5E2F5F5F5F5F5F5F5F5F5F5F5F5F5F5F5F5F5F5F5F5F5F5F5F5F5F5F5F5F5F5F5F5F5F5F5F5F5F5F5F5F5F5F5F5F5F5F5F5F5F5F5F5F5F5F5F5F5F5F5F5F5F5F5F5F5F5
310
F5F5F5F5F5F5F5F5F5F5F5F5F5F5F5F5F5F5F5F5F5F5F5F5F5F5F5F5F5F5F5F5F5F5F5F5F5F5F5F5F5F5F5F5F5F5F5F5F5F5F5F5F5F5F5F5F5F5F5F5F5F5F5F5F5F5F5F5F5E2F5F5F5F5F5F5F5F5F5F5F5F5F5F5F5F5E2F5F5F5E2E2EFF5F5F5E2F5F5F5F5F5F5F5F5F5F5F5F5F5F5F5F5E2F5F5F5F5F5F5F5F5F5F5F5F5F5
310
F5F5F5F5F5F5F5F5F5F5F5F5F5F5F5F5F5F5F5F5F5F5F5F5F5F5F5F5F5F5F5F5F5F5F5F5F5F5F5F5F5F5F5F5F5F5F5F5F5F5F5F5F5F5F5F5F5F5F5F5F5F5F5F5F5F5F5F5F5F5F5F5F5F5F5F5F5F5F5F5F5F5F5F5F5F5F5F5F5F5F5F5F5F5F5F5F5F5F5F5F5F5F5F5F5F5F5F5F5F5F5F5F5F5F5F5F5F5F5F5F5F5E2F5F5F5F5
310
F5F5F5F5F5F5F5F5F5F5F5F5E2F5F5F5E2E2EFF5F5F5E2F5F5F5F5F5F5F5F5F5F5F5F5F5F5F5F5E2F5F5F5F5F5F5F5F5F5F5F5F5F5F5F5F5F5F5F5F5F5F5F5F5F5F5F5F5F5F5F5F5F5F5F5F5F5F5F5F5F5F5F5F5F5F5F5F5F5F5F5F5F5F5F5F5F5F5F5F5F5F5F5F5F5F5F5F5F5F5F5F5F5F5F5F5F5F5F5F5F5F5F5F5F5F5F5
310
F5F5F5F5F5F5F5F5F5F5F5F5F5F5F5F5F5F5F5F5F5F5F5F5F5F5F5F5F5F5F5F5F5F5F5F5F5F5F5F5F5F5F5F5F5F5F5F5E2F5F5F5F5F5F5F5F5F5F5F5F5F5F5F5F5E2F5F5F5E2E2EFF5F5F5E2F5F5F5F5F5F5F5F5F5F5F5F5F5F5F5F5E2F5F5F5F5F5F5F5F5F5F5F5F5F5F5F5F5F5F5F5F5F5F5F5F5F5F5F5F5F5F5F5F5F5F5
310
F5F5F5F5F5F5F5F5F5F5F5F5F5F5F5F5F5F5F5F5F5F5F5F5F5F5F5F5F5F5F5F5F5F5F5F5F5F5F5F5F5F5F5F5F5F5F5F5F5F5F5F5F5F5F5F5F5F5F5F5F5F5F5F5F5F5F5F5F5F5F5F5F5F5F5F5F5F5F5F5F5F5F5F5F5F5F5F5F5F5F5F5F5F5F5F5F5F5F5F5F5E2F5F5F5F5F5F5F5F5F5F5F5F5F5F5F5F5E2F5F5F5E2E2EFF5F5
310
F5E2F5F5F5F5F5F5F5F5F5F5F5F5F5F5F5F5E2F5F5F5F5F5F5F5F5F5F5F5F5F5F5F5F5F5F5F5F5F5F5F5F5F5F5F5F5F5F5F5F5F5F5F5F5F5F5F5F5F5F5F5F5F5F5F5F5F5F5F5F5F5F5F5F5F5F5F5F5F5F5F5F5F5F5F5F5F5F5F5F5F5F5F5F5F5F5F5F5F5F5F5F5F5F5F5F5F5F5F5F5F5F5F5F5F5F5F5F5F5F5F5F5F5F5F5F5
310
F5F5F5F5F5F5F5F5F5F5F5F5F5F5F5F5F5F5F5F5F5F5F5F5F5F5F5E2F5F5F5F5F5F5F5F5F5F5F5F5F5F5F5F5E2F5F5F5E2E2EFF5F5F5E2F5F5F5F5F5F5F5F5F5F5F5F5F5F5F5F5E2F5F5F5F5F5F5F5F5F5F5F5F5F5F5F5F5F5F5F5F5F5F5F5F5F5F5F5F5F5F5F5F5F5F5F5F5F5F5F5F5F5F5F5F5F5F5F5F5F5F5F5F5F5F5F5
310
F5F5F5F5F5F5F5F5F5F5F5F5F5F5F5F5F5F5F5F5F5F5F5F5F5F5F5F5F5F5F5F5F5F5F5F5F5F5F5F5F5F5F5F5F5F5F5F5F5F5F5F5F5F5F5F5F5F5F5F5F5F5F5F5F5F5F5F5F5F5F5F5F5F5F5F5F5F5F5F5E2F5F5F5F5F5F5F5F5F5F5F5F5F5F5F5F5E2F5F5F5E2E2EFF5F5F5E2F5F5F5F5F5F5F5F5F5F5F5F5F5F5F5F5E2F5F5
310
F5F5F5F5F5F5F5F5F5F5F5F5F5F5F5F5F5F5F5F5F5F5F5F5F5F5F5F5F5F5F5F5F5F5F5F5F5F5F5F5F5F5F5F5F5F5F5F5F5F5F5F5F5F5F5F5F5F5F5F5F5F5F5F5F5F5F5F5F5F5F5F5F5F5F5F5F5F5F5F5F5F5F5F5F5F5F5F5F5F5F5F5F5F5F5F5F5F5F5F5F5F5F5F5F5F5F5F5F5F5F5F5F5F5F5F5F5F5F5F5F5F5F5F5F5F5F5
310
F5F5F5F5F5F5E2F5F5F5F5F5F5F5F5F5F5F5F5F5F5F5F5E2F5F5F5E2E2EFF5F5F5E2F5F5F5F5F5F5F5F5F5F5F5F5F5F5F5F5E2F5F5F5F5F5F5F5F5F5F5F5F5F5F5F5F5F5F5F5F5F5F5F5F5F5F5F5F5F5F5F5F5F5F5F5F5F5F5F5F5F5F5F5F5F5F5F5F5F5F5F5F5F5F5F5F5F5F5F5F5F5F5F5F5F5F5F5F5F5F5F5F5F5F5F5F5
310
F5F5F5F5F5F5F5F5F5F5F5F5F5F5F5F5F5F5F5F5F5F5F5F5F5F5F5F5F5F5F5F5F5F5F5F5F5F5F5F5F5F5F5F5F5F5F5F5F5F5F5F5F5F5F5F5F5F5F5E2F5F5F5F5F5F5F5F5F5F5F5F5F5F5F5F5E2F5F5F5E2E2EFF5F5F5F5F5F5F5F5F5F5F5F5F5F5F5F5F5F5F5F5E2F5F5F5F5F5F5F5F5F5F5F5F5F5F5F5F5F5F5F5F5F5F5F5
310
F5F5F5F5F5F5F5F5F5F5F5F5F5F5F5F5F5F5F5F5F5F5F5F5F5F5F5F5F5F5F5F5F5F5F5F5F5F5F5F5F5F5F5F5F5F5F5F5F5F5F5F5F5F5F5F5F5F5F5F5F5F5F5F5F5F5F5F5F5F5F5F5F5F5F5F5F5F5F5F5F5F5F5F5F5F5F5F5F5F5F5F5F5F5F5F5F5F5F5F5F5F5F5F5F5F5F5F5F5F5F5F5E2F5F5F5F5F5F5F5F5F5F5F5F5F5F5
310
F5F5F5F5F5F5E2E2EFF5F5F5F5F5F5F5F5F5F5F5F5F5F5F5F5F5F5F5F5E2F5F5F5F5F5F5F5F5F5F5F5F5F5F5F5F5F5F5F5F5F5F5F5F5F5F5F5F5F5F5F5F5F5F5F5F5F5F5F5F5F5F5F5F5F5F5F5F5F5F5F5F5F5F5F5F5F5F5F5F5F5F5F5F5F5F5F5F5F5F5F5F5F5F5F5F5F5F5F5F5F5F5F5F5F5F5F5F5F5F5F5F5F5F5F5F5F5
310
F5F5F5F5F5F5F5F5F5F5F5F5F5F5F5F5F5F5F5F5F5F5F5F5F5F5F5F5F5F5F5F5F5F5F5F5F5F5E2F5F5F5F5F5F5F5F5F5F5F5F5F5F5F5F5F5F5F5F5E2E2EFF5F5F5F5F5F5F5F5F5F5F5F5F5F5F5F5F5F5F5F5E2F5F5F5F5F5F5F5F5F5F5F5F5F5F5F5F5F5F5F5F5F5F5F5F5F5F5F5F5F5F5F5F5F5F5F5F5F5F5F5F5F5F5F5F5
310
F5F5F5F5F5F5F5F5F5F5F5F5F5F5F5F5F5F5F5F5F5F5F5F5F5F5F5F5F5F5F5F5F5F5F5F5F5F5F5F5F5F5F5F5F5F5F5F5F5F5F5F5F5F5F5F5F5F5F5F5F5F5F5F5F5F5F5F5F5F5F5F5F5F5F5F5F5F5F5F5F5F5F5F5F5F5F5F5F5F5F5E2F5F5F5F5F5F5F5F5F5F5F5F5F5F5F5F5F5F5F5F5E2E2EFF5F5F5F5F5F5F5F5F5F5F5F5
310
F5F5F5F5F5F5F5F5E2F5F5F5F5F5F5F5F5F5F5F5F5F5F5F5F5F5F5F5F5F5F5F5F5F5F5F5F5F5F5F5F5F5F5F5F5F5F5F5F5F5F5F5F5F5F5F5F5F5F5F5F5F5F5F5F5F5F5F5F5F5F5F5F5F5F5F5F5F5F5F5F5F5F5F5F5F5F5F5F5F5F5F5F5F5F5F5F5F5F5F5F5F5F5F5F5F5F5F5F5F5F5F5F5F5F5F5F5F5F5F5F5F5F5F5F5F5F5
310
F5F5F5F5F5F5F5F5F5F5F5F5F5F5F5F5F5E2F5F5F5F5F5F5F5F5F5F5F5F5F5F5F5F5F5F5F5F5E2E2EFF5F5F5F5F5F5F5F5F5F5F5F5F5F5F5F5F5F5F5F5E2F5F5F5F5F5F5F5F5F5F5F5F5F5F5F5F5F5F5F5F5F5F5F5F5F5F5F5F5F5F5F5F5F5F5F5F5F5F5F5F5F5F5F5F5F5F5F5F5F5F5F5F5F5F5F5F5F5F5F5F5F5F5F5F5F5
310
F5F5F5F5F5F5F5F5F5F5F5F5F5F5F5F5F5F5F5F5F5F5F5F5F5F5F5F5F5F5F5F5F5F5F5F5F5F5F5F5F5F5F5F5F5F5F5F5F5F5F5F5F5F5F5F5F5F5F5F5F5F5F5F5F5F5F5F5F5F5E2F5F5F5F5F5F5F5F5F5F5F5F5F5F5F5F5F5F5F5F5E2E2EFF5F5F5F5F5F5F5F5F5F5F5F5F5F5F5F5F5F5F5F5E2F5F5F5F5F5F5F5F5F5F5F5F5
310
F5F5F5F5F5F5F5F5F5F5F5F5F5F5F5F5F5F5F5F5F5F5F5F5F5F5F5F5F5F5F5F5F5F5F5F5F5F5F5F5F5F5F5F5F5F5F5F5F5F5F5F5F5F5F5F5F5F5F5F5F5F5F5F5F5F5F5F5F5F5F5F5F5F5F5F5F5F5F5F5F5F5F5F5F5F5F5F5F5F5F5F5F5F5F5F5F5F5F5F5F5F5F5F5F5F5F5F5F5F5F5F5F5F5F5F5F5F5F5F5F5F5F5E2F5F5F5
310
F5F5F5F5F5F5F5F5F5F5F5F5F5F5F5F5F5E2E2EFF5F5F5F5F5F5F5F5F5F5F5F5F5F5F5F5F5F5F5F5E2F5F5F5F5F5F5F5F5F5F5F5F5F5F5F5F5F5F5F5F5F5F5F5F5F5F5F5F5F5F5F5F5F5F5F5F5F5F5F5F5F5F5F5F5F5F5F5F5F5F5F5F5F5F5F5F5F5F5F5F5F5F5F5F5F5F5F5F5F5F5F5F5F5F5F5F5F5F5F5F5F5F5F5F5F5F5
310
F5F5F5F5F5F5F5F5F5F5F5F5F5F5F5F5F5F5F5F5F5F5F5F5F5F5F5F5F5F5F5F5F5F5F5F5F5F5F5F5F5F5F5F5F5F5F5F5F5E2F5F5F5F5F5F5F5F5F5F5F5F5F5F5F5F5F5F5F5F5E2E2EFF5F5F5F5F5F5F5F5F5F5F5F5F5F5F5F5F5F5F5F5E2F5F5F5F5F5F5F5F5F5F5F5F5F5F5F5F5F5F5F5F5F5F5F5F5F5F5F5F5F5F5F5F5F5
310
F5F5F5F5F5F5F5F5F5F5F5F5F5F5F5F5F5F5F5F5F5F5F5F5F5F5F5F5F5F5F5F5F5F5F5F5F5F5F5F5F5F5F5F5F5F5F5F5F5F5F5F5F5F5F5F5F5F5F5F5F5F5F5F5F5F5F5F5F5F5F5F5F5F5F5F5F5F5F5F5F5F5F5F5F5F5F5F5F5F5F5F5F5F5F5F5F5F5F5F5F5F5E2F5F5F5F5F5F5F5F5F5F5F5F5F5F5F5F5F5F5F5F5E2E2EFF5
310
F5F5F5F5F5F5F5F5F5F5F5F5F5F5F5F5F5F5F5E2F5F5F5F5F5F5F5F5F5F5F5F5F5F5F5F5F5F5F5F5F5F5F5F5F5F5F5F5F5F5F5F5F5F5F5F5F5F5F5F5F5F5F5F5F5F5F5F5F5F5F5F5F5F5F5F5F5F5F5F5F5F5F5F5F5F5F5F5F5F5F5F5F5F5F5F5F5F5F5F5F5F5F5F5F5F5F5F5F5F5F5F5F5F5F5F5F5F5F5F5F5F5F5F5F5F5F5
310
F5F5F5F5F5F5F5F5F5F5F5F5F5F5F5F5F5F5F5F5F5F5F5F5F5F5F5F5E2F5F5F5F5F5F5F5F5F5F5F5F5F5F5F5F5F5F5F5F5E2E2EFF5F5F5E2F5F5F5F5F5F5F5F5F5F5F5F5F5F5F5F5E2F5F5F5F5F5F5F5F5F5F5F5F5F5F5F5F5F5F5F5F5F5F5F5F5F5F5F5F5F5F5F5F5F5F5F5F5F5F5F5F5F5F5F5F5F5F5F5F5F5F5F5F5F5F5
310
F5F5F5F5F5F5F5F5F5F5F5F5F5F5F5F5F5F5F5F5F5F5F5F5F5F5F5F5F5F5F5F5F5F5F5F5F5F5F5F5F5F5F5F5F5F5F5F5F5F5F5F5F5F5F5F5F5F5F5F5F5F5F5F5F5F5F5F5F5F5F5F5F5F5F5F5F5F5F5F5F5E2F5F5F5F5F5F5F5F5F5F5F5F5F5F5F5F5E2F5F5F5E2E2EFF5F5F5E2F5F5F5F5F5F5F5F5F5F5F5F5F5F5F5F5E2F5
310
F5F5F5F5F5F5F5F5F5F5F5F5F5F5F5F5F5F5F5F5F5F5F5F5F5F5F5F5F5F5F5F5F5F5F5F5F5F5F5F5F5F5F5F5F5F5F5F5F5F5F5F5F5F5F5F5F5F5F5F5F5F5F5F5F5F5F5F5F5F5F5F5F5F5F5F5F5F5F5F5F5F5F5F5F5F5F5F5F5F5F5F5F5F5F5F5F5F5F5F5F5F5F5F5F5F5F5F5F5F5F5F5F5F5F5F5F5F5F5F5F5F5F5F5F5F5F5
310
F5F5F5F5F5F5F5E2F5F5F5F5F5F5F5F5F5F5F5F5F5F5F5F5E2F5F5F5E2E2EFF5F5F5E2F5F5F5F5F5F5F5F5F5F5F5F5F5F5F5F5E2F5F5F5F5F5F5F5F5F5F5F5F5F5F5F5F5F5F5F5F5F5F5F5F5F5F5F5F5F5F5F5F5F5F5F5F5F5F5F5F5F5F5F5F5F5F5F5F5F5F5F5F5F5F5F5F5F5F5F5F5F5F5F5F5F5F5F5F5F5F5F5F5F5F5F5
310
F5F5F5F5F5F5F5F5F5F5F5F5F5F5F5F5F5F5F5F5F5F5F5F5F5F5F5F5F5F5F5F5F5F5F5F5F5F5F5F5F5F5F5F5F5F5F5F5F5F5F5F5F5F5F5F5F5F5F5F5E2F5F5F5F5F5F5F5F5F5F5F5F5F5F5F5F5E2F5F5F5E2E2EFF5F5F5E2F5F5F5F5F5F5F5F5F5F5F5F5F5F5F5F5E2F5F5F5F5F5F5F5F5F5F5F5F5F5F5F5F5F5F5F5F5F5F5
310
F5F5F5F5F5F5F5F5F5F5F5F5F5F5F5F5F5F5F5F5F5F5F5F5F5F5F5F5F5F5F5F5F5F5F5F5F5F5F5F5F5F5F5F5F5F5F5F5F5F5F5F5F5F5F5F5F5F5F5F5F5F5F5F5F5F5F5F5F5F5F5F5F5F5F5F5F5F5F5F5F5F5F5F5F5F5F5F5F5F5F5F5F5F5F5F5F5F5F5F5F5F5F5F5F5F5F5F5F5F5F5F5F5E2F5F5F5F5F5F5F5F5F5F5F5F5F5
310
F5F5F5E2F5F5F5E2E2EFF5F5F5E2F5F5F5F5F5F5F5F5F5F5F5F5F5F5F5F5E2F5F5F5F5F5F5F5F5F5F5F5F5F5F5F5F5F5F5F5F5F5F5F5F5F5F5F5F5F5F5F5F5F5F5F5F5F5F5F5F5F5F5F5F5F5F5F5F5F5F5F5F5F5F5F5F5F5F5F5F5F5F5F5F5F5F5F5F5F5F5F5F5F5F5F5F5F5F5F5F5F5F5F5F5F5F5F5F5F5F5F5F5F5F5F5F5
310
F5F5F5F5F5F5F5F5F5F5F5F5F5F5F5F5F5F5F5F5F5F5F5F5F5F5F5F5F5F5F5F5F5F5F5F5F5F5F5E2F5F5F5F5F5F5F5F5F5F5F5F5F5F5F5F5E2F5F5F5E2E2EFF5F5F5E2F5F5F5F5F5F5F5F5F5F5F5F5F5F5F5F5E2F5F5F5F5F5F5F5F5F5F5F5F5F5F5F5F5F5F5F5F5F5F5F5F5F5F5F5F5F5F5F5F5F5F5F5F5F5F5F5F5F5F5F5
310
F5F5F5F5F5F5F5F5F5F5F5F5F5F5F5F5F5F5F5F5F5F5F5F5F5F5F5F5F5F5F5F5F5F5F5F5F5F5F5F5F5F5F5F5F5F5F5F5F5F5F5F5F5F5F5F5F5F5F5F5F5F5F5F5F5F5F5F5F5F5F5F5F5F5F5F5F5F5F5F5F5F5F5F5F5F5F5F5F5F5F5F5E2F5F5F5F5F5F5F5F5F5F5F5F5F5F5F5F5E2F5F5F5E2E2EFF5F5F5E2F5F5F5F5F5F5F5
310
F5F5F5F5F5F5F5F5F5E2F5F5F5F5F5F5F5F5F5F5F5F5F5F5F5F5F5F5F5F5F5F5F5F5F5F5F5F5F5F5F5F5F5F5F5F5F5F5F5F5F5F5F5F5F5F5F5F5F5F5F5F5F5F5F5F5F5F5F5F5F5F5F5F5F5F5F5F5F5F5F5F5F5F5F5F5F5F5F5F5F5F5F5F5F5F5F5F5F5F5F5F5F5F5F5F5F5F5F5F5F5F5F5F5F5F5F5F5F5F5F5F5F5F5F5F5F5
310
F5F5F5F5F5F5F5F5F5F5F5F5F5F5F5F5F5F5E2F5F5F5F5F5F5F5F5F5F5F5F5F5F5F5F5E2F5F5F5E2E2EFF5F5F5E2F5F5F5F5F5F5F5F5F5F5F5F5F5F5F5F5E2F5F5F5F5F5F5F5F5F5F5F5F5F5F5F5F5F5F5F5F5F5F5F5F5F5F5F5F5F5F5F5F5F5F5F5F5F5F5F5F5F5F5F5F5F5F5F5F5F5F5F5F5F5F5F5F5F5F5F5F5F5F5F5F5
310
F5F5F5F5F5F5F5F5F5F5F5F5F5F5F5F5F5F5F5F5F5F5F5F5F5F5F5F5F5F5F5F5F5F5F5F5F5F5F5F5F5F5F5F5F5F5F5F5F5F5F5F5F5F5F5F5F5F5F5F5F5F5F5F5F5F5F5F5F5F5F5E2F5F5F5F5F5F5F5F5F5F5F5F5F5F5F5F5E2F5F5F5E2E2EFF5F5F5E2F5F5F5F5F5F5F5F5F5F5F5F5F5F5F5F5E2F5F5F5F5F5F5F5F5F5F5F5
310
F5F5F5F5F5F5F5F5F5F5F5F5F5F5F5F5F5F5F5F5F5F5F5F5F5F5F5F5F5F5F5F5F5F5F5F5F5F5F5F5F5F5F5F5F5F5F5F5F5F5F5F5F5F5F5F5F5F5F5F5F5F5F5F5F5F5F5F5F5F5F5F5F5F5F5F5F5F5F5F5F5F5F5F5F5F5F5F5F5F5F5F5F5F5F5F5F5F5F5F5F5F5F5F5F5F5F5F5F5F5F5F5F5F5F5F5F5F5F5F5F5F5F5F5E2F5F5
310
F5F5F5F5F5F5F5F5F5F5F5F5F5F5E2F5F5F5E2E2EFF5F5F5E2F5F5F5F5F5F5F5F5F5F5F5F5F5F5F5F5E2F5F5F5F5F5F5F5F5F5F5F5F5F5F5F5F5F5F5F5F5F5F5F5F5F5F5F5F5F5F5F5F5F5F5F5F5F5F5F5F5F5F5F5F5F5F5F5F5F5F5F5F5F5F5F5F5F5F5F5F5F5F5F5F5F5F5F5F5F5F5F5F5F5F5F5F5F5F5F5F5F5F5F5F5F5
310
F5F5F5F5F5F5F5F5F5F5F5F5F5F5F5F5F5F5F5F5F5F5F5F5F5F5F5F5F5F5F5F5F5F5F5F5F5F5F5F5F5F5F5F5F5F5F5F5F5F5E2F5F5F5F5F5F5F5F5F5F5F5F5F5F5F5F5E2F5F5F5E2E2EFF5F5F5E2F5F5F5F5F5F5F5F5F5F5F5F5F5F5F5F5E2F5F5F5F5F5F5F5F5F5F5F5F5F5F5F5F5F5F5F5F5F5F5F5F5F5F5F5F5F5F5F5F5
310
F5F5F5F5F5F5F5F5F5F5F5F5F5F5F5F5F5F5F5F5F5F5F5F5F5F5F5F5F5F5F5F5F5F5F5F5F5F5F5F5F5F5F5F5F5F5F5F5F5F5F5F5F5F5F5F5F5F5F5F5F5F5F5F5F5F5F5F5F5F5F5F5F5F5F5F5F5F5F5F5F5F5F5F5F5F5F5F5F5F5F5F5F5F5F5F5F5F5F5F5F5F5F5E2F5F5F5F5F5F5F5F5F5F5F5F5F5F5F5F5E2F5F5F5E2E2EF
310
F5F5F5E2F5F5F5F5F5F5F5F5F5F5F5F5F5F5F5F5E2F5F5F5F5F5F5F5F5F5F5F5F5F5F5F5F5F5F5F5F5F5F5F5F5F5F5F5F5F5F5F5F5F5F5F5F5F5F5F5F5F5F5F5F5F5F5F5F5F5F5F5F5F5F5F5F5F5F5F5F5F5F5F5F5F5F5F5F5F5F5F5F5F5F5F5F5F5F5F5F5F5F5F5F5F5F5F5F5F5F5F5F5F5F5F5F5F5F5F5F5F5F5F5F5F5F5
310
F5F5F5F5F5F5F5F5F5F5F5F5F5F5F5F5F5F5F5F5F5F5F5F5F5F5F5F5F5E2F5F5F5F5F5F5F5F5F5F5F5F5F5F5F5F5E2F5F5F5E2E2EFF5F5F5E2F5F5F5F5F5F5F5F5F5F5F5F5F5F5F5F5E2F5F5F5F5F5F5F5F5F5F5F5F5F5F5F5F5F5F5F5F5F5F5F5F5F5F5F5F5F5F5F5F5F5F5F5F5F5F5F5F5F5F5F5F5F5F5F5F5F5F5F5F5F5
310
F5F5F5F5F5F5F5F5F5F5F5F5F5F5F5F5F5F5F5F5F5F5F5F5F5F5F5F5F5F5F5F5F5F5F5F5F5F5F5F5F5F5F5F5F5F5F5F5F5F5F5F5F5F5F5F5F5F5F5F5F5F5F5F5F5F5F5F5F5F5F5F5F5F5F5F5F5F5F5F5F5F5E2F5F5F5F5F5F5F5F5F5F5F5F5F5F5F5F5E2F5F5F5E2E2EFF5F5F5E2F5F5F5F5F5F5F5F5F5F5F5F5F5F5F5F5E2
310
F5F5F5F5F5F5F5F5F5F5F5F5F5F5F5F5F5F5F5F5F5F5F5F5F5F5F5F5F5F5F5F5F5F5F5F5F5F5F5F5F5F5F5F5F5F5F5F5F5F5F5F5F5F5F5F5F5F5F5F5F5F5F5F5F5F5F5F5F5F5F5F5F5F5F5F5F5F5F5F5F5F5F5F5F5F5F5F5F5F5F5F5F5F5F5F5F5F5F5F5F5F5F5F5F5F5F5F5F5F5F5F5F5F5F5F5F5F5F5F5F5F5F5F5F5F5F5
310
F5F5F5F5F5F5F5F5E2F5F5F5F5F5F5F5F5F5F5F5F5F5F5F5F5E2F5F5F5E2E2EFF5F5F5E2F5F5F5F5F5F5F5F5F5F5F5F5F5F5F5F5E2F5F5F5F5F5F5F5F5F5F5F5F5F5F5F5F5F5F5F5F5F5F5F5F5F5F5F5F5F5F5F5F5F5F5F5F5F5F5F5F5F5F5F5F5F5F5F5F5F5F5F5F5F5F5F5F5F5F5F5F5F5F5F5F5F5F5F5F5F5F5F5F5F5F5
310
F5F5F5F5F5F5F5F5F5F5F5F5F5F5F5F5F5F5F5F5F5F5F5F5F5F5F5F5F5F5F5F5F5F5F5F5F5F5F5F5F5F5F5F5F5F5F5F5F5F5F5F5F5F5F5F5F5F5F5F5F5E2F5F5F5F5F5F5F5F5F5F5F5F5F5F5F5F5E2F5F5F5E2E2EFF5F5F5E2F5F5F5F5F5F5F5F5F5F5F5F5F5F5F5F5E2F5F5F5F5F5F5F5F5F5F5F5F5F5F5F5F5F5F5F5F5F5
310
F5F5F5F5F5F5F5F5F5F5F5F5F5F5F5F5F5F5F5F5F5F5F5F5F5F5F5F5F5F5F5F5F5F5F5F5F5F5F5F5F5F5F5F5F5F5F5F5F5F5F5F5F5F5F5F5F5F5F5F5F5F5F5F5F5F5F5F5F5F5F5F5F5F5F5F5F5F5F5F5F5F5F5F5F5F5F5F5F5F5F5F5F5F5F5F5F5F5F5F5F5F5F5F5F5F5F5F5F5F5F5F5F5F5E2F5F5F5F5F5F5F5F5F5F5F5F5
310
F5F5F5F5E2F5F5F5E2E2EFF5F5F5E2F5F5F5F5F5F5F5F5F5F5F5F5F5F5F5F5E2F5F5F5F5F5F5F5F5F5F5F5F5F5F5F5F5F5F5F5F5F5F5F5F5F5F5F5F5F5F5F5F5F5F5F5F5F5F5F5F5F5F5F5F5F5F5F5F5F5F5F5F5F5F5F5F5F5F5F5F5F5F5F5F5F5F5F5F5F5F5F5F5F5F5F5F5F5F5F5F5F5F5F5F5F5F5F5F5F5F5F5F5F5F5F5
310
F5F5F5F5F5F5F5F5F5F5F5F5F5F5F5F5F5F5F5F5F5F5F5F5F5F5F5F5F5F5F5F5F5F5F5F5F5F5F5F5E2F5F5F5F5F5F5F5F5F5F5F5F5F5F5F5F5E2F5F5F5E2E2EFF5F5F5F5F5F5F5F5F5F5F5F5F5F5F5F5F5F5F5F5E2F5F5F5F5F5F5F5F5F5F5F5F5F5F5F5F5F5F5F5F5F5F5F5F5F5F5F5F5F5F5F5F5F5F5F5F5F5F5F5F5F5F5
310
F5F5F5F5F5F5F5F5F5F5F5F5F5F5F5F5F5F5F5F5F5F5F5F5F5F5F5F5F5F5F5F5F5F5F5F5F5F5F5F5F5F5F5F5F5F5F5F5F5F5F5F5F5F5F5F5F5F5F5F5F5F5F5F5F5F5F5F5F5F5F5F5F5F5F5F5F5F5F5F5F5F5F5F5F5F5F5F5F5F5F5F5F5E2F5F5F5F5F5F5F5F5F5F5F5F5F5F5F5F5F5F5F5F5E2E2EFF5F5F5F5F5F5F5F5F5F5
310
F5F5F5F5F5F5F5F5F5F5E2F5F5F5F5F5F5F5F5F5F5F5F5F5F5F5F5F5F5F5F5F5F5F5F5F5F5F5F5F5F5F5F5F5F5F5F5F5F5F5F5F5F5F5F5F5F5F5F5F5F5F5F5F5F5F5F5F5F5F5F5F5F5F5F5F5F5F5F5F5F5F5F5F5F5F5F5F5F5F5F5F5F5F5F5F5F5F5F5F5F5F5F5F5F5F5F5F5F5F5F5F5F5F5F5F5F5F5F5F5F5F5F5F5F5F5F5
310
F5F5F5F5F5F5F5F5F5F5F5F5F5F5F5F5F5F5F5E2F5F5F5F5F5F5F5F5F5F5F5F5F5F5F5F5F5F5F5F5E2E2EFF5F5F5F5F5F5F5F5F5F5F5F5F5F5F5F5F5F5F5F5E2F5F5F5F5F5F5F5F5F5F5F5F5F5F5F5F5F5F5F5F5F5F5F5F5F5F5F5F5F5F5F5F5F5F5F5F5F5F5F5F5F5F5F5F5F5F5F5F5F5F5F5F5F5F5F5F5F5F5F5F5F5F5F5
310
F5F5F5F5F5F5F5F5F5F5F5F5F5F5F5F5F5F5F5F5F5F5F5F5F5F5F5F5F5F5F5F5F5F5F5F5F5F5F5F5F5F5F5F5F5F5F5F5F5F5F5F5F5F5F5F5F5F5F5F5F5F5F5F5F5F5F5F5F5F5F5F5E2F5F5F5F5F5F5F5F5F5F5F5F5F5F5F5F5F5F5F5F5E2E2EFF5F5F5F5F5F5F5F5F5F5F5F5F5F5F5F5F5F5F5F5E2F5F5F5F5F5F5F5F5F5F5
310
F5F5F5F5F5F5F5F5F5F5F5F5F5F5F5F5F5F5F5F5F5F5F5F5F5F5F5F5F5F5F5F5F5F5F5F5F5F5F5F5F5F5F5F5F5F5F5F5F5F5F5F5F5F5F5F5F5F5F5F5F5F5F5F5F5F5F5F5F5F5F5F5F5F5F5F5F5F5F5F5F5F5F5F5F5F5F5F5F5F5F5F5F5F5F5F5F5F5F5F5F5F5F5F5F5F5F5F5F5F5F5F5F5F5F5F5F5F5F5F5F5F5F5F5F5E2F5
310
F5F5F5F5F5F5F5F5F5F5F5F5F5F5F5F5F5F5F5E2E2EFF5F5F5F5F5F5F5F5F5F5F5F5F5F5F5F5F5F5F5F5E2F5F5F5F5F5F5F5F5F5F5F5F5F5F5F5F5F5F5F5F5F5F5F5F5F5F5F5F5F5F5F5F5F5F5F5F5F5F5F5F5F5F5F5F5F5F5F5F5F5F5F5F5F5F5F5F5F5F5F5F5F5F5F5F5F5F5F5F5F5F5F5F5F5F5F5F5F5F5F5F5F5F5F5F5
310
F5F5F5F5F5F5F5F5F5F5F5F5F5F5F5F5F5F5F5F5F5F5F5F5F5F5F5F5F5F5F5F5F5F5F5F5F5F5F5F5F5F5F5F5F5F5F5F5F5F5F5E2F5F5F5F5F5F5F5F5F5F5F5F5F5F5F5F5F5F5F5F5E2E2EFF5F5F5F5F5F5F5F5F5F5F5F5F5F5F5F5F5F5F5F5E2F5F5F5F5F5F5F5F5F5F5F5F5F5F5F5F5F5F5F5F5F5F5F5F5F5F5F5F5F5F5F5
310
F5F5F5F5F5F5F5F5F5F5F5F5F5F5F5F5F5F5F5F5F5F5F5F5F5F5F5F5F5F5F5F5F5F5F5F5F5F5F5F5F5F5F5F5F5F5F5F5F5F5F5F5F5F5F5F5F5F5F5F5F5F5F5F5F5F5F5F5F5F5F5F5F5F5F5F5F5F5F5F5F5F5F5F5F5F5F5F5F5F5F5F5F5F5F5F5F5F5F5F5F5F5F5F5E2F5F5F5F5F5F5F5F5F5F5F5F5F5F5F5F5F5F5F5F5E2E2
310
EFF5F5F5F5F5F5F5F5F5F5F5F5F5F5F5F5F5F5F5F5E2F5F5F5F5F5F5F5F5F5F5F5F5F5F5F5F5F5F5F5F5F5F5F5F5F5F5F5F5F5F5F5F5F5F5F5F5F5F5F5F5F5F5F5F5F5F5F5F5F5F5F5F5F5F5F5F5F5F5F5F5F5F5F5F5F5F5F5F5F5F5F5F5F5F5F5F5F5F5F5F5F5F5F5F5F5F5F5F5F5F5F5F5F5F5F5F5F5F5F5F5F5F5F5F5F5
310
F5F5F5F5F5F5F5F5F5F5F5F5F5F5F5F5F5F5F5F5F5F5F5F5F5F5F5F5F5F5E2F5F5F5F5F5F5F5F5F5F5F5F5F5F5F5F5F5F5F5F5E2E2EFF5F5F5F5F5F5F5F5F5F5F5F5F5F5F5F5F5F5F5F5E2F5F5F5F5F5F5F5F5F5F5F5F5F5F5F5F5F5F5F5F5F5F5F5F5F5F5F5F5F5F5F5F5F5F5F5F5F5F5F5F5F5F5F5F5F5F5F5F5F5F5F5F5
310
F5F5F5F5F5F5F5F5F5F5F5F5F5F5F5F5F5F5F5F5F5F5F5F5F5F5F5F5F5F5F5F5F5F5F5F5F5F5F5F5F5F5F5F5F5F5F5F5F5F5F5F5F5F5F5F5F5F5F5F5F5F5F5F5F5F5F5F5F5F5F5F5F5F5F5F5F5F5F5F5F5F5F5E2F5F5F5F5F5F5F5F5F5F5F5F5F5F5F5F5F5F5F5F5E2E2EFF5F5F5F5F5F5F5F5F5F5F5F5F5F5F5F5F5F5F5F5
310
E2F5F5F5F5F5F5F5F5F5F5F5F5F5F5F5F5F5F5F5F5F5F5F5F5F5F5F5F5F5F5F5F5F5F5F5F5F5F5F5F5F5F5F5F5F5F5F5F5F5F5F5F5F5F5F5F5F5F5F5F5F5F5F5F5F5F5F5F5F5F5F5F5F5F5F5F5F5F5F5F5F5F5F5F5F5F5F5F5F5F5F5F5F5F5F5F5F5F5F5F5F5F5F5F5F5F5F5F5F5F5F5F5F5F5F5F5F5F5F5F5F5F5F5F5F5F5
310
F5F5F5F5F5F5F5F5F5E2F5F5F5F5F5F5F5F5F5F5F5F5F5F5F5F5F5F5F5F5E2E2EFF5F5F5E2F5F5F5F5F5F5F5F5F5F5F5F5F5F5F5F5E2F5F5F5F5F5F5F5F5F5F5F5F5F5F5F5F5F5F5F5F5F5F5F5F5F5F5F5F5F5F5F5F5F5F5F5F5F5F5F5F5F5F5F5F5F5F5F5F5F5F5F5F5F5F5F5F5F5F5F5F5F5F5F5F5F5F5F5F5F5F5F5F5F5
310
F5F5F5F5F5F5F5F5F5F5F5F5F5F5F5F5F5F5F5F5F5F5F5F5F5F5F5F5F5F5F5F5F5F5F5F5F5F5F5F5F5F5F5F5F5F5F5F5F5F5F5F5F5F5F5F5F5F5F5F5F5F5E2F5F5F5F5F5F5F5F5F5F5F5F5F5F5F5F5E2F5F5F5E2E2EFF5F5F5E2F5F5F5F5F5F5F5F5F5F5F5F5F5F5F5F5E2F5F5F5F5F5F5F5F5F5F5F5F5F5F5F5F5F5F5F5F5
310
F5F5F5F5F5F5F5F5F5F5F5F5F5F5F5F5F5F5F5F5F5F5F5F5F5F5F5F5F5F5F5F5F5F5F5F5F5F5F5F5F5F5F5F5F5F5F5F5F5F5F5F5F5F5F5F5F5F5F5F5F5F5F5F5F5F5F5F5F5F5F5F5F5F5F5F5F5F5F5F5F5F5F5F5F5F5F5F5F5F5F5F5F5F5F5F5F5F5F5F5F5F5F5F5F5F5F5F5F5F5F5F5F5F5F5E2F5F5F5F5F5F5F5F5F5F5F5
310
F5F5F5F5F5E2F5F5F5E2E2EFF5F5F5E2F5F5F5F5F5F5F5F5F5F5F5F5F5F5F5F5E2F5F5F5F5F5F5F5F5F5F5F5F5F5F5F5F5F5F5F5F5F5F5F5F5F5F5F5F5F5F5F5F5F5F5F5F5F5F5F5F5F5F5F5F5F5F5F5F5F5F5F5F5F5F5F5F5F5F5F5F5F5F5F5F5F5F5F5F5F5F5F5F5F5F5F5F5F5F5F5F5F5F5F5F5F5F5F5F5F5F5F5F5F5F5
310
F5F5F5F5F5F5F5F5F5F5F5F5F5F5F5F5F5F5F5F5F5F5F5F5F5F5F5F5F5F5F5F5F5F5F5F5F5F5F5F5F5E2F5F5F5F5F5F5F5F5F5F5F5F5F5F5F5F5E2F5F5F5E2E2EFF5F5F5E2F5F5F5F5F5F5F5F5F5F5F5F5F5F5F5F5E2F5F5F5F5F5F5F5F5F5F5F5F5F5F5F5F5F5F5F5F5F5F5F5F5F5F5F5F5F5F5F5F5F5F5F5F5F5F5F5F5F5
310
F5F5F5F5F5F5F5F5F5F5F5F5F5F5F5F5F5F5F5F5F5F5F5F5F5F5F5F5F5F5F5F5F5F5F5F5F5F5F5F5F5F5F5F5F5F5F5F5F5F5F5F5F5F5F5F5F5F5F5F5F5F5F5F5F5F5F5F5F5F5F5F5F5F5F5F5F5F5F5F5F5F5F5F5F5F5F5F5F5F5F5F5F5F5E2F5F5F5F5F5F5F5F5F5F5F5F5F5F5F5F5E2F5F5F5E2E2EFF5F5F5E2F5F5F5F5F5
310
F5F5F5F5F5F5F5F5F5F5F5E2F5F5F5F5F5F5F5F5F5F5F5F5F5F5F5F5F5F5F5F5F5F5F5F5F5F5F5F5F5F5F5F5F5F5F5F5F5F5F5F5F5F5F5F5F5F5F5F5F5F5F5F5F5F5F5F5F5F5F5F5F5F5F5F5F5F5F5F5F5F5F5F5F5F5F5F5F5F5F5F5F5F5F5F5F5F5F5F5F5F5F5F5F5F5F5F5F5F5F5F5F5F5F5F5F5F5F5F5F5F5F5F5F5F5F5
310
F5F5F5F5F5F5F5F5F5F5F5F5F5F5F5F5F5F5F5F5E2F5F5F5F5F5F5F5F5F5F5F5F5F5F5F5F5E2F5F5F5E2E2EFF5F5F5E2F5F5F5F5F5F5F5F5F5F5F5F5F5F5F5F5E2F5F5F5F5F5F5F5F5F5F5F5F5F5F5F5F5F5F5F5F5F5F5F5F5F5F5F5F5F5F5F5F5F5F5F5F5F5F5F5F5F5F5F5F5F5F5F5F5F5F5F5F5F5F5F5F5F5F5F5F5F5F5
310
F5F5F5F5F5F5F5F5F5F5F5F5F5F5F5F5F5F5F5F5F5F5F5F5F5F5F5F5F5F5F5F5F5F5F5F5F5F5F5F5F5F5F5F5F5F5F5F5F5F5F5F5F5F5F5F5F5F5F5F5F5F5F5F5F5F5F5F5F5F5F5F5F5E2F5F5F5F5F5F5F5F5F5F5F5F5F5F5F5F5E2F5F5F5E2E2EFF5F5F5E2F5F5F5F5F5F5F5F5F5F5F5F5F5F5F5F5E2F5F5F5F5F5F5F5F5F5
310
F5F5F5F5F5F5F5F5F5F5F5F5F5F5F5F5F5F5F5F5F5F5F5F5F5F5F5F5F5F5F5F5F5F5F5F5F5F5F5F5F5F5F5F5F5F5F5F5F5F5F5F5F5F5F5F5F5F5F5F5F5F5F5F5F5F5F5F5F5F5F5F5F5F5F5F5F5F5F5F5F5F5F5F5F5F5F5F5F5F5F5F5F5F5F5F5F5F5F5F5F5F5F5F5F5F5F5F5F5F5F5F5F5F5F5F5F5F5F5F5F5F5F5F5F5F5E2
310
F5F5F5F5F5F5F5F5F5F5F5F5F5F5F5F5E2F5F5F5E2E2EFF5F5F5E2F5F5F5F5F5F5F5F5F5F5F5F5F5F5F5F5E2F5F5F5F5F5F5F5F5F5F5F5F5F5F5F5F5F5F5F5F5F5F5F5F5F5F5F5F5F5F5F5F5F5F5F5F5F5F5F5F5F5F5F5F5F5F5F5F5F5F5F5F5F5F5F5F5F5F5F5F5F5F5F5F5F5F5F5F5F5F5F5F5F5F5F5F5F5F5F5F5F5F5F5
310
F5F5F5F5F5F5F5F5F5F5F5F5F5F5F5F5F5F5F5F5F5F5F5F5F5F5F5F5F5F5F5F5F5F5F5F5F5F5F5F5F5F5F5F5F5F5F5F5F5F5F5F5E2F5F5F5F5F5F5F5F5F5F5F5F5F5F5F5F5E2F5F5F5E2E2EFF5F5F5E2F5F5F5F5F5F5F5F5F5F5F5F5F5F5F5F5E2F5F5F5F5F5F5F5F5F5F5F5F5F5F5F5F5F5F5F5F5F5F5F5F5F5F5F5F5F5F5
310
F5F5F5F5F5F5F5F5F5F5F5F5F5F5F5F5F5F5F5F5F5F5F5F5F5F5F5F5F5F5F5F5F5F5F5F5F5F5F5F5F5F5F5F5F5F5F5F5F5F5F5F5F5F5F5F5F5F5F5F5F5F5F5F5F5F5F5F5F5F5F5F5F5F5F5F5F5F5F5F5F5F5F5F5F5F5F5F5F5F5F5F5F5F5F5F5F5F5F5F5F5F5F5F5F5E2F5F5F5F5F5F5F5F5F5F5F5F5F5F5F5F5E2F5F5F5E2
310
E2EFF5F5F5E2F5F5F5F5F5F5F5F5F5F5F5F5F5F5F5F5E2F5F5F5F5F5F5F5F5F5F5F5F5F5F5F5F5F5F5F5F5F5F5F5F5F5F5F5F5F5F5F5F5F5F5F5F5F5F5F5F5F5F5F5F5F5F5F5F5F5F5F5F5F5F5F5F5F5F5F5F5F5F5F5F5F5F5F5F5F5F5F5F5F5F5F5F5F5F5F5F5F5F5F5F5F5F5F5F5F5F5F5F5F5F5F5F5F5F5F5F5F5F5F5F5
310
F5F5F5F5F5F5F5F5F5F5F5F5F5F5F5F5F5F5F5F5F5F5F5F5F5F5F5F5F5F5F5E2F5F5F5F5F5F5F5F5F5F5F5F5F5F5F5F5E2F5F5F5E2E2EFF5F5F5E2F5F5F5F5F5F5F5F5F5F5F5F5F5F5F5F5E2F5F5F5F5F5F5F5F5F5F5F5F5F5F5F5F5F5F5F5F5F5F5F5F5F5F5F5F5F5F5F5F5F5F5F5F5F5F5F5F5F5F5F5F5F5F5F5F5F5F5F5
310
F5F5F5F5F5F5F5F5F5F5F5F5F5F5F5F5F5F5F5F5F5F5F5F5F5F5F5F5F5F5F5F5F5F5F5F5F5F5F5F5F5F5F5F5F5F5F5F5F5F5F5F5F5F5F5F5F5F5F5F5F5F5F5F5F5F5F5F5F5F5F5F5F5F5F5F5F5F5F5F5F5F5F5F5E2F5F5F5F5F5F5F5F5F5F5F5F5F5F5F5F5E2F5F5F5E2E2EFF5F5F5E2F5F5F5F5F5F5F5F5F5F5F5F5F5F5F5
310
F5E2F5F5F5F5F5F5F5F5F5F5F5F5F5F5F5F5F5F5F5F5F5F5F5F5F5F5F5F5F5F5F5F5F5F5F5F5F5F5F5F5F5F5F5F5F5F5F5F5F5F5F5F5F5F5F5F5F5F5F5F5F5F5F5F5F5F5F5F5F5F5F5F5F5F5F5F5F5F5F5F5F5F5F5F5F5F5F5F5F5F5F5F5F5F5F5F5F5F5F5F5F5F5F5F5F5F5F5F5F5F5F5F5F5F5F5F5F5F5F5F5F5F5F5F5F5
310
F5F5F5F5F5F5F5F5F5F5E2F5F5F5F5F5F5F5F5F5F5F5F5F5F5F5F5E2F5F5F5E2E2EFF5F5F5E2F5F5F5F5F5F5F5F5F5F5F5F5F5F5F5F5E2F5F5F5F5F5F5F5F5F5F5F5F5F5F5F5F5F5F5F5F5F5F5F5F5F5F5F5F5F5F5F5F5F5F5F5F5F5F5F5F5F5F5F5F5F5F5F5F5F5F5F5F5F5F5F5F5F5F5F5F5F5F5F5F5F5F5F5F5F5F5F5F5
310
F5F5F5F5F5F5F5F5F5F5F5F5F5F5F5F5F5F5F5F5F5F5F5F5F5F5F5F5F5F5F5F5F5F5F5F5F5F5F5F5F5F5F5F5F5F5F5F5F5F5F5F5F5F5F5F5F5F5F5F5F5F5F5E2F5F5F5F5F5F5F5F5F5F5F5F5F5F5F5F5E2F5F5F5E2E2EFF5F5F5E2F5F5F5F5F5F5F5F5F5F5F5F5F5F5F5F5E2F5F5F5F5F5F5F5F5F5F5F5F5F5F5F5F5F5F5F5
310
F5F5F5F5F5F5F5F5F5F5F5F5F5F5F5F5F5F5F5F5F5F5F5F5F5F5F5F5F5F5F5F5F5F5F5F5F5F5F5F5F5F5F5F5F5F5F5F5F5F5F5F5F5F5F5F5F5F5F5F5F5F5F5F5F5F5F5F5F5F5F5F5F5F5F5F5F5F5F5F5F5F5F5F5F5F5F5F5F5F5F5F5F5F5F5F5F5F5F5F5F5F5F5F5F5F5F5F5F5F5F5F5F5F5F5F5E2F5F5F5F5F5F5F5F5F5F5
310
F5F5F5F5F5F5E2F5F5F5E2E2EFF5F5F5E2F5F5F5F5F5F5F5F5F5F5F5F5F5F5F5F5E2F5F5F5F5F5F5F5F5F5F5F5F5F5F5F5F5F5F5F5F5F5F5F5F5F5F5F5F5F5F5F5F5F5F5F5F5F5F5F5F5F5F5F5F5F5F5F5F5F5F5F5F5F5F5F5F5F5F5F5F5F5F5F5F5F5F5F5F5F5F5F5F5F5F5F5F5F5F5F5F5F5F5F5F5F5F5F5F5F5F5F5F5F5
310
F5F5F5F5F5F5F5F5F5F5F5F5F5F5F5F5F5F5F5F5F5F5F5F5F5F5F5F5F5F5F5F5F5F5F5F5F5F5F5F5F5F5E2F5F5F5F5F5F5F5F5F5F5F5F5F5F5F5F5E2F5F5F5E2E2EFF5F5F5E2F5F5F5F5F5F5F5F5F5F5F5F5F5F5F5F5E2F5F5F5F5F5F5F5F5F5F5F5F5F5F5F5F5F5F5F5F5F5F5F5F5F5F5F5F5F5F5F5F5F5F5F5F5F5F5F5F5
310
F5F5F5F5F5F5F5F5F5F5F5F5F5F5F5F5F5F5F5F5F5F5F5F5F5F5F5F5F5F5F5F5F5F5F5F5F5F5F5F5F5F5F5F5F5F5F5F5F5F5F5F5F5F5F5F5F5F5F5F5F5F5F5F5F5F5F5F5F5F5F5F5F5F5F5F5F5F5F5F5F5F5F5F5F5F5F5F5F5F5F5F5F5F5F5E2F5F5F5F5F5F5F5F5F5F5F5F5F5F5F5F5E2F5F5F5E2E2EFF5F5F5E2F5F5F5F5
310
F5F5F5F5F5F5F5F5F5F5F5F5E2F5F5F5F5F5F5F5F5F5F5F5F5F5F5F5F5F5F5F5F5F5F5F5F5F5F5F5F5F5F5F5F5F5F5F5F5F5F5F5F5F5F5F5F5F5F5F5F5F5F5F5F5F5F5F5F5F5F5F5F5F5F5F5F5F5F5F5F5F5F5F5F5F5F5F5F5F5F5F5F5F5F5F5F5F5F5F5F5F5F5F5F5F5F5F5F5F5F5F5F5F5F5F5F5F5F5F5F5F5F5F5F5F5F5
310
F5F5F5F5F5F5F5F5F5F5F5F5F5F5F5F5F5F5F5F5F5E2F5F5F5F5F5F5F5F5F5F5F5F5F5F5F5F5E2F5F5F5E2E2EFF5F5F5F5F5F5F5F5F5F5F5F5F5F5F5F5F5F5F5F5E2F5F5F5F5F5F5F5F5F5F5F5F5F5F5F5F5F5F5F5F5F5F5F5F5F5F5F5F5F5F5F5F5F5F5F5F5F5F5F5F5F5F5F5F5F5F5F5F5F5F5F5F5F5F5F5F5F5F5F5F5F5
310
F5F5F5F5F5F5F5F5F5F5F5F5F5F5F5F5F5F5F5F5F5F5F5F5F5F5F5F5F5F5F5F5F5F5F5F5F5F5F5F5F5F5F5F5F5F5F5F5F5F5F5F5F5F5F5F5F5F5F5F5F5F5F5F5F5F5F5F5F5F5F5F5F5F5E2F5F5F5F5F5F5F5F5F5F5F5F5F5F5F5F5F5F5F5F5E2E2EFF5F5F5F5F5F5F5F5F5F5F5F5F5F5F5F5F5F5F5F5E2F5F5F5F5F5F5F5F5
310
F5F5F5F5F5F5F5F5F5F5F5F5F5F5F5F5F5F5F5F5F5F5F5F5F5F5F5F5F5F5F5F5F5F5F5F5F5F5F5F5F5F5F5F5F5F5F5F5F5F5F5F5F5F5F5F5F5F5F5F5F5F5F5F5F5F5F5F5F5F5F5F5F5F5F5F5F5F5F5F5F5F5F5F5F5F5F5F5F5F5F5F5F5F5F5F5F5F5F5F5F5F5F5F5F5F5F5F5F5F5F5F5F5F5F5F5F5F5F5F5F5F5F5F5F5F5F5
310
E2F5F5F5F5F5F5F5F5F5F5F5F5F5F5F5F5F5F5F5F5E2E2EFF5F5F5F5F5F5F5F5F5F5F5F5F5F5F5F5F5F5F5F5E2F5F5F5F5F5F5F5F5F5F5F5F5F5F5F5F5F5F5F5F5F5F5F5F5F5F5F5F5F5F5F5F5F5F5F5F5F5F5F5F5F5F5F5F5F5F5F5F5F5F5F5F5F5F5F5F5F5F5F5F5F5F5F5F5F5F5F5F5F5F5F5F5F5F5F5F5F5F5F5F5F5F5
310
F5F5F5F5F5F5F5F5F5F5F5F5F5F5F5F5F5F5F5F5F5F5F5F5F5F5F5F5F5F5F5F5F5F5F5F5F5F5F5F5F5F5F5F5F5F5F5F5F5F5F5F5F5E2F5F5F5F5F5F5F5F5F5F5F5F5F5F5F5F5F5F5F5F5E2E2EFF5F5F5F5F5F5F5F5F5F5F5F5F5F5F5F5F5F5F5F5E2F5F5F5F5F5F5F5F5F5F5F5F5F5F5F5F5F5F5F5F5F5F5F5F5F5F5F5F5F5
310
F5F5F5F5F5F5F5F5F5F5F5F5F5F5F5F5F5F5F5F5F5F5F5F5F5F5F5F5F5F5F5F5F5F5F5F5F5F5F5F5F5F5F5F5F5F5F5F5F5F5F5F5F5F5F5F5F5F5F5F5F5F5F5F5F5F5F5F5F5F5F5F5F5F5F5F5F5F5F5F5F5F5F5F5F5F5F5F5F5F5F5F5F5F5F5F5F5F5F5F5F5F5F5F5F5F5E2F5F5F5F5F5F5F5F5F5F5F5F5F5F5F5F5F5F5F5F5
310
E2E2EFF5F5F5F5F5F5F5F5F5F5F5F5F5F5F5F5F5F5F5F5E2F5F5F5F5F5F5F5F5F5F5F5F5F5F5F5F5F5F5F5F5F5F5F5F5F5F5F5F5F5F5F5F5F5F5F5F5F5F5F5F5F5F5F5F5F5F5F5F5F5F5F5F5F5F5F5F5F5F5F5F5F5F5F5F5F5F5F5F5F5F5F5F5F5F5F5F5F5F5F5F5F5F5F5F5F5F5F5F5F5F5F5F5F5F5F5F5F5F5F5F5F5F5F5
310
F5F5F5F5F5F5F5F5F5F5F5F5F5F5F5F5F5F5F5F5F5F5F5F5F5F5F5F5F5F5F5F5E2F5F5F5F5F5F5F5F5F5F5F5F5F5F5F5F5F5F5F5F5E2E2EFF5F5F5F5F5F5F5F5F5F5F5F5F5F5F5F5F5F5F5F5E2F5F5F5F5F5F5F5F5F5F5F5F5F5F5F5F5F5F5F5F5F5F5F5F5F5F5F5F5F5F5F5F5F5F5F5F5F5F5F5F5F5F5F5F5F5F5F5F5F5F5
310
F5F5F5F5F5F5F5F5F5F5F5F5F5F5F5F5F5F5F5F5F5F5F5F5F5F5F5F5F5F5F5F5F5F5F5F5F5F5F5F5F5F5F5F5F5F5F5F5F5F5F5F5F5F5F5F5F5F5F5F5F5F5F5F5F5F5F5F5F5F5F5F5F5F5F5F5F5F5F5F5F5F5F5F5F5E2F5F5F5F5F5F5F5F5F5F5F5F5F5F5F5F5F5F5F5F5E2E2EFF5F5F5F5F5F5F5F5F5F5F5F5F5F5F5F5F5F5
310
F5F5E2F5F5F5F5F5F5F5F5F5F5F5F5F5F5F5F5F5F5F5F5F5F5F5F5F5F5F5F5F5F5F5F5F5F5F5F5F5F5F5F5F5F5F5F5F5F5F5F5F5F5F5F5F5F5F5F5F5F5F5F5F5F5F5F5F5F5F5F5F5F5F5F5F5F5F5F5F5F5F5F5F5F5F5F5F5F5F5F5F5F5F5F5F5F5F5F5F5F5F5F5F5F5F5F5F5F5F5F5F5F5F5F5F5F5F5F5F5F5F5F5F5F5F5F5
310
F5F5F5F5F5F5F5F5F5F5F5E2F5F5F5F5F5F5F5F5F5F5F5F5F5F5F5F5F5F5F5F5E2E2EFF5F5F5F5F5F5F5F5F5F5F5F5F5F5F5F5F5F5F5F5E2F5F5F5F5F5F5F5F5F5F5F5F5F5F5F5F5F5F5F5F5F5F5F5F5F5F5F5F5F5F5F5F5F5F5F5F5F5F5F5F5F5F5F5F5F5F5F5F5F5F5F5F5F5F5F5F5F5F5F5F5F5F5F5F5F5F5F5F5F5F5F5
310
F5F5F5F5F5F5F5F5F5F5F5F5F5F5F5F5F5F5F5F5F5F5F5F5F5F5F5F5F5F5F5F5F5F5F5F5F5F5F5F5F5F5F5F5F5F5F5F5F5F5F5F5F5F5F5F5F5F5F5F5F5F5F5F5E2F5F5F5F5F5F5F5F5F5F5F5F5F5F5F5F5F5F5F5F5E2E2EFF5F5F5F5F5F5F5F5F5F5F5F5F5F5F5F5F5F5F5F5E2F5F5F5F5F5F5F5F5F5F5F5F5F5F5F5F5F5F5
310
F5F5F5F5F5F5F5F5F5F5F5F5F5F5F5F5F5F5F5F5F5F5F5F5F5F5F5F5F5F5F5F5F5F5F5F5F5F5F5F5F5F5F5F5F5F5F5F5F5F5F5F5F5F5F5F5F5F5F5F5F5F5F5F5F5F5F5F5F5F5F5F5F5F5F5F5F5F5F5F5F5F5F5F5F5F5F5F5F5F5F5F5F5F5F5F5F5F5F5F5F5F5F5F5F5F5F5F5F5F5F5F5F5F5F5F5F5E2F5F5F5F5F5F5F5F5F5
310
F5F5F5F5F5F5F5F5F5F5F5E2E2EFF5F5F5E2F5F5F5F5F5F5F5F5F5F5F5F5F5F5F5F5E2F5F5F5F5F5F5F5F5F5F5F5F5F5F5F5F5F5F5F5F5F5F5F5F5F5F5F5F5F5F5F5F5F5F5F5F5F5F5F5F5F5F5F5F5F5F5F5F5F5F5F5F5F5F5F5F5F5F5F5F5F5F5F5F5F5F5F5F5F5F5F5F5F5F5F5F5F5F5F5F5F5F5F5F5F5F5F5F5F5F5F5F5
310
F5F5F5F5F5F5F5F5F5F5F5F5F5F5F5F5F5F5F5F5F5F5F5F5F5F5F5F5F5F5F5F5F5F5F5F5F5F5F5F5F5F5F5E2F5F5F5F5F5F5F5F5F5F5F5F5F5F5F5F5E2F5F5F5E2E2EFF5F5F5E2F5F5F5F5F5F5F5F5F5F5F5F5F5F5F5F5E2F5F5F5F5F5F5F5F5F5F5F5F5F5F5F5F5F5F5F5F5F5F5F5F5F5F5F5F5F5F5F5F5F5F5F5F5F5F5F5
310
F5F5F5F5F5F5F5F5F5F5F5F5F5F5F5F5F5F5F5F5F5F5F5F5F5F5F5F5F5F5F5F5F5F5F5F5F5F5F5F5F5F5F5F5F5F5F5F5F5F5F5F5F5F5F5F5F5F5F5F5F5F5F5F5F5F5F5F5F5F5F5F5F5F5F5F5F5F5F5F5F5F5F5F5F5F5F5F5F5F5F5F5F5F5F5F5E2F5F5F5F5F5F5F5F5F5F5F5F5F5F5F5F5E2F5F5F5E2E2EFF5F5F5E2F5F5F5
310
F5F5F5F5F5F5F5F5F5F5F5F5F5E2F5F5F5F5F5F5F5F5F5F5F5F5F5F5F5F5F5F5F5F5F5F5F5F5F5F5F5F5F5F5F5F5F5F5F5F5F5F5F5F5F5F5F5F5F5F5F5F5F5F5F5F5F5F5F5F5F5F5F5F5F5F5F5F5F5F5F5F5F5F5F5F5F5F5F5F5F5F5F5F5F5F5F5F5F5F5F5F5F5F5F5F5F5F5F5F5F5F5F5F5F5F5F5F5F5F5F5F5F5F5F5F5F5
310
F5F5F5F5F5F5F5F5F5F5F5F5F5F5F5F5F5F5F5F5F5F5E2F5F5F5F5F5F5F5F5F5F5F5F5F5F5F5F5E2F5F5F5E2E2EFF5F5F5E2F5F5F5F5F5F5F5F5F5F5F5F5F5F5F5F5E2F5F5F5F5F5F5F5F5F5F5F5F5F5F5F5F5F5F5F5F5F5F5F5F5F5F5F5F5F5F5F5F5F5F5F5F5F5F5F5F5F5F5F5F5F5F5F5F5F5F5F5F5F5F5F5F5F5F5F5F5
310
F5F5F5F5F5F5F5F5F5F5F5F5F5F5F5F5F5F5F5F5F5F5F5F5F5F5F5F5F5F5F5F5F5F5F5F5F5F5F5F5F5F5F5F5F5F5F5F5F5F5F5F5F5F5F5F5F5F5F5F5F5F5F5F5F5F5F5F5F5F5F5F5F5F5F5E2F5F5F5F5F5F5F5F5F5F5F5F5F5F5F5F5E2F5F5F5E2E2EFF5F5F5E2F5F5F5F5F5F5F5F5F5F5F5F5F5F5F5F5E2F5F5F5F5F5F5F5
310
F5F5F5F5F5F5F5F5F5F5F5F5F5F5F5F5F5F5F5F5F5F5F5F5F5F5F5F5F5F5F5F5F5F5F5F5F5F5F5F5F5F5F5F5F5F5F5F5F5F5F5F5F5F5F5F5F5F5F5F5F5F5F5F5F5F5F5F5F5F5F5F5F5F5F5F5F5F5F5F5F5F5F5F5F5F5F5F5F5F5F5F5F5F5F5F5F5F5F5F5F5F5F5F5F5F5F5F5F5F5F5F5F5F5F5F5F5F5F5F5F5F5F5F5F5F5F5
310
F5E2F5F5F5F5F5F5F5F5F5F5F5F5F5F5F5F5E2F5F5F5E2E2EFF5F5F5E2F5F5F5F5F5F5F5F5F5F5F5F5F5F5F5F5E2F5F5F5F5F5F5F5F5F5F5F5F5F5F5F5F5F5F5F5F5F5F5F5F5F5F5F5F5F5F5F5F5F5F5F5F5F5F5F5F5F5F5F5F5F5F5F5F5F5F5F5F5F5F5F5F5F5F5F5F5F5F5F5F5F5F5F5F5F5F5F5F5F5F5F5F5F5F5F5F5F5
310
F5F5F5F5F5F5F5F5F5F5F5F5F5F5F5F5F5F5F5F5F5F5F5F5F5F5F5F5F5F5F5F5F5F5F5F5F5F5F5F5F5F5F5F5F5F5F5F5F5F5F5F5F5F5E2F5F5F5F5F5F5F5F5F5F5F5F5F5F5F5F5E2F5F5F5E2E2EFF5F5F5E2F5F5F5F5F5F5F5F5F5F5F5F5F5F5F5F5E2F5F5F5F5F5F5F5F5F5F5F5F5F5F5F5F5F5F5F5F5F5F5F5F5F5F5F5F5
310
F5F5F5F5F5F5F5F5F5F5F5F5F5F5F5F5F5F5F5F5F5F5F5F5F5F5F5F5F5F5F5F5F5F5F5F5F5F5F5F5F5F5F5F5F5F5F5F5F5F5F5F5F5F5F5F5F5F5F5F5F5F5F5F5F5F5F5F5F5F5F5F5F5F5F5F5F5F5F5F5F5F5F5F5F5F5F5F5F5F5F5F5F5F5F5F5F5F5F5F5F5F5F5F5F5F5F5E2F5F5F5F5F5F5F5F5F5F5F5F5F5F5F5F5E2F5F5
310
F5E2E2EFF5F5F5E2F5F5F5F5F5F5F5F5F5F5F5F5F5F5F5F5E2F5F5F5F5F5F5F5F5F5F5F5F5F5F5F5F5F5F5F5F5F5F5F5F5F5F5F5F5F5F5F5F5F5F5F5F5F5F5F5F5F5F5F5F5F5F5F5F5F5F5F5F5F5F5F5F5F5F5F5F5F5F5F5F5F5F5F5F5F5F5F5F5F5F5F5F5F5F5F5F5F5F5F5F5F5F5F5F5F5F5F5F5F5F5F5F5F5F5F5F5F5F5
310
F5F5F5F5F5F5F5F5F5F5F5F5F5F5F5F5F5F5F5F5F5F5F5F5F5F5F5F5F5F5F5F5F5E2F5F5F5F5F5F5F5F5F5F5F5F5F5F5F5F5E2F5F5F5E2E2EFF5F5F5E2F5F5F5F5F5F5F5F5F5F5F5F5F5F5F5F5E2F5F5F5F5F5F5F5F5F5F5F5F5F5F5F5F5F5F5F5F5F5F5F5F5F5F5F5F5F5F5F5F5F5F5F5F5F5F5F5F5F5F5F5F5F5F5F5F5F5
310
F5F5F5F5F5F5F5F5F5F5F5F5F5F5F5F5F5F5F5F5F5F5F5F5F5F5F5F5F5F5F5F5F5F5F5F5F5F5F5F5F5F5F5F5F5F5F5F5F5F5F5F5F5F5F5F5F5F5F5F5F5F5F5F5F5F5F5F5F5F5F5F5F5F5F5F5F5F5F5F5F5F5F5F5F5F5E2F5F5F5F5F5F5F5F5F5F5F5F5F5F5F5F5E2F5F5F5E2E2EFF5F5F5E2F5F5F5F5F5F5F5F5F5F5F5F5F5
310
F5F5F5E2F5F5F5F5F5F5F5F5F5F5F5F5F5F5F5F5F5F5F5F5F5F5F5F5F5F5F5F5F5F5F5F5F5F5F5F5F5F5F5F5F5F5F5F5F5F5F5F5F5F5F5F5F5F5F5F5F5F5F5F5F5F5F5F5F5F5F5F5F5F5F5F5F5F5F5F5F5F5F5F5F5F5F5F5F5F5F5F5F5F5F5F5F5F5F5F5F5F5F5F5F5F5F5F5F5F5F5F5F5F5F5F5F5F5F5F5F5F5F5F5F5F5F5
310
F5F5F5F5F5F5F5F5F5F5F5F5E2F5F5F5F5F5F5F5F5F5F5F5F5F5F5F5F5E2F5F5F5E2E2EFF5F5F5E2F5F5F5F5F5F5F5F5F5F5F5F5F5F5F5F5E2F5F5F5F5F5F5F5F5F5F5F5F5F5F5F5F5F5F5F5F5F5F5F5F5F5F5F5F5F5F5F5F5F5F5F5F5F5F5F5F5F5F5F5F5F5F5F5F5F5F5F5F5F5F5F5F5F5F5F5F5F5F5F5F5F5F5F5F5F5F5
310
F5F5F5F5F5F5F5F5F5F5F5F5F5F5F5F5F5F5F5F5F5F5F5F5F5F5F5F5F5F5F5F5F5F5F5F5F5F5F5F5F5F5F5F5F5F5F5F5F5F5F5F5F5F5F5F5F5F5F5F5F5F5F5F5F5E2F5F5F5F5F5F5F5F5F5F5F5F5F5F5F5F5E2F5F5F5E2E2EFF5F5F5E2F5F5F5F5F5F5F5F5F5F5F5F5F5F5F5F5E2F5F5F5F5F5F5F5F5F5F5F5F5F5F5F5F5F5
310
F5F5F5F5F5F5F5F5F5F5F5F5F5F5F5F5F5F5F5F5F5F5F5F5F5F5F5F5F5F5F5F5F5F5F5F5F5F5F5F5F5F5F5F5F5F5F5F5F5F5F5F5F5F5F5F5F5F5F5F5F5F5F5F5F5F5F5F5F5F5F5F5F5F5F5F5F5F5F5F5F5F5F5F5F5F5F5F5F5F5F5F5F5F5F5F5F5F5F5F5F5F5F5F5F5F5F5F5F5F5F5F5F5F5F5F5F5F5E2F5F5F5F5F5F5F5F5
310
F5F5F5F5F5F5F5F5E2F5F5F5E2E2EFF5F5F5E2F5F5F5F5F5F5F5F5F5F5F5F5F5F5F5F5E2F5F5F5F5F5F5F5F5F5F5F5F5F5F5F5F5F5F5F5F5F5F5F5F5F5F5F5F5F5F5F5F5F5F5F5F5F5F5F5F5F5F5F5F5F5F5F5F5F5F5F5F5F5F5F5F5F5F5F5F5F5F5F5F5F5F5F5F5F5F5F5F5F5F5F5F5F5F5F5F5F5F5F5F5F5F5F5F5F5F5F5
310
F5F5F5F5F5F5F5F5F5F5F5F5F5F5F5F5F5F5F5F5F5F5F5F5F5F5F5F5F5F5F5F5F5F5F5F5F5F5F5F5F5F5F5F5E2F5F5F5F5F5F5F5F5F5F5F5F5F5F5F5F5E2F5F5F5E2E2EFF5F5F5E2F5F5F5F5F5F5F5F5F5F5F5F5F5F5F5F5E2F5F5F5F5F5F5F5F5F5F5F5F5F5F5F5F5F5F5F5F5F5F5F5F5F5F5F5F5F5F5F5F5F5F5F5F5F5F5
310
F5F5F5F5F5F5F5F5F5F5F5F5F5F5F5F5F5F5F5F5F5F5F5F5F5F5F5F5F5F5F5F5F5F5F5F5F5F5F5F5F5F5F5F5F5F5F5F5F5F5F5F5F5F5F5F5F5F5F5F5F5F5F5F5F5F5F5F5F5F5F5F5F5F5F5F5F5F5F5F5F5F5F5F5F5F5F5F5F5F5F5F5F5F5F5F5F5E2F5F5F5F5F5F5F5F5F5F5F5F5F5F5F5F5E2F5F5F5E2E2EFF5F5F5E2F5F5
310
F5F5F5F5F5F5F5F5F5F5F5F5F5F5E2F5F5F5F5F5F5F5F5F5F5F5F5F5F5F5F5F5F5F5F5F5F5F5F5F5F5F5F5F5F5F5F5F5F5F5F5F5F5F5F5F5F5F5F5F5F5F5F5F5F5F5F5F5F5F5F5F5F5F5F5F5F5F5F5F5F5F5F5F5F5F5F5F5F5F5F5F5F5F5F5F5F5F5F5F5F5F5F5F5F5F5F5F5F5F5F5F5F5F5F5F5F5F5F5F5F5F5F5F5F5F5F5
310
F5F5F5F5F5F5F5F5F5F5F5F5F5F5F5F5F5F5F5F5F5F5F5E2F5F5F5F5F5F5F5F5F5F5F5F5F5F5F5F5E2F5F5F5E2E2EFF5F5F5E2F5F5F5F5F5F5F5F5F5F5F5F5F5F5F5F5E2F5F5F5F5F5F5F5F5F5F5F5F5F5F5F5F5F5F5F5F5F5F5F5F5F5F5F5F5F5F5F5F5F5F5F5F5F5F5F5F5F5F5F5F5F5F5F5F5F5F5F5F5F5F5F5F5F5F5F5
310
F5F5F5F5F5F5F5F5F5F5F5F5F5F5F5F5F5F5F5F5F5F5F5F5F5F5F5F5F5F5F5F5F5F5F5F5F5F5F5F5F5F5F5F5F5F5F5F5F5F5F5F5F5F5F5F5F5F5F5F5F5F5F5F5F5F5F5F5F5F5F5F5F5F5F5F5E2F5F5F5F5F5F5F5F5F5F5F5F5F5F5F5F5E2F5F5F5E2E2EFF5F5F5E2F5F5F5F5F5F5F5F5F5F5F5F5F5F5F5F5E2F5F5F5F5F5F5
310
F5F5F5F5F5F5F5F5F5F5F5F5F5F5F5F5F5F5F5F5F5F5F5F5F5F5F5F5F5F5F5F5F5F5F5F5F5F5F5F5F5F5F5F5F5F5F5F5F5F5F5F5F5F5F5F5F5F5F5F5F5F5F5F5F5F5F5F5F5F5F5F5F5F5F5F5F5F5F5F5F5F5F5F5F5F5F5F5F5F5F5F5F5F5F5F5F5F5F5F5F5F5F5F5F5F5F5F5F5F5F5F5F5F5F5F5F5F5F5F5F5F5F5F5F5F5F5
310
F5F5E2F5F5F5F5F5F5F5F5F5F5F5F5F5F5F5F5E2F5F5F5E2E2EFF5F5F5F5F5F5F5F5F5F5F5F5F5F5F5F5F5F5F5F5E2F5F5F5F5F5F5F5F5F5F5F5F5F5F5F5F5F5F5F5F5F5F5F5F5F5F5F5F5F5F5F5F5F5F5F5F5F5F5F5F5F5F5F5F5F5F5F5F5F5F5F5F5F5F5F5F5F5F5F5F5F5F5F5F5F5F5F5F5F5F5F5F5F5F5F5F5F5F5F5F5
310
F5F5F5F5F5F5F5F5F5F5F5F5F5F5F5F5F5F5F5F5F5F5F5F5F5F5F5F5F5F5F5F5F5F5F5F5F5F5F5F5F5F5F5F5F5F5F5F5F5F5F5F5F5F5F5E2F5F5F5F5F5F5F5F5F5F5F5F5F5F5F5F5F5F5F5F5E2E2EFF5F5F5F5F5F5F5F5F5F5F5F5F5F5F5F5F5F5F5F5E2F5F5F5F5F5F5F5F5F5F5F5F5F5F5F5F5F5F5F5F5F5F5F5F5F5F5F5
310
F5F5F5F5F5F5F5F5F5F5F5F5F5F5F5F5F5F5F5F5F5F5F5F5F5F5F5F5F5F5F5F5F5F5F5F5F5F5F5F5F5F5F5F5F5F5F5F5F5F5F5F5F5F5F5F5F5F5F5F5F5F5F5F5F5F5F5F5F5F5F5F5F5F5F5F5F5F5F5F5F5F5F5F5F5F5F5F5F5F5F5F5F5F5F5F5F5F5F5F5F5F5F5F5F5F5F5F5E2F5F5F5F5F5F5F5F5F5F5F5F5F5F5F5F5F5F5
310
F5F5E2E2EFF5F5F5F5F5F5F5F5F5F5F5F5F5F5F5F5F5F5F5F5E2F5F5F5F5F5F5F5F5F5F5F5F5F5F5F5F5F5F5F5F5F5F5F5F5F5F5F5F5F5F5F5F5F5F5F5F5F5F5F5F5F5F5F5F5F5F5F5F5F5F5F5F5F5F5F5F5F5F5F5F5F5F5F5F5F5F5F5F5F5F5F5F5F5F5F5F5F5F5F5F5F5F5F5F5F5F5F5F5F5F5F5F5F5F5F5F5F5F5F5F5F5
310
F5F5F5F5F5F5F5F5F5F5F5F5F5F5F5F5F5F5F5F5F5F5F5F5F5F5F5F5F5F5F5F5F5F5E2F5F5F5F5F5F5F5F5F5F5F5F5F5F5F5F5F5F5F5F5E2E2EFF5F5F5F5F5F5F5F5F5F5F5F5F5F5F5F5F5F5F5F5E2F5F5F5F5F5F5F5F5F5F5F5F5F5F5F5F5F5F5F5F5F5F5F5F5F5F5F5F5F5F5F5F5F5F5F5F5F5F5F5F5F5F5F5F5F5F5F5F5
310
F5F5F5F5F5F5F5F5F5F5F5F5F5F5F5F5F5F5F5F5F5F5F5F5F5F5F5F5F5F5F5F5F5F5F5F5F5F5F5F5F5F5F5F5F5F5F5F5F5F5F5F5F5F5F5F5F5F5F5F5F5F5F5F5F5F5F5F5F5F5F5F5F5F5F5F5F5F5F5F5F5F5F5F5F5F5F5E2F5F5F5F5F5F5F5F5F5F5F5F5F5F5F5F5F5F5F5F5E2E2EFF5F5F5F5F5F5F5F5F5F5F5F5F5F5F5F5
310
F5F5F5F5E2E2E2E2E2E2E2E2E2E2E2E2E2E2E2E2E2E2E2E2E2E2E2E2E2E2E2E2E2E2E2E2E2E2E2E2E2E2E2E2E2E2E2E2E2E2E2E2E2E2E2E2E2E2E2E2E2E2E2E2E2E2E2E2E2E2E2E2E2E2E2E2E2E2E2E2E2E2E2E2E2E2E2E2E2E2E2E2E2E2E2E2E2E2E2E2E2E2E2E2E2E2E2E2E2E2E2E2E2E2E2E2E2E2E2E2E2E2E2E2E2E2E2
310
E2E2E2E2E2E2E2E2E2E2E2E2E2E2F5F5F5F5F5F5F5F5F5F5F5F5F5F5F5F5F5F5F5F5E2E2EFF5F5F5F5F5F5F5F5F5F5F5F5F5F5F5F5F5F5F5F5F5F5F5F5F5F5F5F5F5F5F5F5F5F5F5F5F5F5F5F5F5F5F5F5F5F5F5F5F5F5F5F5F5F5F5F5F5F5F5F5F5F5F5F5F5F5F5F5F5F5F5F5F5F5F5F5F5F5F5F5F5F5F5F5F5F5F5F5F5F5
310
F5F5F5F5F5F5F5F5F5F5F5F5F5F5F5F5F5F5F5F5F5F5F5F5F5F5F5F5F5F5F5F5F5F5F5F5F5F5F5F5F5F5F5F5F5F5F5F5F5F5F5F5F5F5F5F5F5F5F5F5F5F5F5F5F5F5F5F5F5F5F5F5F5F5F5F5F5F5F5F5F5F5F5F5F5F5F5E2E2EFF5F5F5F5F5F5F5F5F5F5F5F5F5F5F5F5F5F5F5F5F5F5F5F5F5F5F5F5F5F5F5F5F5F5F5F5F5
310
F5F5F5F5F5F5F5F5F5F5F5F5F5F5F5F5F5F5F5F5F5F5F5F5F5F5F5F5F5F5F5F5F5F5F5F5F5F5F5F5F5F5F5F5F5F5F5F5F5F5F5F5F5F5F5F5F5F5F5F5F5F5F5F5F5F5F5F5F5F5F5F5F5F5F5F5F5F5F5F5F5F5F5F5F5F5F5F5F5F5F5F5F5F5F5F5F5F5F5F5F5F5F5F5F5F5F5F5F5F5F5F5F5F5F5F5F5F5F5F5F5F5F5F5F5F5F5
310
F5F5F5F5F5F5F5F5F5F5F5F5F5E2E2EFF5F5F5F5F5F5F5F5F5F5F5F5F5F5F5F5F5F5F5F5F5F5F5F5F5F5F5F5F5F5F5F5F5F5F5F5F5F5F5F5F5F5F5F5F5F5F5F5F5F5F5F5F5F5F5F5F5F5F5F5F5F5F5F5F5F5F5F5F5F5F5F5F5F5F5F5F5F5F5F5F5F5F5F5F5F5F5F5F5F5F5F5F5F5F5F5F5F5F5F5F5F5F5F5F5F5F5F5F5F5F5
310
F5F5F5F5F5F5F5F5F5F5F5F5F5F5F5F5F5F5F5F5F5F5F5F5F5F5F5F5F5F5F5F5F5F5F5F5F5F5F5F5F5F5F5F5F5F5F5F5F5F5F5F5F5F5F5F5F5F5F5F5F5F5F5F5F5F5E2E2EFF5F5F5F5F5F5F5F5F5F5F5F5F5F5F5F5F5F5F5F5F5F5F5F5F5F5F5F5F5F5F5F5F5F5F5F5F5F5F5F5F5F5F5F5F5F5F5F5F5F5F5F5F5F5F5F5F5F5
310
F5F5F5F5F5F5F5F5F5F5F5F5F5F5F5F5F5F5F5F5F5F5F5F5F5F5F5F5F5F5F5F5F5F5F5F5F5F5F5F5F5F5F5F5F5F5F5F5F5F5F5F5F5F5F5F5F5F5F5F5F5F5F5F5F5F5F5F5F5F5F5F5F5F5F5F5F5F5F5F5F5F5F5F5F5F5F5F5F5F5F5F5F5F5F5F5F5F5F5F5F5F5F5F5F5F5F5F5F5F5F5F5F5F5F5F5F5F5F5E2E2EFF5F5F5E2F5
310
F5F5F5F5F5F5F5F5F5F5F5F5F5F5F5F5F5F5F5F5F5F5F5F5F5F5F5F5F5F5F5F5F5F5F5F5F5F5F5F5F5F5F5F5F5F5F5F5F5F5F5F5F5F5F5F5F5F5F5F5F5F5F5F5F5F5F5F5F5F5F5F5F5F5F5F5F5F5F5F5F5F5F5F5F5F5F5F5F5F5F5F5F5F5F5F5F5F5F5F5F5F5F5F5F5F5F5F5F5F5F5F5F5F5F5F5F5F5F5F5F5F5F5F5F5F5F5
310
F5F5F5F5F5F5F5F5F5F5F5F5F5F5F5F5F5F5F5F5F5F5F5F5F5F5F5F5F5F5F5F5F5F5F5F5F5F5F5F5F5E2F5F5F5E2E2EFF5F5F5E2F5F5F5F5F5F5F5F5F5F5F5F5F5F5F5F5F5F5F5F5F5F5F5F5F5F5F5F5F5F5F5F5F5F5F5F5F5F5F5F5F5F5F5F5F5F5F5F5F5F5F5F5F5F5F5F5F5F5F5F5F5F5F5F5F5F5F5F5F5F5F5F5F5F5F5
310
F5F5F5F5F5F5F5F5F5F5F5F5F5F5F5F5F5F5F5F5F5F5F5F5F5F5F5F5F5F5F5F5F5F5F5F5F5F5F5F5F5F5F5F5F5F5F5F5F5F5F5F5F5F5F5F5F5F5F5F5F5F5F5F5F5F5F5F5F5F5F5F5F5F5F5F5F5F5F5F5F5F5F5F5F5F5F5F5F5F5F5F5F5F5E2F5F5F5E2E2EFF5F5F5E2F5F5F5F5F5F5F5F5F5F5F5F5F5F5F5F5F5F5F5F5F5F5
310
F5F5F5F5F5F5F5F5F5F5F5F5F5F5F5F5F5F5F5F5F5F5F5F5F5F5F5F5F5F5F5F5F5F5F5F5F5F5F5F5F5F5F5F5F5F5F5F5F5F5F5F5F5F5F5F5F5F5F5F5F5F5F5F5F5F5F5F5F5F5F5F5F5F5F5F5F5F5F5F5F5F5F5F5F5F5F5F5F5F5F5F5F5F5F5F5F5F5F5F5F5F5F5F5F5F5F5F5F5F5F5F5F5F5F5F5F5F5F5F5F5F5F5F5F5F5F5
310
F5F5F5F5F5F5F5F5F5F5F5F5F5F5F5F5F5F5F5F5E2F5F5F5E2E2EFF5F5F5E2F5F5F5F5F5F5F5F5F5F5F5F5F5F5F5F5F5F5F5F5F5F5F5F5F5F5F5F5F5F5F5F5F5F5F5F5F5F5F5F5F5F5F5F5F5F5F5F5F5F5F5F5F5F5F5F5F5F5F5F5F5F5F5F5F5F5F5F5F5F5F5F5F5F5F5F5F5F5F5F5F5F5F5F5F5F5F5F5F5F5F5F5F5F5F5F5
310
F5F5F5F5F5F5F5F5F5F5F5F5F5F5F5F5F5F5F5F5F5F5F5F5F5F5F5F5F5F5F5F5F5F5F5F5F5F5F5F5F5F5F5F5F5F5F5F5F5F5F5F5F5F5F5F5F5F5F5F5F5F5F5F5F5F5F5F5F5F5F5F5F5E2F5F5F5E2E2EFF5F5F5E2F5F5F5F5F5F5F5F5F5F5F5F5F5F5F5F5F5F5F5F5F5F5F5F5F5F5F5F5F5F5F5F5F5F5F5F5F5F5F5F5F5F5F5
310
F5F5F5F5F5F5F5F5F5F5F5F5F5F5F5F5F5F5F5F5F5F5F5F5F5F5F5F5F5F5F5F5F5F5F5F5F5F5F5F5F5F5F5F5F5F5F5F5F5F5F5F5F5F5F5F5F5F5F5F5F5F5F5F5F5F5F5F5F5F5F5F5F5F5F5F5F5F5F5F5F5F5F5F5F5F5F5F5F5F5F5F5F5F5F5F5F5F5F5F5F5F5F5F5F5F5F5F5F5F5F5F5F5F5F5F5F5F5F5F5F5F5F5F5F5F5E2
310
F5F5F5E2E2EFF5F5F5E2F5F5F5F5F5F5F5F5F5F5F5F5F5F5F5F5F5F5F5F5F5F5F5F5F5F5F5F5F5F5F5F5F5F5F5F5F5F5F5F5F5F5F5F5F5F5F5F5F5F5F5F5F5F5F5F5F5F5F5F5F5F5F5F5F5F5F5F5F5F5F5F5F5F5F5F5F5F5F5F5F5F5F5F5F5F5F5F5F5F5F5F5F5F5F5F5F5F5F5F5F5F5F5F5F5F5F5F5F5F5F5F5F5F5F5F5F5
310
F5F5F5F5F5F5F5F5F5F5F5F5F5F5F5F5F5F5F5F5F5F5F5F5F5F5F5F5F5F5F5F5F5F5F5F5F5F5F5F5F5F5F5F5F5F5F5F5F5F5F5F5E2F5F5F5E2E2EFF5F5F5E2F5F5F5F5F5F5F5F5F5F5F5F5F5F5F5F5F5F5F5F5F5F5F5F5F5F5F5F5F5F5F5F5F5F5F5F5F5F5F5F5F5F5F5F5F5F5F5F5F5F5F5F5F5F5F5F5F5F5F5F5F5F5F5F5
310
F5F5F5F5F5F5F5F5F5F5F5F5F5F5F5F5F5F5F5F5F5F5F5F5F5F5F5F5F5F5F5F5F5F5F5F5F5F5F5F5F5F5F5F5F5F5F5F5F5F5F5F5F5F5F5F5F5F5F5F5F5F5F5F5F5F5F5F5F5F5F5F5F5F5F5F5F5F5F5F5F5F5F5F5F5F5F5F5F5F5F5F5F5F5F5F5F5F5F5F5F5F5F5F5F5E2F5F5F5E2E2EFF5F5F5E2F5F5F5F5F5F5F5F5F5F5F5
310
F5F5F5F5F5F5F5F5F5F5F5F5F5F5F5F5F5F5F5F5F5F5F5F5F5F5F5F5F5F5F5F5F5F5F5F5F5F5F5F5F5F5F5F5F5F5F5F5F5F5F5F5F5F5F5F5F5F5F5F5F5F5F5F5F5F5F5F5F5F5F5F5F5F5F5F5F5F5F5F5F5F5F5F5F5F5F5F5F5F5F5F5F5F5F5F5F5F5F5F5F5F5F5F5F5F5F5F5F5F5F5F5F5F5F5F5F5F5F5F5F5F5F5F5F5F5F5
310
F5F5F5F5F5F5F5F5F5F5F5F5F5F5F5F5F5F5F5F5F5F5F5F5F5F5F5F5F5F5F5E2F5F5F5E2E2EFF5F5F5E2E2E2E2E2E2E2E2F5F5F5F5F5F5F5F5F5E2E2E2E2E2E2E2E2E2E2E2E2E2E2E2E2F5F5F5F5F5F5F5F5E2E2E2E2E2E2E2E2E2E2E2E2E2E2E2E2F5F5F5F5F5F5F5F5F5E2E2E2E2E2E2E2E2E2E2E2E2E2E2E2F5F5F5F5F5
310
F5F5F5F5E2E2E2E2E2E2E2E2E2E2E2E2E2E2E2F5F5F5F5F5F5F5F5F5E2E2E2E2E2E2E2E2E2E2E2E2E2E2E2E2F5F5F5F5F5F5F5F5E2E2E2E2E2E2E2E2E2E2E2E2E2E2E2E2F5F5F5F5F5F5F5F5F5E2E2E2E2E2E2E2E2F5F5F5E2E2EFF5F5F5F5F5F5F5F5F5F5F5F5F5F5F5F5F5F5F5F5F5F5F5F5F5F5F5F5F5F5F5F5F5F5F5F5
310
F5F5F5F5F5F5F5F5F5F5F5F5F5F5F5F5F5F5F5F5F5F5F5F5F5F5F5F5F5F5F5F5F5F5F5F5F5F5F5F5F5F5F5F5F5F5F5F5F5F5F5F5F5F5F5F5F5F5F5F5F5F5F5F5F5F5F5F5F5F5F5F5F5F5F5F5F5F5F5F5F5F5F5F5F5F5F5F5F5F5F5F5F5F5F5F5F5F5F5F5F5F5F5F5F5F5F5F5F5F5F5F5F5F5F5F5F5F5F5F5F5F5F5F5F5F5F5
310
F5F5F5F5F5F5F5F5F5F5F5F5F5F5E2E2EFF5F5F5F5F5F5F5F5F5F5F5F5F5F5F5F5F5F5F5F5F5F5F5F5F5F5F5F5F5F5F5F5F5F5F5F5F5F5F5F5F5F5F5F5F5F5F5F5F5F5F5F5F5F5F5F5F5F5F5F5F5F5F5F5F5F5F5F5F5F5F5F5F5F5F5F5F5F5F5F5F5F5F5F5F5F5F5F5F5F5F5F5F5F5F5F5F5F5F5F5F5F5F5F5F5F5F5F5F5F5
310
F5F5F5F5F5F5F5F5F5F5F5F5F5F5F5F5F5F5F5F5F5F5F5F5F5F5F5F5F5F5F5F5F5F5F5F5F5F5F5F5F5F5F5F5F5F5F5F5F5F5F5F5F5F5F5F5F5F5F5F5F5F5F5F5F5F5F5E2EFEFF5F5F5F5F5F5F5F5F5F5F5F5F5F5F5F5F5F5F5F5F5F5F5F5F5F5F5F5F5F5F5F5F5F5F5F5F5F5F5F5F5F5F5F5F5F5F5F5F5F5F5F5F5F5F5F5F5
310
F5F5F5F5F5F5F5F5F5F5F5F5F5F5F5F5F5F5F5F5F5F5F5F5F5F5F5F5F5F5F5F5F5F5F5F5F5F5F5F5F5F5F5F5F5F5F5F5F5F5F5F5F5F5F5F5F5F5F5F5F5F5F5F5F5F5F5F5F5F5F5F5F5F5F5F5F5F5F5F5F5F5F5F5F5F5F5F5F5F5F5F5F5F5F5F5F5F5F5F5F5F5F5F5F5F5F5F5F5F5F5F5F5F5F5F5F5F5F5F5E2EFEFE2E2E2E2
310
E2E2E2E2E2E2E2E2E2E2E2E2E2E2E2E2E2E2E2E2E2E2E2E2E2E2E2E2E2E2E2E2E2E2E2E2E2E2E2E2E2E2E2E2E2E2E2E2E2E2E2E2E2E2E2E2E2E2E2E2E2E2E2E2E2E2E2E2E2E2E2E2E2E2E2E2E2E2E2E2E2E2E2E2E2E2E2E2E2E2E2E2E2E2E2E2E2E2E2E2E2E2E2E2E2E2E2E2E2E2E2E2E2E2E2E2E2E2E2E2E2E2E2E2E2E2E2
310
E2E2E2E2E2E2E2E2E2E2E2E2E2E2E2E2E2E2E2E2E2E2E2E2E2E2E2E2E2E2E2E2E2E2E2E2E2E2E2E2E2E2E2E2E2E2E2EFEF
  0
ENDSEC
  0
EOF
